  0
SECTION
  2
HEADER
  9
$ACADVER
  1
AC1014
  9
$ACADMAINTVER
 70
     9
  9
$DWGCODEPAGE
  3
ANSI_1252
  9
$INSBASE
 10
2686.34754283924
 20
-1335.850092516704
 30
0.0000004144569519
  9
$EXTMIN
 10
-113.235355325722
 20
-99.32406310223504
 30
-0.0000006249927512
  9
$EXTMAX
 10
488.9898100801137
 20
382.9615545786513
 30
0.0000002464694888
  9
$LIMMIN
 10
0.0
 20
0.0
  9
$LIMMAX
 10
420.0
 20
297.0
  9
$ORTHOMODE
 70
     0
  9
$REGENMODE
 70
     1
  9
$FILLMODE
 70
     1
  9
$QTEXTMODE
 70
     0
  9
$MIRRTEXT
 70
     0
  9
$DRAGMODE
 70
     2
  9
$LTSCALE
 40
10.0
  9
$OSMODE
 70
    37
  9
$ATTMODE
 70
     1
  9
$TEXTSIZE
 40
2.0
  9
$TRACEWID
 40
1.0
  9
$TEXTSTYLE
  7
DEYP
  9
$CLAYER
  8
0
  9
$CELTYPE
  6
BYLAYER
  9
$CECOLOR
 62
   256
  9
$CELTSCALE
 40
1.0
  9
$DELOBJ
 70
     1
  9
$DISPSILH
 70
     0
  9
$DIMSCALE
 40
1.0
  9
$DIMASZ
 40
0.12
  9
$DIMEXO
 40
0.25
  9
$DIMDLI
 40
0.75
  9
$DIMRND
 40
0.05
  9
$DIMDLE
 40
0.0
  9
$DIMEXE
 40
0.12
  9
$DIMTP
 40
0.0
  9
$DIMTM
 40
0.0
  9
$DIMTXT
 40
0.18
  9
$DIMCEN
 40
0.3
  9
$DIMTSZ
 40
0.0
  9
$DIMTOL
 70
     0
  9
$DIMLIM
 70
     0
  9
$DIMTIH
 70
     0
  9
$DIMTOH
 70
     1
  9
$DIMSE1
 70
     0
  9
$DIMSE2
 70
     0
  9
$DIMTAD
 70
     2
  9
$DIMZIN
 70
     1
  9
$DIMBLK
  1
TICK
  9
$DIMASO
 70
     1
  9
$DIMSHO
 70
     1
  9
$DIMPOST
  1

  9
$DIMAPOST
  1

  9
$DIMALT
 70
     0
  9
$DIMALTD
 70
     2
  9
$DIMALTF
 40
25.4
  9
$DIMLFAC
 40
1.0
  9
$DIMTOFL
 70
     0
  9
$DIMTVP
 40
0.0
  9
$DIMTIX
 70
     1
  9
$DIMSOXD
 70
     0
  9
$DIMSAH
 70
     1
  9
$DIMBLK1
  1
TICK
  9
$DIMBLK2
  1
TICK
  9
$DIMSTYLE
  2
COTA1
  9
$DIMCLRD
 70
     7
  9
$DIMCLRE
 70
     7
  9
$DIMCLRT
 70
     2
  9
$DIMTFAC
 40
1.0
  9
$DIMGAP
 40
0.09
  9
$DIMJUST
 70
     4
  9
$DIMSD1
 70
     0
  9
$DIMSD2
 70
     0
  9
$DIMTOLJ
 70
     1
  9
$DIMTZIN
 70
     1
  9
$DIMALTZ
 70
     1
  9
$DIMALTTZ
 70
     1
  9
$DIMFIT
 70
     5
  9
$DIMUPT
 70
     0
  9
$DIMUNIT
 70
     2
  9
$DIMDEC
 70
     2
  9
$DIMTDEC
 70
     2
  9
$DIMALTU
 70
     2
  9
$DIMALTTD
 70
     2
  9
$DIMTXSTY
  7
STANDARD
  9
$DIMAUNIT
 70
     0
  9
$LUNITS
 70
     2
  9
$LUPREC
 70
     4
  9
$SKETCHINC
 40
1.0
  9
$FILLETRAD
 40
0.0
  9
$AUNITS
 70
     0
  9
$AUPREC
 70
     0
  9
$MENU
  1
.
  9
$ELEVATION
 40
0.0
  9
$PELEVATION
 40
0.0
  9
$THICKNESS
 40
0.0
  9
$LIMCHECK
 70
     0
  9
$BLIPMODE
 70
     0
  9
$CHAMFERA
 40
10.0
  9
$CHAMFERB
 40
10.0
  9
$CHAMFERC
 40
20.0
  9
$CHAMFERD
 40
0.0
  9
$SKPOLY
 70
     0
  9
$TDCREATE
 40
2452237.366010300
  9
$TDUPDATE
 40
2452695.547993704
  9
$TDINDWG
 40
0.8704384838
  9
$TDUSRTIMER
 40
0.8704384838
  9
$USRTIMER
 70
     1
  9
$ANGBASE
 50
0.0
  9
$ANGDIR
 70
     0
  9
$PDMODE
 70
     0
  9
$PDSIZE
 40
0.0
  9
$PLINEWID
 40
1.0
  9
$COORDS
 70
     1
  9
$SPLFRAME
 70
     0
  9
$SPLINETYPE
 70
     6
  9
$SPLINESEGS
 70
     8
  9
$ATTDIA
 70
     0
  9
$ATTREQ
 70
     1
  9
$HANDLING
 70
  4097
  9
$HANDSEED
  5
309
  9
$SURFTAB1
 70
     6
  9
$SURFTAB2
 70
     6
  9
$SURFTYPE
 70
     6
  9
$SURFU
 70
     6
  9
$SURFV
 70
     6
  9
$UCSNAME
  2

  9
$UCSORG
 10
0.0
 20
0.0
 30
0.0
  9
$UCSXDIR
 10
1.0
 20
0.0
 30
0.0
  9
$UCSYDIR
 10
0.0
 20
1.0
 30
0.0
  9
$PUCSNAME
  2

  9
$PUCSORG
 10
0.0
 20
0.0
 30
0.0
  9
$PUCSXDIR
 10
1.0
 20
0.0
 30
0.0
  9
$PUCSYDIR
 10
0.0
 20
1.0
 30
0.0
  9
$USERI1
 70
     0
  9
$USERI2
 70
     0
  9
$USERI3
 70
     0
  9
$USERI4
 70
     0
  9
$USERI5
 70
     0
  9
$USERR1
 40
1.0
  9
$USERR2
 40
1.0
  9
$USERR3
 40
0.0
  9
$USERR4
 40
0.0
  9
$USERR5
 40
0.0
  9
$WORLDVIEW
 70
     1
  9
$SHADEDGE
 70
     3
  9
$SHADEDIF
 70
    70
  9
$TILEMODE
 70
     1
  9
$MAXACTVP
 70
    48
  9
$PINSBASE
 10
0.0
 20
0.0
 30
0.0
  9
$PLIMCHECK
 70
     0
  9
$PEXTMIN
 10
1.000000000000000E+20
 20
1.000000000000000E+20
 30
1.000000000000000E+20
  9
$PEXTMAX
 10
-1.000000000000000E+20
 20
-1.000000000000000E+20
 30
-1.000000000000000E+20
  9
$PLIMMIN
 10
0.0
 20
0.0
  9
$PLIMMAX
 10
420.0
 20
297.0
  9
$UNITMODE
 70
     0
  9
$VISRETAIN
 70
     1
  9
$PLINEGEN
 70
     0
  9
$PSLTSCALE
 70
     1
  9
$TREEDEPTH
 70
  3020
  9
$PICKSTYLE
 70
     1
  9
$CMLSTYLE
  2
STANDARD
  9
$CMLJUST
 70
     0
  9
$CMLSCALE
 40
20.0
  9
$PROXYGRAPHICS
 70
     1
  9
$MEASUREMENT
 70
     0
  0
ENDSEC
  0
SECTION
  2
CLASSES
  0
CLASS
  1
LWPOLYLINE
  2
AcDbPolyline
  3
AutoCAD 2000
 90
        0
280
     0
281
     1
  0
CLASS
  1
HATCH
  2
AcDbHatch
  3
AutoCAD 2000
 90
        0
280
     0
281
     1
  0
CLASS
  1
XRECORD
  2
AcDbXrecord
  3
AutoCAD 2000
 90
        0
280
     0
281
     0
  0
CLASS
  1
DICTIONARYVAR
  2
AcDbDictionaryVar
  3
AutoCAD 2000
 90
        0
280
     0
281
     0
  0
CLASS
  1
ACDBDICTIONARYWDFLT
  2
AcDbDictionaryWithDefault
  3
AutoCAD 2000
 90
        0
280
     0
281
     0
  0
CLASS
  1
ACDBPLACEHOLDER
  2
AcDbPlaceHolder
  3
AutoCAD 2000
 90
        0
280
     0
281
     0
  0
CLASS
  1
LAYOUT
  2
AcDbLayout
  3
AutoCAD 2000
 90
        0
280
     0
281
     0
  0
CLASS
  1
LONG_TRANSACTION
  2
AcDbLongTransaction
  3
AutoCAD 2000
 90
        0
280
     0
281
     0
  0
CLASS
  1
LWPOLYLINE
  2
AcDbPolyline
  3
AutoCAD 2000
 90
        0
280
     0
281
     1
  0
CLASS
  1
HATCH
  2
AcDbHatch
  3
AutoCAD 2000
 90
        0
280
     0
281
     1
  0
CLASS
  1
XRECORD
  2
AcDbXrecord
  3
AutoCAD 2000
 90
        0
280
     0
281
     0
  0
ENDSEC
  0
SECTION
  2
TABLES
  0
TABLE
  2
VPORT
  5
19
330
0
100
AcDbSymbolTable
 70
     2
  0
VPORT
  5
2E3
330
19
100
AcDbSymbolTableRecord
100
AcDbViewportTableRecord
  2
*ACTIVE
 70
     0
 10
0.0
 20
0.0
 11
1.0
 21
1.0
 12
187.8772273771958
 22
150.0467850773041
 13
0.0
 23
0.0
 14
10.0
 24
10.0
 15
10.0
 25
10.0
 16
0.0
 26
0.0
 36
1.0
 17
0.0
 27
0.0
 37
0.0
 40
504.5875826339983
 41
1.676282051282051
 42
50.0
 43
0.0
 44
0.0
 50
0.0
 51
0.0
 71
     0
 72
 20000
 73
     1
 74
     1
 75
     0
 76
     0
 77
     0
 78
     0
  0
ENDTAB
  0
TABLE
  2
LTYPE
  5
14
330
0
100
AcDbSymbolTable
 70
     6
  0
LTYPE
  5
15
330
14
100
AcDbSymbolTableRecord
100
AcDbLinetypeTableRecord
  2
BYBLOCK
 70
     0
  3

 72
    65
 73
     0
 40
0.0
  0
LTYPE
  5
16
330
14
100
AcDbSymbolTableRecord
100
AcDbLinetypeTableRecord
  2
BYLAYER
 70
     0
  3

 72
    65
 73
     0
 40
0.0
  0
LTYPE
  5
8
330
14
100
AcDbSymbolTableRecord
100
AcDbLinetypeTableRecord
  2
CONTINUOUS
 70
     0
  3
Solid line
 72
    65
 73
     0
 40
0.0
  0
LTYPE
  5
6B
330
14
100
AcDbSymbolTableRecord
100
AcDbLinetypeTableRecord
  2
CONTINUA
 70
     0
  3
Linea ininterrumpida
 72
    65
 73
     0
 40
0.0
  0
LTYPE
  5
6E
330
14
100
AcDbSymbolTableRecord
100
AcDbLinetypeTableRecord
  2
CENTRO
 70
     0
  3
____ _ ____ _ ____ _ ____ _ ____ _ ____ _ __
 72
    65
 73
     4
 40
2.0
 49
1.25
 74
     0
 49
-0.25
 74
     0
 49
0.25
 74
     0
 49
-0.25
 74
     0
  0
LTYPE
  5
7E
330
14
100
AcDbSymbolTableRecord
100
AcDbLinetypeTableRecord
  2
RAYITAS
 70
     0
  3
_ _ _ _ _ _ _ _ _ _ _ _ _ _ _ _ _ _ _ _ _ _
 72
    65
 73
     2
 40
0.375
 49
0.25
 74
     0
 49
-0.125
 74
     0
  0
LTYPE
  5
DA
330
14
100
AcDbSymbolTableRecord
100
AcDbLinetypeTableRecord
  2
TRAZOS
 70
     0
  3
__ __ __ __ __ __ __ __ __ __ __ __ __ __ __ __
 72
    65
 73
     2
 40
0.75
 49
0.5
 74
     0
 49
-0.25
 74
     0
  0
LTYPE
  5
20E
330
14
100
AcDbSymbolTableRecord
100
AcDbLinetypeTableRecord
  2
TRAZO_Y_PUNTO
 70
     0
  3
__ . __ . __ . __ . __ . __ . __ . __ . __ . __
 72
    65
 73
     4
 40
1.0
 49
0.5
 74
     0
 49
-0.25
 74
     0
 49
0.0
 74
     0
 49
-0.25
 74
     0
  0
ENDTAB
  0
TABLE
  2
LAYER
  5
10
330
0
100
AcDbSymbolTable
 70
     6
  0
LAYER
  5
4
330
10
100
AcDbSymbolTableRecord
100
AcDbLayerTableRecord
  2
0
 70
     0
 62
     7
  6
CONTINUOUS
  0
LAYER
  5
24
330
10
100
AcDbSymbolTableRecord
100
AcDbLayerTableRecord
  2
05C
 70
     0
 62
     5
  6
CONTINUOUS
  0
LAYER
  5
6D
330
10
100
AcDbSymbolTableRecord
100
AcDbLayerTableRecord
  2
7
 70
     0
 62
     7
  6
CENTRO
  0
LAYER
  5
6A
330
10
100
AcDbSymbolTableRecord
100
AcDbLayerTableRecord
  2
9
 70
     0
 62
     7
  6
CONTINUA
  0
LAYER
  5
D2
330
10
100
AcDbSymbolTableRecord
100
AcDbLayerTableRecord
  2
KR-GRUESA
 70
     0
 62
     6
  6
CONTINUOUS
  0
LAYER
  5
4B
330
10
100
AcDbSymbolTableRecord
100
AcDbLayerTableRecord
  2
KR-TEXTOS
 70
     0
 62
     2
  6
CONTINUOUS
  0
ENDTAB
  0
TABLE
  2
STYLE
  5
11
330
0
100
AcDbSymbolTable
 70
     4
  0
STYLE
  5
12
330
11
100
AcDbSymbolTableRecord
100
AcDbTextStyleTableRecord
  2
STANDARD
 70
     0
 40
0.0
 41
1.0
 50
0.0
 71
     0
 42
2.5
  3
txt
  4

  0
STYLE
  5
2B
330
11
100
AcDbSymbolTableRecord
100
AcDbTextStyleTableRecord
  2
ROMANS
 70
     0
 40
2.0
 41
1.0
 50
0.0
 71
     0
 42
2.0
  3
ROMANS.shx
  4

  0
STYLE
  5
28
330
11
100
AcDbSymbolTableRecord
100
AcDbTextStyleTableRecord
  2
DEYP
 70
     0
 40
0.0
 41
1.0
 50
0.0
 71
     0
 42
2.0
  3
romans.shx
  4

  0
STYLE
  5
75
330
11
100
AcDbSymbolTableRecord
100
AcDbTextStyleTableRecord
  2
SYMATH
 70
     0
 40
1.0
 41
1.0
 50
0.0
 71
     0
 42
1.0
  3
SYMATH
  4

  0
ENDTAB
  0
TABLE
  2
VIEW
  5
17
330
0
100
AcDbSymbolTable
 70
     0
  0
ENDTAB
  0
TABLE
  2
UCS
  5
18
330
0
100
AcDbSymbolTable
 70
     0
  0
ENDTAB
  0
TABLE
  2
APPID
  5
1B
330
0
100
AcDbSymbolTable
 70
     1
  0
APPID
  5
1C
330
1B
100
AcDbSymbolTableRecord
100
AcDbRegAppTableRecord
  2
ACAD
 70
     0
  0
ENDTAB
  0
TABLE
  2
DIMSTYLE
  5
1D
330
0
100
AcDbSymbolTable
 70
     1
  0
DIMSTYLE
105
2A
330
1D
100
AcDbSymbolTableRecord
100
AcDbDimStyleTableRecord
  2
COTA1
 70
     0
  3

  4

  5
COTA
  6
COTA
  7
COTA
 40
1.0
 41
0.75
 42
5.0
 43
6.0
 44
1.8
 45
0.0
 46
2.0
 47
0.0
 48
0.0
140
2.0
141
1.5
142
0.0
143
25.4
144
1.0
145
1.0
146
1.0
147
0.09
 71
     0
 72
     0
 73
     0
 74
     0
 75
     0
 76
     0
 77
     0
 78
     0
170
     0
171
     2
172
     0
173
     1
174
     1
175
     0
176
     1
177
     1
178
     1
270
     2
271
     3
272
     3
273
     2
274
     2
340
2B
275
     0
280
     0
281
     0
282
     0
283
     1
284
     0
285
     0
286
     0
287
     5
288
     0
  0
ENDTAB
  0
TABLE
  2
BLOCK_RECORD
  5
1
330
0
100
AcDbSymbolTable
 70
     3
  0
BLOCK_RECORD
  5
2
102
{ACAD_XDICTIONARY
360
305
102
}
330
1
100
AcDbSymbolTableRecord
100
AcDbBlockTableRecord
  2
*MODEL_SPACE
  0
BLOCK_RECORD
  5
C
102
{ACAD_XDICTIONARY
360
307
102
}
330
1
100
AcDbSymbolTableRecord
100
AcDbBlockTableRecord
  2
*PAPER_SPACE
  0
BLOCK_RECORD
  5
22
330
1
100
AcDbSymbolTableRecord
100
AcDbBlockTableRecord
  2
TICK
  0
BLOCK_RECORD
  5
2C
330
1
100
AcDbSymbolTableRecord
100
AcDbBlockTableRecord
  2
COTA
  0
BLOCK_RECORD
  5
73
330
1
100
AcDbSymbolTableRecord
100
AcDbBlockTableRecord
  2
SIM10
  0
ENDTAB
  0
ENDSEC
  0
SECTION
  2
BLOCKS
  0
BLOCK
  5
3
330
2
100
AcDbEntity
  8
0
100
AcDbBlockBegin
  2
*MODEL_SPACE
 70
     0
 10
0.0
 20
0.0
 30
0.0
  3
*MODEL_SPACE
  1

  0
ENDBLK
  5
9
330
2
100
AcDbEntity
  8
0
100
AcDbBlockEnd
  0
BLOCK
  5
D
330
C
100
AcDbEntity
 67
     1
  8
0
100
AcDbBlockBegin
  2
*PAPER_SPACE
 70
     0
 10
0.0
 20
0.0
 30
0.0
  3
*PAPER_SPACE
  1

  0
ENDBLK
  5
E
330
C
100
AcDbEntity
 67
     1
  8
0
100
AcDbBlockEnd
  0
BLOCK
  5
26
330
22
100
AcDbEntity
  8
0
100
AcDbBlockBegin
  2
TICK
 70
     0
 10
0.0
 20
0.0
 30
0.0
  3
TICK
  1

  0
LINE
  5
23
330
22
100
AcDbEntity
  8
05C
100
AcDbLine
 10
-0.7071067811865462
 20
-0.7071067811865462
 30
0.0
 11
0.7071067811865533
 21
0.7071067811865533
 31
0.0
  0
LINE
  5
25
330
22
100
AcDbEntity
  8
0
100
AcDbLine
 10
-1.0
 20
0.0
 30
0.0
 11
1.000000000000056
 21
0.0
 31
0.0
  0
ENDBLK
  5
27
330
22
100
AcDbEntity
  8
0
100
AcDbBlockEnd
  0
BLOCK
  5
31
330
2C
100
AcDbEntity
  8
0
100
AcDbBlockBegin
  2
COTA
 70
     0
 10
0.0
 20
0.0
 30
0.0
  3
COTA
  1

  0
LINE
  5
2D
330
2C
100
AcDbEntity
  8
0
  6
CONTINUOUS
 62
     4
100
AcDbLine
 10
-0.707106781186667
 20
-0.707106781186667
 30
0.0
 11
0.0
 21
0.0
 31
0.0
  0
LINE
  5
2E
330
2C
100
AcDbEntity
  8
0
  6
CONTINUOUS
 62
     4
100
AcDbLine
 10
0.0
 20
0.0
 30
0.0
 11
0.707106781186667
 21
0.707106781186667
 31
0.0
  0
LINE
  5
2F
330
2C
100
AcDbEntity
  8
0
  6
CONTINUOUS
 62
     7
100
AcDbLine
 10
-1.0
 20
0.0
 30
0.0
 11
0.0
 21
0.0
 31
0.0
  0
LINE
  5
30
330
2C
100
AcDbEntity
  8
0
  6
CONTINUOUS
 62
     7
100
AcDbLine
 10
0.0
 20
0.0
 30
0.0
 11
1.5
 21
0.0
 31
0.0
  0
ENDBLK
  5
32
330
2C
100
AcDbEntity
  8
0
100
AcDbBlockEnd
  0
BLOCK
  5
76
330
73
100
AcDbEntity
  8
0
100
AcDbBlockBegin
  2
SIM10
 70
     0
 10
0.0
 20
0.0
 30
0.0
  3
SIM10
  1

  0
TEXT
  5
74
330
73
100
AcDbEntity
  8
0
  6
CONTINUOUS
 62
     0
100
AcDbText
 10
-0.6190476190476188
 20
-0.4285714285714286
 30
0.0
 40
1.0
  1
K
  7
SYMATH
 72
     4
 11
0.0
 21
0.0
 31
0.0
100
AcDbText
  0
ENDBLK
  5
77
330
73
100
AcDbEntity
  8
0
100
AcDbBlockEnd
  0
ENDSEC
  0
SECTION
  2
ENTITIES
  0
LINE
  5
33
330
2
100
AcDbEntity
  8
0
100
AcDbLine
 10
93.28889009452632
 20
147.7058713233395
 30
-0.0000001847990274
 11
110.7543738295439
 21
167.7383960782676
 31
-0.0000001923813101
  0
LINE
  5
34
330
2
100
AcDbEntity
  8
0
100
AcDbLine
 10
290.4214516886272
 20
224.5186774873266
 30
-0.0000001917774911
 11
275.8790027432419
 21
237.4589227690337
 31
-0.0000001280805562
  0
LINE
  5
35
330
2
100
AcDbEntity
  8
0
100
AcDbLine
 10
304.1284897314421
 20
95.00954871664612
 30
-0.0000001821687601
 11
296.9175220789347
 21
102.712416618968
 31
-0.0000002046456809
  0
LINE
  5
36
330
2
100
AcDbEntity
  8
0
100
AcDbLine
 10
230.1405407068159
 20
87.79610492648521
 30
-0.0000001821687601
 11
232.030590650499
 21
102.1826613766263
 31
-0.0000002124738798
  0
LINE
  5
37
330
2
100
AcDbEntity
  8
0
100
AcDbLine
 10
-31.40283103628189
 20
218.3965502199373
 30
-0.0000001603222096
 11
-46.23937718795241
 21
185.5740116433801
 31
-0.0000002168491745
  0
LINE
  5
38
330
2
100
AcDbEntity
  8
0
100
AcDbLine
 10
289.6310759239345
 20
69.91898587479614
 30
-0.0000000448198307
 11
275.8790027432419
 21
84.34982647842957
 31
-0.0000001923813101
  0
LINE
  5
39
330
2
100
AcDbEntity
  8
0
100
AcDbLine
 10
289.8592365316599
 20
258.0179378547049
 30
-0.0000002461978127
 11
275.8790027432419
 21
250.127556797828
 31
-0.0000001280805562
  0
LINE
  5
3A
330
2
100
AcDbEntity
  8
0
 62
     4
100
AcDbLine
 10
146.9069442069176
 20
144.0350202749096
 30
-0.0000001817732259
 11
146.9069442069176
 21
106.6850126289364
 31
-0.000000221957995
  0
LINE
  5
3B
330
2
100
AcDbEntity
  8
0
 62
     4
100
AcDbLine
 10
36.72681457883982
 20
144.0350202749096
 30
-0.0000001817732258
 11
36.72681457883982
 21
106.6850126289273
 31
-0.000000221957995
  0
LINE
  5
3C
330
2
100
AcDbEntity
  8
0
 62
     4
100
AcDbLine
 10
73.45351457884271
 20
144.0350202749091
 30
-0.0000001817732759
 11
73.45351457884271
 21
106.6850126289268
 31
-0.000000221957995
  0
LINE
  5
3D
330
2
100
AcDbEntity
  8
0
 62
     4
100
AcDbLine
 10
110.1802145788428
 20
144.03502027491
 30
-0.0000001817732759
 11
110.1802145788428
 21
106.6850126289277
 31
-0.000000221957995
  0
LINE
  5
3E
330
2
100
AcDbEntity
  8
0
 62
     4
100
AcDbLine
 10
110.1802145788424
 20
144.0350202749127
 30
-0.000000188230188
 11
146.9070444812114
 21
106.6849962433561
 31
-0.0000002219580322
  0
LINE
  5
3F
330
2
100
AcDbEntity
  8
0
 62
     4
100
AcDbLine
 10
73.45338467647389
 20
144.0350366604839
 30
-0.0000001882301628
 11
110.1802145788428
 21
106.6850126289273
 31
-0.000000221958007
  0
LINE
  5
40
330
2
100
AcDbEntity
  8
0
 62
     4
100
AcDbLine
 10
36.72668467647372
 20
144.0350366604839
 30
-0.0000001882301628
 11
73.45351457884271
 21
106.6850126289273
 31
-0.000000221958007
  0
LINE
  5
41
330
2
100
AcDbEntity
  8
0
 62
     4
100
AcDbLine
 10
-0.0000153235291691
 20
144.0350366604839
 30
-0.0000001882301628
 11
36.72681457883982
 21
106.6850126289273
 31
-0.000000221958007
  0
LINE
  5
42
330
2
100
AcDbEntity
  8
0
 62
     4
100
AcDbLine
 10
293.8139037373644
 20
144.0350366604839
 30
-0.0000001882301628
 11
257.0870738349954
 21
106.6850126289273
 31
-0.000000221958007
  0
LINE
  5
43
330
2
100
AcDbEntity
  8
0
 62
     4
100
AcDbLine
 10
257.0872037373614
 20
144.0350366604839
 30
-0.0000001882301628
 11
220.3603738349925
 21
106.6850126289273
 31
-0.000000221958007
  0
LINE
  5
44
330
2
100
AcDbEntity
  8
0
 62
     4
100
AcDbLine
 10
220.3605037373613
 20
144.0350366604839
 30
-0.0000001882301628
 11
183.6336738349923
 21
106.6850126289273
 31
-0.000000221958007
  0
LINE
  5
45
330
2
100
AcDbEntity
  8
0
 62
     4
100
AcDbLine
 10
183.6336738349928
 20
144.0350202749127
 30
-0.000000188230188
 11
146.9068439326238
 21
106.6849962433561
 31
-0.0000002219580322
  0
LINE
  5
46
330
2
100
AcDbEntity
  8
0
 62
     4
100
AcDbLine
 10
183.6336738349923
 20
144.03502027491
 30
-0.0000001817732759
 11
183.6336738349923
 21
106.6850126289277
 31
-0.000000221957995
  0
LINE
  5
47
330
2
100
AcDbEntity
  8
0
 62
     4
100
AcDbLine
 10
220.3603738349925
 20
144.0350202749091
 30
-0.0000001817732759
 11
220.3603738349925
 21
106.6850126289268
 31
-0.000000221957995
  0
LINE
  5
48
330
2
100
AcDbEntity
  8
0
 62
     4
100
AcDbLine
 10
257.0870738349954
 20
144.0350202749096
 30
-0.0000001817732258
 11
257.0870738349954
 21
106.6850126289273
 31
-0.000000221957995
  0
LINE
  5
49
330
2
100
AcDbEntity
  8
0
100
AcDbLine
 10
158.962881084737
 20
68.02002297648596
 30
-0.0000002464694888
 11
170.5317885199883
 21
44.85440095805256
 31
-0.0000001821687349
  0
TEXT
  5
4A
330
2
100
AcDbEntity
  8
KR-TEXTOS
  6
CONTINUOUS
100
AcDbText
 10
238.860218068065
 20
85.30397381729585
 30
-0.0000001923813101
 40
2.0
  1
V. TRANSV. MIX. CONT.
  7
DEYP
100
AcDbText
  0
LINE
  5
4C
330
2
100
AcDbEntity
  8
0
 62
     7
100
AcDbLine
 10
239.1994451238656
 20
84.34982647842957
 30
-0.0000001923813101
 11
275.8790027432419
 21
84.34982647842957
 31
-0.0000001923813101
  0
TEXT
  5
4D
330
2
100
AcDbEntity
  8
KR-TEXTOS
  6
CONTINUOUS
100
AcDbText
 10
238.860218068065
 20
81.3956791395633
 30
-0.0000001923813101
 40
2.0
  1
HEA 800 A52d
  7
DEYP
100
AcDbText
  0
TEXT
  5
4E
330
2
100
AcDbEntity
  8
KR-TEXTOS
  6
CONTINUOUS
100
AcDbText
 10
231.4751991375974
 20
9.867319803225427
 30
-0.0000001923813101
 40
2.0
  1
V. TRANSV. MIX. CONT.
  7
DEYP
100
AcDbText
  0
LINE
  5
4F
330
2
100
AcDbEntity
  8
0
 62
     7
100
AcDbLine
 10
231.814426193398
 20
8.913172464359149
 30
-0.0000001923813101
 11
286.1945786500287
 21
8.913172464359149
 31
-0.0000001923813101
  0
LWPOLYLINE
  5
50
330
2
100
AcDbEntity
  8
0
 62
     5
100
AcDbPolyline
 90
        2
 70
     0
 43
1.0
 38
-0.0000002464694888
 10
293.8138884138357
 20
68.02002297648892
 10
0.0058037290932589
 20
68.02002297648255
  0
LWPOLYLINE
  5
51
330
2
100
AcDbEntity
  8
0
 62
     5
100
AcDbPolyline
 90
        2
 70
     0
 43
1.0
 38
-0.000000221958007
 10
0.0
 20
106.6850126289273
 10
293.8138884138357
 20
106.6850126289273
  0
LINE
  5
52
330
2
100
AcDbEntity
  8
0
100
AcDbLine
 10
96.49700770171376
 20
72.45553596609989
 30
-0.0000002484458522
 11
98.41584863079333
 21
81.20027842188552
 31
-0.0000002523423098
  0
LINE
  5
53
330
2
100
AcDbEntity
  8
0
100
AcDbLine
 10
75.92303990076198
 20
-52.40466570272542
 30
-0.0000006249927512
 11
75.92303990076198
 21
-33.67447622776012
 31
-0.0000006183362765
  0
LINE
  5
54
330
2
100
AcDbEntity
  8
0
100
AcDbLine
 10
80.92303990076198
 20
-33.67447622776012
 30
-0.000000618662491
 11
75.92303990076198
 21
-33.67447622776012
 31
-0.000000618662491
  0
TEXT
  5
55
330
2
100
AcDbEntity
  8
KR-TEXTOS
  6
CONTINUOUS
100
AcDbText
 10
71.41883334259889
 20
-44.03957096524277
 30
-0.0000004787577058
 40
2.0
  1
2
  7
DEYP
 72
     1
 11
72.37121429497983
 21
-43.03957096524277
 31
-0.0000004787577058
100
AcDbText
 73
     2
  0
TEXT
  5
56
330
2
100
AcDbEntity
  8
KR-TEXTOS
  6
CONTINUOUS
100
AcDbText
 10
67.8024774817716
 20
-44.28957096524277
 30
-0.0000004787577058
 40
2.5
  1
@
  7
DEYP
 72
     1
 11
69.40962033891446
 21
-43.03957096524277
 31
-0.0000004787577058
100
AcDbText
 73
     2
  0
TEXT
  5
57
330
2
100
AcDbEntity
  8
KR-TEXTOS
100
AcDbText
 10
80.72867442819916
 20
-46.65861858429048
 30
-0.0000003603687732
 40
2.0
  1
PENDIENTE RECÁLCULO COMPLETO Y ADECUACIÓN A PLANOS ÚLTIMOS DE ARQUITECTURA
  7
ROMANS
 11
80.72867442819916
 21
-45.65861858429047
 31
-0.0000003603687732
100
AcDbText
 73
     2
  0
LINE
  5
58
330
2
100
AcDbEntity
  8
0
100
AcDbLine
 10
80.92303990076288
 20
-52.40466570272542
 30
-0.0000004018670357
 11
75.92303990076288
 21
-52.40466570272542
 31
-0.0000004018670357
  0
TEXT
  5
59
330
2
100
AcDbEntity
  8
KR-TEXTOS
  6
CONTINUOUS
100
AcDbText
 10
80.72867442819916
 20
-40.42052334619529
 30
-0.0000003603687732
 40
2.0
  1
NOTA:
  7
DEYP
100
AcDbText
  0
LINE
  5
5A
330
2
100
AcDbEntity
  8
0
 62
     7
100
AcDbLine
 10
81.06790148399978
 20
-41.37467068506157
 30
-0.0000003603687732
 11
89.4537475458901
 21
-41.37467068506157
 31
-0.0000003603687732
  0
LINE
  5
5B
330
2
100
AcDbEntity
  8
0
 62
     7
100
AcDbLine
 10
-68.89684314696797
 20
65.53581056477629
 30
-0.0000001923813101
 11
-15.37093266301781
 21
65.53581056477629
 31
-0.0000001923813101
  0
TEXT
  5
5C
330
2
100
AcDbEntity
  8
KR-TEXTOS
  6
CONTINUOUS
100
AcDbText
 10
-69.23607020276904
 20
62.58166322591001
 30
-0.0000001923813101
 40
2.0
  1
ESTRUCTURA METALICA SOBRE
  7
DEYP
100
AcDbText
  0
TEXT
  5
5D
330
2
100
AcDbEntity
  8
KR-TEXTOS
  6
CONTINUOUS
100
AcDbText
 10
-69.23607020276904
 20
66.48995790364256
 30
-0.0000001923813101
 40
2.0
  1
APOYOS ARTICULADOS DE
  7
DEYP
100
AcDbText
  0
LWPOLYLINE
  5
5E
330
2
100
AcDbEntity
  8
0
 62
     5
100
AcDbPolyline
 90
        2
 70
     0
 43
1.0
 38
-0.0000002464694888
 10
-72.2169256312959
 20
68.02002297648255
 10
-77.73274455136607
 20
68.02002297648255
  0
LINE
  5
5F
330
2
100
AcDbEntity
  8
0
 62
     5
100
AcDbLine
 10
-80.73854828045979
 20
63.02002297649119
 30
-0.0000002486762412
 11
-74.73854828045978
 21
63.02002297649074
 31
-0.000000248587918
  0
TEXT
  5
60
330
2
100
AcDbEntity
  8
KR-TEXTOS
  6
CONTINUOUS
100
AcDbText
 10
-69.23607020276904
 20
59.33166322591
 30
-0.0000001923813101
 40
2.0
  1
SOPORTES DE SOTANOS
  7
DEYP
100
AcDbText
  0
LWPOLYLINE
  5
61
330
2
100
AcDbEntity
  8
0
 62
     5
100
AcDbPolyline
 90
        2
 70
     0
 43
1.0
 38
-0.0000003576921113
 10
108.54223271312
 20
-0.0000000000079581
 10
108.54223271312
 20
68.02002297648255
  0
LINE
  5
62
330
2
100
AcDbEntity
  8
0
 62
     5
100
AcDbLine
 10
105.54223271312
 20
63.02002297648255
 30
-0.0000002465136504
 11
111.54223271312
 21
63.02002297648209
 31
-0.0000002464253272
  0
LINE
  5
63
330
2
100
AcDbEntity
  8
0
 62
     5
100
AcDbLine
 10
103.54223271312
 20
-0.0000000000077307
 30
-0.0000002301992288
 11
113.54223271312
 21
-0.0000000000084128
 31
-0.0000002300520235
  0
LINE
  5
64
330
2
100
AcDbEntity
  8
0
 62
     5
100
AcDbLine
 10
-5.0
 20
0.0000000000006821
 30
-0.0000002323618197
 11
5.0
 21
0.0
 31
-0.0000002322146144
  0
TEXT
  5
65
330
2
100
AcDbEntity
  8
KR-TEXTOS
  6
CONTINUOUS
100
AcDbText
 10
34.00160890272221
 20
69.83625216857922
 30
-0.0000002464694888
 40
2.0
  1
V. SIN INT. A52d
  7
DEYP
 72
     1
 11
46.90637080748411
 21
70.83625216857922
 31
-0.0000002464694888
100
AcDbText
 73
     2
  0
TEXT
  5
66
330
2
100
AcDbEntity
  8
KR-TEXTOS
  6
CONTINUOUS
100
AcDbText
 10
-12.82717733314166
 20
27.18858291680872
 30
-0.0000002464694888
 40
2.0
  1
(A1, B1)
 50
90.0
  7
DEYP
 72
     1
 11
-13.82717733314166
 21
33.76001148823729
 31
-0.0000002464694888
100
AcDbText
 73
     2
  0
LINE
  5
67
330
2
100
AcDbEntity
  8
0
100
AcDbLine
 10
-11.75427869209534
 20
67.52002297648255
 30
-0.0000002464694888
 11
-10.69361852031533
 21
66.45936280470255
 31
-0.0000002464694888
  0
LINE
  5
68
330
2
100
AcDbEntity
  8
0
100
AcDbLine
 10
-11.75427869209534
 20
67.52002297648255
 30
-0.0000002464694888
 11
-10.69361852031533
 21
68.58068314826209
 31
-0.0000002464694888
  0
LINE
  5
69
330
2
100
AcDbEntity
  8
9
100
AcDbLine
 10
-11.75427869209579
 20
67.5200229764821
 30
-0.0000002464694888
 11
-12.81493886387579
 21
66.45936280470255
 31
-0.0000002464694888
  0
LINE
  5
6C
330
2
100
AcDbEntity
  8
7
100
AcDbLine
 10
-10.25427869209579
 20
67.52002297648255
 30
-0.0000002464694888
 11
-13.25427869209579
 21
67.52002297648255
 31
-0.0000002464694888
  0
LINE
  5
6F
330
2
100
AcDbEntity
  8
7
100
AcDbLine
 10
-10.25427869209579
 20
67.52002297648255
 30
-0.0000002464694888
 11
-13.25427869209579
 21
67.52002297648255
 31
-0.0000002464694888
  0
LINE
  5
70
330
2
100
AcDbEntity
  8
9
100
AcDbLine
 10
-11.75427869209579
 20
67.520022976483
 30
-0.0000002464694888
 11
-12.81493886387579
 21
68.58068314826255
 31
-0.0000002464694888
  0
LINE
  5
71
330
2
100
AcDbEntity
  8
0
 62
     5
100
AcDbLine
 10
-3.000000000000454
 20
63.02002297649119
 30
-0.0000002486762412
 11
2.999999999999545
 21
63.02002297649074
 31
-0.000000248587918
  0
INSERT
  5
72
330
2
100
AcDbEntity
  8
KR-TEXTOS
  6
CONTINUOUS
100
AcDbBlockReference
  2
SIM10
 10
41.60668398088865
 20
64.6731222173496
 30
-0.0000002464694888
 41
2.0
 42
2.0
 43
2.0
  0
TEXT
  5
78
330
2
100
AcDbEntity
  8
KR-TEXTOS
  6
CONTINUOUS
100
AcDbText
 10
43.01275404468372
 20
63.6731222173496
 30
-0.0000002464694888
 40
2.0
  1
600.25
  7
DEYP
 72
     1
 11
48.29846833039801
 21
64.6731222173496
 31
-0.0000002464694888
100
AcDbText
 73
     2
  0
INSERT
  5
79
330
2
100
AcDbEntity
  8
KR-TEXTOS
  6
CONTINUOUS
100
AcDbBlockReference
  2
SIM10
 10
41.60668398088865
 20
55.03295075278106
 30
-0.0000002464694888
 41
2.0
 42
2.0
 43
2.0
  0
TEXT
  5
7A
330
2
100
AcDbEntity
  8
KR-TEXTOS
  6
CONTINUOUS
100
AcDbText
 10
43.01275404468372
 20
54.03295075278106
 30
-0.0000002464694888
 40
2.0
  1
600.25
  7
DEYP
 72
     1
 11
48.29846833039801
 21
55.03295075278106
 31
-0.0000002464694888
100
AcDbText
 73
     2
  0
INSERT
  5
7B
330
2
100
AcDbEntity
  8
KR-TEXTOS
  6
CONTINUOUS
100
AcDbBlockReference
  2
SIM10
 10
40.68611657301244
 20
59.8530364850651
 30
-0.0000002464694888
 41
2.0
 42
2.0
 43
2.0
  0
TEXT
  5
7C
330
2
100
AcDbEntity
  8
KR-TEXTOS
  6
CONTINUOUS
100
AcDbText
 10
42.00029936969527
 20
58.85303648506511
 30
-0.0000002464694888
 40
2.0
  1
20.1030
  7
DEYP
 72
     1
 11
48.19077556017146
 21
59.8530364850651
 31
-0.0000002464694888
100
AcDbText
 73
     2
  0
CIRCLE
  5
7D
330
2
100
AcDbEntity
  8
0
  6
RAYITAS
 62
     9
100
AcDbCircle
 10
95.52373216970455
 20
68.0200229764846
 30
-0.0000002464694888
 40
4.54103961029341
  0
TEXT
  5
7F
330
2
100
AcDbEntity
  8
KR-TEXTOS
  6
CONTINUOUS
100
AcDbText
 10
98.21749599392971
 20
49.72370485197302
 30
-0.0000002464694888
 40
2.0
  1
2.0
  7
DEYP
 72
     1
 11
100.598448374882
 21
50.72370485197303
 31
-0.0000002464694888
100
AcDbText
 73
     2
  0
LINE
  5
80
330
2
100
AcDbEntity
  8
0
100
AcDbLine
 10
121.3033267941168
 20
67.52002297648255
 30
-0.0000002464694888
 11
122.3639869658968
 21
66.45936280470255
 31
-0.0000002464694888
  0
LINE
  5
81
330
2
100
AcDbEntity
  8
7
100
AcDbLine
 10
122.8033267941164
 20
67.52002297648255
 30
-0.0000002464694888
 11
119.8033267941164
 21
67.52002297648255
 31
-0.0000002464694888
  0
LINE
  5
82
330
2
100
AcDbEntity
  8
7
100
AcDbLine
 10
122.8033267941164
 20
67.52002297648255
 30
-0.0000002464694888
 11
119.8033267941164
 21
67.52002297648255
 31
-0.0000002464694888
  0
LINE
  5
83
330
2
100
AcDbEntity
  8
9
100
AcDbLine
 10
121.3033267941163
 20
67.5200229764821
 30
-0.0000002464694888
 11
120.2426666223364
 21
66.45936280470255
 31
-0.0000002464694888
  0
TEXT
  5
84
330
2
100
AcDbEntity
  8
KR-TEXTOS
  6
CONTINUOUS
100
AcDbText
 10
114.3272058687301
 20
49.72370485197302
 30
-0.0000002464694888
 40
2.0
  1
2.0
  7
DEYP
 72
     1
 11
116.7081582496825
 21
50.72370485197303
 31
-0.0000002464694888
100
AcDbText
 73
     2
  0
TEXT
  5
85
330
2
100
AcDbEntity
  8
KR-TEXTOS
  6
CONTINUOUS
100
AcDbText
 10
209.1745862170428
 20
69.83625216857922
 30
-0.0000002464694888
 40
2.0
  1
V. SIN INT. A52d
  7
DEYP
 72
     1
 11
222.0793481218047
 21
70.83625216857922
 31
-0.0000002464694888
100
AcDbText
 73
     2
  0
INSERT
  5
86
330
2
100
AcDbEntity
  8
KR-TEXTOS
  6
CONTINUOUS
100
AcDbBlockReference
  2
SIM10
 10
216.927142404982
 20
64.6731222173496
 30
-0.0000002464694888
 41
2.0
 42
2.0
 43
2.0
  0
TEXT
  5
87
330
2
100
AcDbEntity
  8
KR-TEXTOS
  6
CONTINUOUS
100
AcDbText
 10
218.3332124687771
 20
63.6731222173496
 30
-0.0000002464694888
 40
2.0
  1
600.50
  7
DEYP
 72
     1
 11
223.6189267544914
 21
64.6731222173496
 31
-0.0000002464694888
100
AcDbText
 73
     2
  0
INSERT
  5
88
330
2
100
AcDbEntity
  8
KR-TEXTOS
  6
CONTINUOUS
100
AcDbBlockReference
  2
SIM10
 10
216.927142404982
 20
55.03295075278106
 30
-0.0000002464694888
 41
2.0
 42
2.0
 43
2.0
  0
TEXT
  5
89
330
2
100
AcDbEntity
  8
KR-TEXTOS
  6
CONTINUOUS
100
AcDbText
 10
218.3332124687771
 20
54.03295075278106
 30
-0.0000002464694888
 40
2.0
  1
600.50
  7
DEYP
 72
     1
 11
223.6189267544914
 21
55.03295075278106
 31
-0.0000002464694888
100
AcDbText
 73
     2
  0
TEXT
  5
8A
330
2
100
AcDbEntity
  8
KR-TEXTOS
  6
CONTINUOUS
100
AcDbText
 10
218.2731387461696
 20
58.85303648506511
 30
-0.0000002464694888
 40
2.0
  1
20.980
  7
DEYP
 72
     1
 11
223.5112339842649
 21
59.8530364850651
 31
-0.0000002464694888
100
AcDbText
 73
     2
  0
INSERT
  5
8B
330
2
100
AcDbEntity
  8
KR-TEXTOS
  6
CONTINUOUS
100
AcDbBlockReference
  2
SIM10
 10
216.0065749971058
 20
59.8530364850651
 30
-0.0000002464694888
 41
2.0
 42
2.0
 43
2.0
  0
LINE
  5
8C
330
2
100
AcDbEntity
  8
0
100
AcDbLine
 10
-32.73807806688683
 20
305.7890170322828
 30
-0.0000002410466477
 11
-38.25469678619811
 21
301.7082768832749
 31
-0.0000004144569519
  0
LINE
  5
8D
330
2
100
AcDbEntity
  8
0
100
AcDbLine
 10
6.287844301670702
 20
161.3129948401454
 30
-0.0000004144569519
 11
1.553023472181848
 21
148.3022393737028
 31
-0.0000002395380007
  0
LINE
  5
8E
330
2
100
AcDbEntity
  8
9
100
AcDbLine
 10
-11.75427869209488
 20
192.2811431549578
 30
-0.0000003437478867
 11
-11.75427869209488
 21
259.560298893356
 31
-0.0000003710126048
  0
LINE
  5
8F
330
2
100
AcDbEntity
  8
0
 62
     7
100
AcDbLine
 10
-75.76471242573416
 20
139.8418298627268
 30
-0.0000003643374698
 11
-29.058126037713
 21
139.8418298627268
 31
-0.0000003643374698
  0
LWPOLYLINE
  5
90
330
2
100
AcDbEntity
  8
0
100
AcDbPolyline
 90
        4
 70
     0
 43
0.0
 38
-0.0000003643374698
 10
-102.6597201961294
 20
123.7194378581611
 10
-107.6597201961294
 20
123.7194378581611
 10
-107.6597201961299
 20
191.985155471069
 10
-102.6597201961299
 20
191.985155471069
  0
TEXT
  5
91
330
2
100
AcDbEntity
  8
KR-TEXTOS
  6
CONTINUOUS
100
AcDbText
 10
-44.17412189079013
 20
125.2633038445628
 30
-0.00000044122814
 40
2.5
  1
$7
  7
DEYP
 72
     1
 11
-41.79316950983775
 21
126.5133038445628
 31
-0.00000044122814
100
AcDbText
 73
     2
  0
LWPOLYLINE
  5
92
330
2
100
AcDbEntity
  8
0
100
AcDbPolyline
 90
        4
 70
     0
 43
0.0
 38
-0.0000003643374698
 10
-33.2413439040547
 20
103.717580452565
 10
-38.2413439040547
 20
103.717580452565
 10
-38.24134390405515
 20
147.5129369423316
 10
-33.24134390405515
 20
147.5129369423316
  0
TEXT
  5
93
330
2
100
AcDbEntity
  8
KR-TEXTOS
  6
CONTINUOUS
100
AcDbText
 10
-76.10393948153523
 20
140.7959772015931
 30
-0.0000003643374698
 40
2.0
  1
VARIABLE SEGÚN PÓRTICOS
  7
DEYP
100
AcDbText
  0
TEXT
  5
94
330
2
100
AcDbEntity
  8
KR-TEXTOS
  6
CONTINUOUS
100
AcDbText
 10
-76.10393948153523
 20
136.8876825238605
 30
-0.0000003643374698
 40
2.0
  1
VER PLANOS DE PLANTA
  7
DEYP
100
AcDbText
  0
TEXT
  5
95
330
2
100
AcDbEntity
  8
KR-TEXTOS
  6
CONTINUOUS
100
AcDbText
 10
-113.5924981828648
 20
156.330019127141
 30
-0.00000044122814
 40
2.5
  1
$2
  7
DEYP
 72
     1
 11
-111.2115458019125
 21
157.5800191271409
 31
-0.00000044122814
100
AcDbText
 73
     2
  0
LINE
  5
96
330
2
100
AcDbEntity
  8
0
 62
     7
100
AcDbLine
 10
-60.44031934221812
 20
301.7082768832749
 30
-0.0000004144569519
 11
-38.25469678619811
 21
301.7082768832749
 31
-0.0000004144569519
  0
TEXT
  5
97
330
2
100
AcDbEntity
  8
KR-TEXTOS
  6
CONTINUOUS
100
AcDbText
 10
-60.77954639801919
 20
298.7541295444086
 30
-0.0000004144569519
 40
2.0
  1
IPE 450 A52d
  7
DEYP
100
AcDbText
  0
TEXT
  5
98
330
2
100
AcDbEntity
  8
KR-TEXTOS
  6
CONTINUOUS
100
AcDbText
 10
-60.77954639801919
 20
302.6624242221412
 30
-0.0000004144569519
 40
2.0
  1
V. B. CONT.
  7
DEYP
100
AcDbText
  0
LWPOLYLINE
  5
99
330
2
100
AcDbEntity
  8
9
100
AcDbPolyline
 90
        7
 70
     0
 43
0.0
 38
-0.0000003643374698
 10
-27.86488334446039
 20
136.4778095890408
 10
-28.4615046910867
 20
137.0744309356666
 10
-28.4615046910867
 20
139.245208516101
 10
-29.058126037713
 20
139.8418298627268
 10
-28.4615046910867
 20
140.4384512093531
 10
-28.4615046910867
 20
142.2886945320335
 10
-27.86488334446039
 20
142.8853158786598
  0
TEXT
  5
9A
330
2
100
AcDbEntity
  8
KR-TEXTOS
  6
CONTINUOUS
100
AcDbText
 10
7.754083470566001
 20
162.2671421790116
 30
-0.0000004144569519
 40
2.0
  1
V. TRANSV. MIX. CONT.
  7
DEYP
100
AcDbText
  0
LINE
  5
9B
330
2
100
AcDbEntity
  8
0
 62
     7
100
AcDbLine
 10
6.287844301670702
 20
161.3129948401454
 30
-0.0000004144569519
 11
42.09211605135806
 21
161.3129948401454
 31
-0.0000004144569519
  0
TEXT
  5
9C
330
2
100
AcDbEntity
  8
KR-TEXTOS
  6
CONTINUOUS
100
AcDbText
 10
7.754083470566001
 20
158.3588475012791
 30
-0.0000004144569519
 40
2.0
  1
HEA 600 A52d
  7
DEYP
100
AcDbText
  0
LINE
  5
9D
330
2
100
AcDbEntity
  8
9
100
AcDbLine
 10
-11.75427869209488
 20
280.0375473550257
 30
-0.0000003793109611
 11
-11.75427869209488
 21
307.3144216627586
 31
-0.0000003905674734
  0
TEXT
  5
9E
330
2
100
AcDbEntity
  8
KR-TEXTOS
  6
CONTINUOUS
100
AcDbText
 10
-44.61361992322145
 20
321.7758827697691
 30
-0.0000002168491745
 40
2.0
  1
V. TRANSV. CONT.
  7
DEYP
100
AcDbText
  0
LINE
  5
9F
330
2
100
AcDbEntity
  8
0
 62
     7
100
AcDbLine
 10
-44.27439286742037
 20
320.8217354309029
 30
-0.0000002168491745
 11
-15.50332114371121
 21
320.8217354309029
 31
-0.0000002168491745
  0
TEXT
  5
A0
330
2
100
AcDbEntity
  8
KR-TEXTOS
  6
CONTINUOUS
100
AcDbText
 10
-44.61361992322145
 20
317.8675880920366
 30
-0.0000002168491745
 40
2.0
  1
HEA 600 A52d
  7
DEYP
100
AcDbText
  0
TEXT
  5
A1
330
2
100
AcDbEntity
  8
KR-TEXTOS
  6
CONTINUOUS
100
AcDbText
 10
-51.35836333204224
 20
231.4862675564361
 30
-0.0000002168491745
 40
2.0
  1
HEA 600 A52d
  7
DEYP
100
AcDbText
  0
LINE
  5
A2
330
2
100
AcDbEntity
  8
0
 62
     7
100
AcDbLine
 10
-51.01913627624117
 20
234.4404148953024
 30
-0.0000002168491745
 11
-15.50332114371121
 21
234.4404148953024
 31
-0.0000002168491745
  0
TEXT
  5
A3
330
2
100
AcDbEntity
  8
KR-TEXTOS
  6
CONTINUOUS
100
AcDbText
 10
-51.35836333204224
 20
235.3945622341687
 30
-0.0000002168491745
 40
2.0
  1
V. TRANSV. MIX. CONT.
  7
DEYP
100
AcDbText
  0
CIRCLE
  5
A4
330
2
100
AcDbEntity
  8
0
  6
RAYITAS
 62
     9
100
AcDbCircle
 10
-30.0
 20
144.0350202749096
 30
-0.0000003371461843
 40
3.405779707720057
  0
LINE
  5
A5
330
2
100
AcDbEntity
  8
0
100
AcDbLine
 10
-31.24006980409513
 20
147.2070168541147
 30
-0.0000003279600753
 11
-46.23937718795241
 21
185.5740116433801
 31
-0.0000002168491745
  0
TEXT
  5
A6
330
2
100
AcDbEntity
  8
KR-TEXTOS
  6
CONTINUOUS
100
AcDbText
 10
-105.6060366345681
 20
206.5671502266732
 30
-0.0000002590594051
 40
2.5
  1
$1
  7
DEYP
 72
     1
 11
-103.5822271107585
 21
207.8171502266732
 31
-0.0000002590594051
100
AcDbText
 73
     2
  0
LINE
  5
A7
330
2
100
AcDbEntity
  8
0
 62
     7
100
AcDbLine
 10
-96.14507479350914
 20
185.5740116433801
 30
-0.0000002168491745
 11
-46.23937718795241
 21
185.5740116433801
 31
-0.0000002168491745
  0
TEXT
  5
A8
330
2
100
AcDbEntity
  8
KR-TEXTOS
  6
CONTINUOUS
100
AcDbText
 10
-96.48430184931022
 20
182.6198643045138
 30
-0.0000002168491745
 40
2.0
  1
IPE 500 A52 + UPN 120 A52
  7
DEYP
100
AcDbText
  0
TEXT
  5
A9
330
2
100
AcDbEntity
  8
KR-TEXTOS
  6
CONTINUOUS
100
AcDbText
 10
-96.48430184931022
 20
179.2612312300714
 30
-0.0000002168491745
 40
2.0
  1
HEA 500 A52 + UPN 120 A52
  7
DEYP
100
AcDbText
  0
TEXT
  5
AA
330
2
100
AcDbEntity
  8
KR-TEXTOS
  6
CONTINUOUS
100
AcDbText
 10
-96.48430184931022
 20
175.9025981556289
 30
-0.0000002168491745
 40
2.0
  1
VARIABLE SEGÚN VANOS
  7
DEYP
100
AcDbText
  0
TEXT
  5
AB
330
2
100
AcDbEntity
  8
KR-TEXTOS
  6
CONTINUOUS
100
AcDbText
 10
-96.48430184931022
 20
172.5439650811865
 30
-0.0000002168491745
 40
2.0
  1
VER PLANOS DE PLANTA
  7
DEYP
100
AcDbText
  0
TEXT
  5
AC
330
2
100
AcDbEntity
  8
KR-TEXTOS
  6
CONTINUOUS
100
AcDbText
 10
-96.48430184931022
 20
186.5281589822463
 30
-0.0000002168491745
 40
2.0
  1
V.B. MIX. CONT.
  7
DEYP
100
AcDbText
  0
LINE
  5
AD
330
2
100
AcDbEntity
  8
0
100
AcDbLine
 10
-3.93949719361808
 20
223.758628472631
 30
-0.0000002092316826
 11
-15.50332114371121
 21
234.4404148953024
 31
-0.0000002168491745
  0
LINE
  5
AE
330
2
100
AcDbEntity
  8
9
100
AcDbLine
 10
-11.75427869209488
 20
116.2719495856242
 30
-0.0000002198321249
 11
-11.75427869209488
 21
171.8038946932886
 31
-0.0000003103643745
  0
TEXT
  5
AF
330
2
100
AcDbEntity
  8
KR-TEXTOS
  6
CONTINUOUS
100
AcDbText
 10
99.60445331013307
 20
82.15442576075156
 30
-0.0000002523423098
 40
2.0
  1
PERFIL DE FORJADO
  7
DEYP
100
AcDbText
  0
TEXT
  5
B0
330
2
100
AcDbEntity
  8
KR-TEXTOS
  6
CONTINUOUS
100
AcDbText
 10
99.60445331013307
 20
78.24613108301901
 30
-0.0000002523423098
 40
2.0
  1
HEB 600 A52
  7
DEYP
100
AcDbText
  0
LINE
  5
B1
330
2
100
AcDbEntity
  8
0
 62
     7
100
AcDbLine
 10
130.0113606480586
 20
81.20027842188529
 30
-0.0000002523423098
 11
98.41584863079333
 21
81.20027842188552
 31
-0.0000002523423098
  0
TEXT
  5
B2
330
2
100
AcDbEntity
  8
KR-TEXTOS
  6
CONTINUOUS
100
AcDbText
 10
-26.87535150326915
 20
93.36514302010483
 30
-0.0000002590594051
 40
2.5
  1
$12
  7
DEYP
 72
     1
 11
-23.30392293184059
 21
94.61514302010483
 31
-0.0000002590594051
100
AcDbText
 73
     2
  0
TEXT
  5
B3
330
2
100
AcDbEntity
  8
KR-TEXTOS
  6
CONTINUOUS
100
AcDbText
 10
-8.681380051049018
 20
122.2354779416502
 30
-0.0000002464694888
 40
2.0
  1
SIN INT.
 50
90.0
  7
DEYP
 72
     1
 11
-9.681380051049018
 21
128.2354779416502
 31
-0.0000002464694888
100
AcDbText
 73
     2
  0
TEXT
  5
B4
330
2
100
AcDbEntity
  8
KR-TEXTOS
  6
CONTINUOUS
100
AcDbText
 10
-12.82717733314166
 20
124.7116684178407
 30
-0.0000002464694888
 40
2.0
  1
A52d
 50
90.0
  7
DEYP
 72
     1
 11
-13.82717733314166
 21
128.2354779416502
 31
-0.0000002464694888
100
AcDbText
 73
     2
  0
LINE
  5
B5
330
2
100
AcDbEntity
  8
0
100
AcDbLine
 10
11.84093727513754
 20
93.7605006457286
 30
-0.0000001898076555
 11
3.103633665099096
 21
103.3699076222007
 31
-0.0000002122845763
  0
CIRCLE
  5
B6
330
2
100
AcDbEntity
  8
0
  6
RAYITAS
 62
     9
100
AcDbCircle
 10
0.0002291576793141
 20
106.6850126289209
 30
-0.0000002219580322
 40
4.54103961029341
  0
LWPOLYLINE
  5
B7
330
2
100
AcDbEntity
  8
0
 62
     7
100
AcDbPolyline
 90
        2
 70
     1
 43
0.3599999999999941
 38
-0.0000002219580322
 10
1.543608146686892
 20
106.6850126289273
 42
-1.0
 10
1.903608146686565
 20
106.6850126289273
 42
-1.0
  0
LWPOLYLINE
  5
B8
330
2
100
AcDbEntity
  8
0
 62
     7
100
AcDbPolyline
 90
        2
 70
     1
 43
1.033596233139957
 38
-0.0000002219580322
 10
1.206810030117139
 20
106.6850126289273
 42
-1.0
 10
2.240406263256318
 20
106.6850126289273
 42
-1.0
  0
INSERT
  5
B9
330
2
100
AcDbEntity
  8
KR-TEXTOS
  6
CONTINUOUS
100
AcDbBlockReference
  2
SIM10
 10
-11.75427869209534
 20
100.7696188467409
 30
-0.0000002083534965
 41
2.0
 42
2.0
 43
2.0
 50
90.0
  0
INSERT
  5
BA
330
2
100
AcDbEntity
  8
KR-TEXTOS
  6
CONTINUOUS
100
AcDbBlockReference
  2
SIM10
 10
-16.57436442437938
 20
100.7696188467409
 30
-0.0000002083534965
 41
2.0
 42
2.0
 43
2.0
 50
90.0
  0
INSERT
  5
BB
330
2
100
AcDbEntity
  8
KR-TEXTOS
  6
CONTINUOUS
100
AcDbBlockReference
  2
SIM10
 10
-6.934192959810843
 20
100.7696188467409
 30
-0.0000002083534965
 41
2.0
 42
2.0
 43
2.0
 50
90.0
  0
TEXT
  5
BC
330
2
100
AcDbEntity
  8
KR-TEXTOS
  6
CONTINUOUS
100
AcDbText
 10
-15.57436442437938
 20
102.175688910536
 30
-0.0000002083534965
 40
2.0
  1
600.80
 50
90.0
  7
DEYP
 72
     1
 11
-16.57436442437938
 21
107.4614031962503
 31
-0.0000002083534965
100
AcDbText
 73
     2
  0
TEXT
  5
BD
330
2
100
AcDbEntity
  8
KR-TEXTOS
  6
CONTINUOUS
100
AcDbText
 10
-10.75427869209534
 20
102.223307958155
 30
-0.0000002083534965
 40
2.0
  1
30.840
 50
90.0
  7
DEYP
 72
     1
 11
-11.75427869209534
 21
107.4614031962503
 31
-0.0000002083534965
100
AcDbText
 73
     2
  0
TEXT
  5
BE
330
2
100
AcDbEntity
  8
KR-TEXTOS
  6
CONTINUOUS
100
AcDbText
 10
-5.934192959810843
 20
102.175688910536
 30
-0.0000002083534965
 40
2.0
  1
600.80
 50
90.0
  7
DEYP
 72
     1
 11
-6.934192959810843
 21
107.4614031962503
 31
-0.0000002083534965
100
AcDbText
 73
     2
  0
TEXT
  5
BF
330
2
100
AcDbEntity
  8
KR-TEXTOS
  6
CONTINUOUS
100
AcDbText
 10
13.30717644403284
 20
94.71464798459487
 30
-0.0000001898076555
 40
2.0
  1
V. TRANSV. MIX.
  7
DEYP
100
AcDbText
  0
TEXT
  5
C0
330
2
100
AcDbEntity
  8
KR-TEXTOS
  6
CONTINUOUS
100
AcDbText
 10
13.30717644403284
 20
90.80635330686233
 30
-0.0000001898076555
 40
2.0
  1
HEA 800 A52d
  7
DEYP
100
AcDbText
  0
LINE
  5
C1
330
2
100
AcDbEntity
  8
0
 62
     7
100
AcDbLine
 10
11.84093727513754
 20
93.7605006457286
 30
-0.0000001898076555
 11
37.48709694864283
 21
93.7605006457286
 31
-0.0000001898076555
  0
TEXT
  5
C2
330
2
100
AcDbEntity
  8
KR-TEXTOS
  6
CONTINUOUS
100
AcDbText
 10
-25.87938915980606
 20
181.0328619059669
 30
-0.0000002590594051
 40
2.5
  1
$11
  7
DEYP
 72
     1
 11
-22.66510344552034
 21
182.2828619059669
 31
-0.0000002590594051
100
AcDbText
 73
     2
  0
CIRCLE
  5
C3
330
2
100
AcDbEntity
  8
0
  6
RAYITAS
 62
     9
100
AcDbCircle
 10
0.0
 20
221.4999999941665
 30
-0.0000002066365992
 40
4.54103961029341
  0
CIRCLE
  5
C4
330
2
100
AcDbEntity
  8
0
  6
RAYITAS
 62
     9
100
AcDbCircle
 10
232.6220920817372
 20
106.6850126289273
 30
-0.0000002219580322
 40
4.54103961029341
  0
TEXT
  5
C5
330
2
100
AcDbEntity
  8
KR-TEXTOS
  6
CONTINUOUS
100
AcDbText
 10
111.9429785088841
 20
168.6925434171339
 30
-0.0000001923813353
 40
2.0
  1
PERFIL DE FORJADO MIXT. CONT.
  7
DEYP
100
AcDbText
  0
LINE
  5
C6
330
2
100
AcDbEntity
  8
0
 62
     7
100
AcDbLine
 10
162.5758953719068
 20
167.7383960782676
 30
-0.0000001923813353
 11
110.7546029872196
 21
167.7383960782676
 31
-0.0000001923813353
  0
TEXT
  5
C7
330
2
100
AcDbEntity
  8
KR-TEXTOS
  6
CONTINUOUS
100
AcDbText
 10
111.9429785088841
 20
161.7121664706228
 30
-0.0000001923813353
 40
2.0
  1
SALVO LO INDICADO EN PLANTA
  7
DEYP
100
AcDbText
  0
TEXT
  5
C8
330
2
100
AcDbEntity
  8
KR-TEXTOS
  6
CONTINUOUS
100
AcDbText
 10
111.9429785088841
 20
164.7842487394013
 30
-0.0000001923813353
 40
2.0
  1
IPE 550 A52
  7
DEYP
100
AcDbText
  0
TEXT
  5
C9
330
2
100
AcDbEntity
  8
KR-TEXTOS
  6
CONTINUOUS
100
AcDbText
 10
-8.681380051049018
 20
238.2624430562102
 30
-0.0000002464694888
 40
2.0
  1
SIN INT.
 50
90.0
  7
DEYP
 72
     1
 11
-9.681380051049018
 21
244.2624430562102
 31
-0.0000002464694888
100
AcDbText
 73
     2
  0
TEXT
  5
CA
330
2
100
AcDbEntity
  8
KR-TEXTOS
  6
CONTINUOUS
100
AcDbText
 10
-12.82717733314166
 20
240.7386335324007
 30
-0.0000002464694888
 40
2.0
  1
A52d
 50
90.0
  7
DEYP
 72
     1
 11
-13.82717733314166
 21
244.2624430562102
 31
-0.0000002464694888
100
AcDbText
 73
     2
  0
LINE
  5
CB
330
2
100
AcDbEntity
  8
0
100
AcDbLine
 10
-3.93949719361808
 20
310.0730501412229
 30
-0.0000002092316826
 11
-15.50332114371121
 21
320.8217354309029
 31
-0.0000002168491745
  0
CIRCLE
  5
CC
330
2
100
AcDbEntity
  8
0
  6
RAYITAS
 62
     9
100
AcDbCircle
 10
0.0
 20
307.8144216627583
 30
-0.0000002066365992
 40
4.54103961029341
  0
LINE
  5
CD
330
2
100
AcDbEntity
  8
0
100
AcDbLine
 10
-11.75427869209534
 20
307.3144216627583
 30
-0.0000002066365992
 11
-10.69361852031533
 21
306.2537614909786
 31
-0.0000002066365992
  0
LINE
  5
CE
330
2
100
AcDbEntity
  8
7
100
AcDbLine
 10
-10.25427869209579
 20
307.3144216627583
 30
-0.0000002066365992
 11
-13.25427869209579
 21
307.3144216627583
 31
-0.0000002066365992
  0
LINE
  5
CF
330
2
100
AcDbEntity
  8
7
100
AcDbLine
 10
-10.25427869209579
 20
307.3144216627583
 30
-0.0000002066365992
 11
-13.25427869209579
 21
307.3144216627583
 31
-0.0000002066365992
  0
LINE
  5
D0
330
2
100
AcDbEntity
  8
9
100
AcDbLine
 10
-11.75427869209579
 20
307.3144216627579
 30
-0.0000002066365992
 11
-12.81493886387579
 21
306.2537614909783
 31
-0.0000002066365992
  0
TEXT
  5
D1
330
2
100
AcDbEntity
  8
KR-GRUESA
  6
CONTINUOUS
 62
     5
100
AcDbText
 10
165.1656391825073
 20
378.7948879119846
 30
-0.0000001923813101
 40
3.5
  1
PÓRTICO 11 . BLOQUE SUR
  7
ROMANS
 72
     1
 11
202.7489725158407
 21
378.7948879119846
 31
-0.0000001923813101
100
AcDbText
  0
LINE
  5
D3
330
2
100
AcDbEntity
  8
0
 62
     7
100
AcDbLine
 10
165.4910600536754
 20
377.5057529359894
 30
-0.0000001923813101
 11
239.9328808071846
 21
377.5057529359894
 31
-0.0000001923813101
  0
LINE
  5
D4
330
2
100
AcDbEntity
  8
0
100
AcDbLine
 10
394.8138884138356
 20
-0.0000000000159162
 30
-0.0000004506360704
 11
404.8138884138356
 21
-0.0000000000165983
 31
-0.0000004504888651
  0
LINE
  5
D5
330
2
100
AcDbEntity
  8
0
100
AcDbLine
 10
399.8138884138356
 20
-16.75086762144883
 30
-0.0000003927045342
 11
293.8138884138357
 21
-16.75086762144906
 31
-0.0000003860480595
  0
LINE
  5
D6
330
2
100
AcDbEntity
  8
0
100
AcDbLine
 10
282.0596097217403
 20
-49.7934637425335
 30
-0.0000003927045342
 11
282.0596097217403
 21
-31.0632742675682
 31
-0.0000003860480595
  0
LINE
  5
D7
330
2
100
AcDbEntity
  8
0
100
AcDbLine
 10
287.0596097217403
 20
-31.0632742675682
 30
-0.000000386374274
 11
282.0596097217403
 21
-31.0632742675682
 31
-0.000000386374274
  0
LINE
  5
D8
330
2
100
AcDbEntity
  8
0
100
AcDbLine
 10
293.8138884138357
 20
-11.75086762144883
 30
-0.000000386374274
 11
293.8138884138357
 21
-16.75086762144883
 31
-0.000000386374274
  0
LINE
  5
D9
330
2
100
AcDbEntity
  8
0
  6
TRAZOS
100
AcDbLine
 10
399.8138884138356
 20
68.02002297649119
 30
-0.000000386374274
 11
399.8138884138356
 21
-0.0000000000161435
 31
-0.000000386374274
  0
LINE
  5
DB
330
2
100
AcDbEntity
  8
0
100
AcDbLine
 10
408.8686078942264
 20
68.02002297649119
 30
-0.000000386374274
 11
408.8686078942268
 21
34.01001148824593
 31
-0.0000003782888973
  0
LINE
  5
DC
330
2
100
AcDbEntity
  8
0
 62
     5
100
AcDbLine
 10
397.8138884138352
 20
38.01001148824593
 30
-0.000000386374274
 11
397.8138884138357
 21
30.01001148824594
 31
-0.000000386374274
  0
CIRCLE
  5
DD
330
2
100
AcDbEntity
  8
0
  6
RAYITAS
 62
     9
100
AcDbCircle
 10
397.8138884138352
 20
34.01001148824593
 30
-0.000000386374274
 40
6.054719480391213
  0
LINE
  5
DE
330
2
100
AcDbEntity
  8
0
100
AcDbLine
 10
403.8686078942268
 20
34.01001148824593
 30
-0.0000003782888973
 11
408.8686078942268
 21
34.01001148824593
 31
-0.0000003782888973
  0
LINE
  5
DF
330
2
100
AcDbEntity
  8
0
 62
     5
100
AcDbLine
 10
397.8138884138352
 20
72.02002297649119
 30
-0.000000386374274
 11
397.8138884138352
 21
64.02002297649119
 31
-0.000000386374274
  0
LINE
  5
E0
330
2
100
AcDbEntity
  8
0
100
AcDbLine
 10
403.8686078942264
 20
68.02002297649119
 30
-0.000000386374274
 11
408.8686078942264
 21
68.02002297649119
 31
-0.000000386374274
  0
CIRCLE
  5
E1
330
2
100
AcDbEntity
  8
0
  6
RAYITAS
 62
     9
100
AcDbCircle
 10
397.8138884138352
 20
68.02002297649119
 30
-0.000000386374274
 40
6.054719480391213
  0
CIRCLE
  5
E2
330
2
100
AcDbEntity
  8
0
  6
RAYITAS
 62
     9
100
AcDbCircle
 10
447.5245205934834
 20
63.18443715023272
 30
-0.000000386374274
 40
6.054719480391213
  0
LINE
  5
E3
330
2
100
AcDbEntity
  8
0
  6
TRAZOS
100
AcDbLine
 10
449.5245205934838
 20
68.89929742728464
 30
-0.000000386374274
 11
449.5245205934838
 21
57.46957687318058
 31
-0.000000386374274
  0
LINE
  5
E4
330
2
100
AcDbEntity
  8
0
 62
     5
100
AcDbLine
 10
447.5245205934834
 20
67.18443715023273
 30
-0.000000386374274
 11
447.5245205934834
 21
59.18443715023272
 31
-0.000000386374274
  0
LINE
  5
E5
330
2
100
AcDbEntity
  8
0
100
AcDbLine
 10
292.4947006299507
 20
29.66480903805109
 30
-0.0000003290706225
 11
286.1945786500287
 21
8.913172464359149
 31
-0.0000001923813101
  0
LWPOLYLINE
  5
E6
330
2
100
AcDbEntity
  8
0
  6
TRAZOS
 62
     5
100
AcDbPolyline
 90
        2
 70
     0
 43
1.0
 38
-0.0000003576921113
 10
293.8138884138357
 20
34.01001148823729
 10
397.8138884138352
 20
34.01001148824593
  0
CIRCLE
  5
E7
330
2
100
AcDbEntity
  8
0
  6
RAYITAS
 62
     9
100
AcDbCircle
 10
293.8138884138357
 20
34.01001148823729
 30
-0.0000003576921113
 40
4.54103961029341
  0
TEXT
  5
E8
330
2
100
AcDbEntity
  8
KR-TEXTOS
  6
CONTINUOUS
100
AcDbText
 10
419.7389638516506
 20
0.9541473388496797
 30
-0.0000003448760116
 40
2.0
  1
CARA SUPERIOR DE ENCEPADOS
  7
DEYP
100
AcDbText
  0
LINE
  5
E9
330
2
100
AcDbEntity
  8
0
 62
     7
100
AcDbLine
 10
408.8686078942259
 20
-0.0000000000165983
 30
-0.0000003448760116
 11
468.727575542579
 21
-0.0000000000165983
 31
-0.0000003448760116
  0
TEXT
  5
EA
330
2
100
AcDbEntity
  8
KR-TEXTOS
  6
CONTINUOUS
100
AcDbText
 10
419.7389638516506
 20
51.96916457123484
 30
-0.0000003448760116
 40
2.0
  1
APOYOS EN DILATACION EN SOPORTE
  7
DEYP
100
AcDbText
  0
TEXT
  5
EB
330
2
100
AcDbEntity
  8
KR-TEXTOS
  6
CONTINUOUS
100
AcDbText
 10
419.7389638516506
 20
48.06086989350228
 30
-0.0000003448760116
 40
2.0
  1
DE HORMIGON ARMADO DE SOTANOS
  7
DEYP
100
AcDbText
  0
LINE
  5
EC
330
2
100
AcDbEntity
  8
0
 62
     7
100
AcDbLine
 10
408.8686078942259
 20
51.01501723236856
 30
-0.0000003448760116
 11
476.8660393402278
 21
51.01501723236856
 31
-0.0000003448760116
  0
LINE
  5
ED
330
2
100
AcDbEntity
  8
0
 62
     7
100
AcDbLine
 10
411.7486113228205
 20
34.01001148824593
 30
-0.0000003448760116
 11
454.5291534582843
 21
34.01001148824593
 31
-0.0000003448760116
  0
TEXT
  5
EE
330
2
100
AcDbEntity
  8
KR-TEXTOS
  6
CONTINUOUS
100
AcDbText
 10
415.4309591746855
 20
27.25381524633962
 30
-0.0000003367906348
 40
2.0
  1
2%%D) UNION DE TIRANTES
  7
DEYP
100
AcDbText
  0
TEXT
  5
EF
330
2
100
AcDbEntity
  8
KR-TEXTOS
  6
CONTINUOUS
100
AcDbText
 10
415.4309591746855
 20
34.96415882711221
 30
-0.0000003367906348
 40
2.0
  1
M%%C : APUNTALADA HASTA:
  7
DEYP
100
AcDbText
  0
TEXT
  5
F0
330
2
100
AcDbEntity
  8
KR-TEXTOS
  6
CONTINUOUS
100
AcDbText
 10
415.4309591746855
 20
31.05586414937965
 30
-0.0000003367906348
 40
2.0
  1
1%%D) TERMINACION DE P.B.
  7
DEYP
100
AcDbText
  0
LINE
  5
F1
330
2
100
AcDbEntity
  8
0
 62
     7
100
AcDbLine
 10
411.7486113228201
 20
68.02002297649119
 30
-0.0000003448760116
 11
421.0814465614716
 21
68.02002297649119
 31
-0.0000003448760116
  0
TEXT
  5
F2
330
2
100
AcDbEntity
  8
KR-TEXTOS
  6
CONTINUOUS
100
AcDbText
 10
415.4309591746855
 20
68.97417031535747
 30
-0.0000003448760116
 40
2.0
  1
P.B.
  7
DEYP
100
AcDbText
  0
LWPOLYLINE
  5
F3
330
2
100
AcDbEntity
  8
0
  6
TRAZOS
 62
     5
100
AcDbPolyline
 90
        2
 70
     0
 43
1.0
 38
-0.0000002464694888
 10
397.8138884138352
 20
68.02002297649119
 10
293.8138884138357
 20
68.02002297648892
  0
TEXT
  5
F4
330
2
100
AcDbEntity
  8
KR-TEXTOS
  6
CONTINUOUS
100
AcDbText
 10
273.93904730275
 20
-41.67836900505085
 30
-0.0000002464694888
 40
2.5
  1
@
  7
DEYP
 72
     1
 11
275.5461901598928
 21
-40.42836900505085
 31
-0.0000002464694888
100
AcDbText
 73
     2
  0
TEXT
  5
F5
330
2
100
AcDbEntity
  8
KR-TEXTOS
  6
CONTINUOUS
100
AcDbText
 10
277.6982603064344
 20
-41.42836900505085
 30
-0.0000002464694888
 40
2.0
  1
1
  7
DEYP
 72
     1
 11
278.5077841159582
 21
-40.42836900505085
 31
-0.0000002464694888
100
AcDbText
 73
     2
  0
TEXT
  5
F6
330
2
100
AcDbEntity
  8
KR-TEXTOS
  6
CONTINUOUS
100
AcDbText
 10
321.9567455566928
 20
-27.25016336449607
 30
-0.0000002464694888
 40
2.0
  1
MODIFICACION DE ARQUITECTURA
  7
DEYP
 72
     1
 11
346.8138884138356
 21
-26.25016336449607
 31
-0.0000002464694888
100
AcDbText
 73
     2
  0
TEXT
  5
F7
330
2
100
AcDbEntity
  8
KR-TEXTOS
  6
CONTINUOUS
100
AcDbText
 10
331.0043646043118
 20
-23.70317790877402
 30
-0.0000002464694888
 40
2.0
  1
ZONA PENDIENTE DE
  7
DEYP
 72
     1
 11
346.8138884138356
 21
-22.70317790877402
 31
-0.0000002464694888
100
AcDbText
 73
     2
  0
TEXT
  5
F8
330
2
100
AcDbEntity
  8
KR-TEXTOS
  6
CONTINUOUS
100
AcDbText
 10
343.6234122233595
 20
-20.13072946913757
 30
-0.0000002464694888
 40
2.0
  1
@50
  7
DEYP
 72
     1
 11
346.8138884138356
 21
-19.13072946913757
 31
-0.0000002464694888
100
AcDbText
 73
     2
  0
LINE
  5
F9
330
2
100
AcDbEntity
  8
0
 62
     5
100
AcDbLine
 10
288.8138884138356
 20
-0.0000000000159162
 30
-0.0000002280367234
 11
298.8138884138356
 21
-0.0000000000165983
 31
-0.0000002278895181
  0
TEXT
  5
FA
330
2
100
AcDbEntity
  8
KR-TEXTOS
  6
CONTINUOUS
100
AcDbText
 10
280.986711080694
 20
16.62183681256748
 30
-0.0000002421443926
 40
2.0
  1
(A3, B3)
 50
90.0
  7
DEYP
 72
     1
 11
279.986711080694
 21
23.19326538399605
 31
-0.0000002421443926
100
AcDbText
 73
     2
  0
LINE
  5
FB
330
2
100
AcDbEntity
  8
0
100
AcDbLine
 10
282.0596097217407
 20
68.52002297646572
 30
-0.0000002421443926
 11
283.1202698935203
 21
69.58068314824572
 31
-0.0000002421443926
  0
LINE
  5
FC
330
2
100
AcDbEntity
  8
9
100
AcDbLine
 10
282.0596097217403
 20
68.52002297646618
 30
-0.0000002421443926
 11
280.9989495499598
 21
69.58068314824572
 31
-0.0000002421443926
  0
LINE
  5
FD
330
2
100
AcDbEntity
  8
7
100
AcDbLine
 10
283.5596097217403
 20
67.52002297646573
 30
-0.0000002421443926
 11
280.5596097217403
 21
67.52002297646573
 31
-0.0000002421443926
  0
LINE
  5
FE
330
2
100
AcDbEntity
  8
7
100
AcDbLine
 10
283.5596097217403
 20
67.52002297646573
 30
-0.0000002421443926
 11
280.5596097217403
 21
67.52002297646573
 31
-0.0000002421443926
  0
LINE
  5
FF
330
2
100
AcDbEntity
  8
0
100
AcDbLine
 10
282.0596097217407
 20
67.52002297646573
 30
-0.0000002421443926
 11
283.1202698935203
 21
66.45936280468617
 31
-0.0000002421443926
  0
LINE
  5
100
330
2
100
AcDbEntity
  8
9
100
AcDbLine
 10
282.0596097217403
 20
67.52002297646527
 30
-0.0000002421443926
 11
280.9989495499598
 21
66.45936280468572
 31
-0.0000002421443926
  0
LINE
  5
101
330
2
100
AcDbEntity
  8
7
100
AcDbLine
 10
283.5596097217403
 20
68.52002297646572
 30
-0.0000002421443926
 11
280.5596097217403
 21
68.52002297646572
 31
-0.0000002421443926
  0
LINE
  5
102
330
2
100
AcDbEntity
  8
7
100
AcDbLine
 10
283.5596097217403
 20
68.52002297646572
 30
-0.0000002421443926
 11
280.5596097217403
 21
68.52002297646572
 31
-0.0000002421443926
  0
LINE
  5
103
330
2
100
AcDbEntity
  8
0
 62
     5
100
AcDbLine
 10
290.8138884138352
 20
63.02002297647437
 30
-0.000000244351145
 11
296.8138884138352
 21
63.02002297647391
 31
-0.0000002442628218
  0
LWPOLYLINE
  5
104
330
2
100
AcDbEntity
  8
0
 62
     5
100
AcDbPolyline
 90
        2
 70
     0
 43
1.0
 38
-0.0000002464694888
 10
447.5245205934834
 20
63.18443715023272
 10
441.4698011130922
 20
63.18443715023272
  0
CIRCLE
  5
105
330
2
100
AcDbEntity
  8
0
  6
RAYITAS
 62
     9
100
AcDbCircle
 10
397.8138884138352
 20
221.4999999941753
 30
-0.000000386374274
 40
6.054719480391213
  0
LINE
  5
106
330
2
100
AcDbEntity
  8
0
  6
TRAZOS
100
AcDbLine
 10
399.8138884138352
 20
307.4620979893488
 30
-0.000000386374274
 11
399.8138884138356
 21
106.0275216257048
 31
-0.000000386374274
  0
TEXT
  5
107
330
2
100
AcDbEntity
  8
KR-TEXTOS
  6
CONTINUOUS
100
AcDbText
 10
308.2899607982698
 20
125.2633038445628
 30
-0.00000044122814
 40
2.5
  1
$7
  7
DEYP
 72
     1
 11
310.6709131792222
 21
126.5133038445628
 31
-0.00000044122814
100
AcDbText
 73
     2
  0
LWPOLYLINE
  5
108
330
2
100
AcDbEntity
  8
0
100
AcDbPolyline
 90
        4
 70
     0
 43
0.0
 38
-0.0000003643374698
 10
301.948179003517
 20
103.717580452565
 10
306.9481790035169
 20
103.717580452565
 10
306.9481790035174
 20
147.5129369423316
 10
301.9481790035174
 20
147.5129369423316
  0
LINE
  5
109
330
2
100
AcDbEntity
  8
0
100
AcDbLine
 10
408.8686078942264
 20
221.4999999941753
 30
-0.000000386374274
 11
408.8686078942268
 21
106.0275216257048
 31
-0.0000003782888973
  0
CIRCLE
  5
10A
330
2
100
AcDbEntity
  8
0
  6
RAYITAS
 62
     9
100
AcDbCircle
 10
397.8138884138352
 20
106.0275216257048
 30
-0.0000004391999437
 40
6.054719480391213
  0
CIRCLE
  5
10B
330
2
100
AcDbEntity
  8
0
  6
RAYITAS
 62
     9
100
AcDbCircle
 10
397.8138884138352
 20
144.0350202749182
 30
-0.000000407049567
 40
6.054719480391213
  0
LINE
  5
10C
330
2
100
AcDbEntity
  8
0
 62
     5
100
AcDbLine
 10
397.8138884138357
 20
110.0275216257048
 30
-0.000000386374274
 11
397.8138884138352
 21
102.0275216257048
 31
-0.000000386374274
  0
LINE
  5
10D
330
2
100
AcDbEntity
  8
0
100
AcDbLine
 10
403.8686078942268
 20
106.0275216257048
 30
-0.0000003782888973
 11
408.8686078942268
 21
106.0275216257048
 31
-0.0000003782888973
  0
LINE
  5
10E
330
2
100
AcDbEntity
  8
0
 62
     5
100
AcDbLine
 10
397.8138884138357
 20
148.0350202749182
 30
-0.000000386374274
 11
397.8138884138357
 21
140.0350202749182
 31
-0.000000386374274
  0
CIRCLE
  5
10F
330
2
100
AcDbEntity
  8
0
  6
RAYITAS
 62
     9
100
AcDbCircle
 10
397.8138884138357
 20
182.7675101345469
 30
-0.0000004192834989
 40
6.054719480391213
  0
LINE
  5
110
330
2
100
AcDbEntity
  8
0
 62
     5
100
AcDbLine
 10
397.8138884138352
 20
186.7675101345469
 30
-0.000000386374274
 11
397.8138884138352
 21
178.7675101345469
 31
-0.000000386374274
  0
LINE
  5
111
330
2
100
AcDbEntity
  8
0
 62
     5
100
AcDbLine
 10
397.8138884138352
 20
225.4999999941753
 30
-0.000000386374274
 11
397.8138884138352
 21
217.4999999941753
 31
-0.000000386374274
  0
LINE
  5
112
330
2
100
AcDbEntity
  8
0
100
AcDbLine
 10
403.8686078942264
 20
221.4999999941753
 30
-0.000000386374274
 11
408.8686078942264
 21
221.4999999941756
 31
-0.000000386374274
  0
LINE
  5
113
330
2
100
AcDbEntity
  8
0
100
AcDbLine
 10
408.8686078942264
 20
307.4620979893488
 30
-0.0000003927045342
 11
408.8686078942264
 21
260.2499255861002
 31
-0.000000386374274
  0
CIRCLE
  5
114
330
2
100
AcDbEntity
  8
0
  6
RAYITAS
 62
     9
100
AcDbCircle
 10
397.8138884138352
 20
260.2499255861002
 30
-0.000000386374274
 40
6.054719480391213
  0
LINE
  5
115
330
2
100
AcDbEntity
  8
0
 62
     5
100
AcDbLine
 10
397.8138884138352
 20
264.2499255861002
 30
-0.000000386374274
 11
397.8138884138352
 21
256.2499255861002
 31
-0.000000386374274
  0
LINE
  5
116
330
2
100
AcDbEntity
  8
0
100
AcDbLine
 10
403.8686078942264
 20
260.2499255861002
 30
-0.000000386374274
 11
408.8686078942264
 21
260.2499255861002
 31
-0.000000386374274
  0
LINE
  5
117
330
2
100
AcDbEntity
  8
9
100
AcDbLine
 10
282.0596097217407
 20
197.2969806507974
 30
-0.0000002787471633
 11
282.0596097217407
 21
256.6418053291611
 31
-0.0000003288177906
  0
TEXT
  5
118
330
2
100
AcDbEntity
  8
KR-TEXTOS
  6
CONTINUOUS
100
AcDbText
 10
277.8995904042953
 20
214.4059121437956
 30
-0.0000003172075301
 40
2.0
  1
20.1400
  7
DEYP
 72
     1
 11
284.0900665947715
 21
215.4059121437956
 31
-0.0000003172075301
100
AcDbText
 73
     2
  0
TEXT
  5
119
330
2
100
AcDbEntity
  8
KR-TEXTOS
  6
CONTINUOUS
100
AcDbText
 10
283.2482132316839
 20
210.2601110586799
 30
-0.0000003172075301
 40
2.0
  1
2.0
  7
DEYP
 72
     1
 11
285.6291656126363
 21
211.2601110586799
 31
-0.0000003172075301
100
AcDbText
 73
     2
  0
INSERT
  5
11A
330
2
100
AcDbEntity
  8
KR-TEXTOS
  6
CONTINUOUS
100
AcDbBlockReference
  2
SIM10
 10
276.3185492708776
 20
215.4059121437956
 30
-0.0000003172075301
 41
2.0
 42
2.0
 43
2.0
  0
TEXT
  5
11B
330
2
100
AcDbEntity
  8
KR-TEXTOS
  6
CONTINUOUS
100
AcDbText
 10
415.4309591746855
 20
99.27132538379851
 30
-0.0000003367906348
 40
2.0
  1
2%%D) UNION DE TIRANTES
  7
DEYP
100
AcDbText
  0
TEXT
  5
11C
330
2
100
AcDbEntity
  8
KR-TEXTOS
  6
CONTINUOUS
100
AcDbText
 10
415.4309591746855
 20
103.0733742868385
 30
-0.0000003367906348
 40
2.0
  1
1%%D) TERMINACION DE P1
  7
DEYP
100
AcDbText
  0
TEXT
  5
11D
330
2
100
AcDbEntity
  8
KR-TEXTOS
  6
CONTINUOUS
100
AcDbText
 10
415.4309591746855
 20
106.9816689645711
 30
-0.0000003367906348
 40
2.0
  1
M1 : APUNTALADA HASTA:
  7
DEYP
100
AcDbText
  0
LINE
  5
11E
330
2
100
AcDbEntity
  8
0
 62
     7
100
AcDbLine
 10
411.7486113228201
 20
106.0275216257048
 30
-0.0000003367906348
 11
454.5291534582843
 21
106.0275216257048
 31
-0.0000003367906348
  0
LINE
  5
11F
330
2
100
AcDbEntity
  8
0
 62
     7
100
AcDbLine
 10
411.7486113228201
 20
144.0350202749182
 30
-0.0000003448760116
 11
419.5753243342673
 21
144.0350202749182
 31
-0.0000003448760116
  0
TEXT
  5
120
330
2
100
AcDbEntity
  8
KR-TEXTOS
  6
CONTINUOUS
100
AcDbText
 10
415.4309591746855
 20
144.9891676137845
 30
-0.0000003448760116
 40
2.0
  1
P1
  7
DEYP
100
AcDbText
  0
TEXT
  5
121
330
2
100
AcDbEntity
  8
KR-TEXTOS
  6
CONTINUOUS
100
AcDbText
 10
419.7389638516506
 20
164.7179081488063
 30
-0.0000003448760116
 40
2.0
  1
APOYOS EN DILATACION SOBRE ENCAVALLADA
  7
DEYP
100
AcDbText
  0
LINE
  5
122
330
2
100
AcDbEntity
  8
0
 62
     7
100
AcDbLine
 10
408.8686078942259
 20
163.7637608099401
 30
-0.0000003448760116
 11
488.9898100801137
 21
163.7637608099401
 31
-0.0000003448760116
  0
TEXT
  5
123
330
2
100
AcDbEntity
  8
KR-TEXTOS
  6
CONTINUOUS
100
AcDbText
 10
415.4309591746851
 20
179.8133627956806
 30
-0.0000003448760116
 40
2.0
  1
1%%D) TERMINACION DE P2
  7
DEYP
100
AcDbText
  0
TEXT
  5
124
330
2
100
AcDbEntity
  8
KR-TEXTOS
  6
CONTINUOUS
100
AcDbText
 10
415.4309591746851
 20
176.0113138926405
 30
-0.0000003448760116
 40
2.0
  1
2%%D) UNION DE TIRANTES
  7
DEYP
100
AcDbText
  0
TEXT
  5
125
330
2
100
AcDbEntity
  8
KR-TEXTOS
  6
CONTINUOUS
100
AcDbText
 10
415.4309591746855
 20
183.7216574734132
 30
-0.0000003448760116
 40
2.0
  1
M2 : APUNTALADA HASTA:
  7
DEYP
100
AcDbText
  0
LINE
  5
126
330
2
100
AcDbEntity
  8
0
 62
     7
100
AcDbLine
 10
411.7486113228201
 20
182.7675101345469
 30
-0.0000003448760116
 11
454.5291534582839
 21
182.7675101345469
 31
-0.0000003448760116
  0
TEXT
  5
127
330
2
100
AcDbEntity
  8
KR-TEXTOS
  6
CONTINUOUS
100
AcDbText
 10
415.4309591746855
 20
222.4541473330418
 30
-0.0000003448760116
 40
2.0
  1
P2
  7
DEYP
100
AcDbText
  0
LINE
  5
128
330
2
100
AcDbEntity
  8
0
 62
     7
100
AcDbLine
 10
411.7486113228201
 20
221.4999999941756
 30
-0.0000003448760116
 11
419.5753243342673
 21
221.4999999941756
 31
-0.0000003448760116
  0
LWPOLYLINE
  5
129
330
2
100
AcDbEntity
  8
0
  6
TRAZOS
 62
     5
100
AcDbPolyline
 90
        2
 70
     0
 43
1.0
 38
-0.0000002143191116
 10
293.8138884138357
 20
106.0275216256945
 10
397.8138884138357
 20
106.0275216257048
  0
LWPOLYLINE
  5
12A
330
2
100
AcDbEntity
  8
0
  6
TRAZOS
 62
     5
100
AcDbPolyline
 90
        2
 70
     0
 43
1.0
 38
-0.0000001944026668
 10
293.8138884138357
 20
182.7675101345382
 10
397.8138884138357
 20
182.7675101345469
  0
LINE
  5
12B
330
2
100
AcDbEntity
  8
9
100
AcDbLine
 10
282.0596097217407
 20
129.5616169261559
 30
-0.0000002155070287
 11
282.0596097217407
 21
167.982638761908
 31
-0.0000002623205581
  0
LINE
  5
12C
330
2
100
AcDbEntity
  8
0
100
AcDbLine
 10
292.0907385825003
 20
106.6850126289273
 30
-0.0000002219580322
 11
275.8792319009176
 21
94.87366718053385
 31
-0.0000001923813353
  0
CIRCLE
  5
12D
330
2
100
AcDbEntity
  8
0
  6
RAYITAS
 62
     9
100
AcDbCircle
 10
293.8141175715149
 20
106.0275216256882
 30
-0.0000002143191368
 40
4.54103961029341
  0
LWPOLYLINE
  5
12E
330
2
100
AcDbEntity
  8
0
 62
     7
100
AcDbPolyline
 90
        2
 70
     1
 43
1.033596233139957
 38
-0.0000002219580322
 10
292.6070783837181
 20
106.6850126289273
 42
1.0
 10
291.5734821505789
 20
106.6850126289273
 42
1.0
  0
LWPOLYLINE
  5
12F
330
2
100
AcDbEntity
  8
0
 62
     7
100
AcDbPolyline
 90
        2
 70
     1
 43
0.3599999999999941
 38
-0.0000002219580322
 10
292.2702802671483
 20
106.6850126289273
 42
1.0
 10
291.9102802671486
 20
106.6850126289273
 42
1.0
  0
INSERT
  5
130
330
2
100
AcDbEntity
  8
KR-TEXTOS
  6
CONTINUOUS
100
AcDbBlockReference
  2
SIM10
 10
277.2395239894563
 20
114.0592861872726
 30
-0.0000002040284003
 41
2.0
 42
2.0
 43
2.0
 50
90.0
  0
INSERT
  5
131
330
2
100
AcDbEntity
  8
KR-TEXTOS
  6
CONTINUOUS
100
AcDbBlockReference
  2
SIM10
 10
282.0596097217407
 20
114.0592861872726
 30
-0.0000002040284003
 41
2.0
 42
2.0
 43
2.0
 50
90.0
  0
LINE
  5
132
330
2
100
AcDbEntity
  8
0
 62
     7
100
AcDbLine
 10
258.2879472415784
 20
94.87366718053385
 30
-0.0000001923813353
 11
275.8792319009176
 21
94.87366718053385
 31
-0.0000001923813353
  0
TEXT
  5
133
330
2
100
AcDbEntity
  8
KR-TEXTOS
  6
CONTINUOUS
100
AcDbText
 10
257.9487201857777
 20
91.91951984166758
 30
-0.0000001923813353
 40
2.0
  1
ARTICULADA
  7
DEYP
100
AcDbText
  0
TEXT
  5
134
330
2
100
AcDbEntity
  8
KR-TEXTOS
  6
CONTINUOUS
100
AcDbText
 10
283.0596097217408
 20
90.65949702271643
 30
-0.0000002040284003
 40
2.0
  1
A52d
 50
90.0
  7
DEYP
 72
     1
 11
282.0596097217407
 21
94.18330654652596
 31
-0.0000002040284003
100
AcDbText
 73
     2
  0
TEXT
  5
135
330
2
100
AcDbEntity
  8
KR-TEXTOS
  6
CONTINUOUS
100
AcDbText
 10
257.9487201857777
 20
95.82781451940013
 30
-0.0000001923813353
 40
2.0
  1
UNIÓN
  7
DEYP
100
AcDbText
  0
INSERT
  5
136
330
2
100
AcDbEntity
  8
KR-TEXTOS
  6
CONTINUOUS
100
AcDbBlockReference
  2
SIM10
 10
286.8796954540248
 20
114.0592861872726
 30
-0.0000002040284003
 41
2.0
 42
2.0
 43
2.0
 50
90.0
  0
TEXT
  5
137
330
2
100
AcDbEntity
  8
KR-TEXTOS
  6
CONTINUOUS
100
AcDbText
 10
278.2395239894563
 20
115.4653562510677
 30
-0.0000002040284003
 40
2.0
  1
600.80
 50
90.0
  7
DEYP
 72
     1
 11
277.2395239894563
 21
120.7510705367819
 31
-0.0000002040284003
100
AcDbText
 73
     2
  0
TEXT
  5
138
330
2
100
AcDbEntity
  8
KR-TEXTOS
  6
CONTINUOUS
100
AcDbText
 10
283.0596097217408
 20
115.5129752986867
 30
-0.0000002040284003
 40
2.0
  1
30.840
 50
90.0
  7
DEYP
 72
     1
 11
282.0596097217407
 21
120.7510705367819
 31
-0.0000002040284003
100
AcDbText
 73
     2
  0
TEXT
  5
139
330
2
100
AcDbEntity
  8
KR-TEXTOS
  6
CONTINUOUS
100
AcDbText
 10
287.8796954540248
 20
115.4653562510677
 30
-0.0000002040284003
 40
2.0
  1
600.80
 50
90.0
  7
DEYP
 72
     1
 11
286.8796954540248
 21
120.7510705367819
 31
-0.0000002040284003
100
AcDbText
 73
     2
  0
TEXT
  5
13A
330
2
100
AcDbEntity
  8
KR-TEXTOS
  6
CONTINUOUS
100
AcDbText
 10
278.2395239894563
 20
183.2007199757092
 30
-0.0000002040284003
 40
2.0
  1
600.80
 50
90.0
  7
DEYP
 72
     1
 11
277.2395239894563
 21
188.4864342614234
 31
-0.0000002040284003
100
AcDbText
 73
     2
  0
TEXT
  5
13B
330
2
100
AcDbEntity
  8
KR-TEXTOS
  6
CONTINUOUS
100
AcDbText
 10
283.0596097217408
 20
183.2483390233282
 30
-0.0000002040284003
 40
2.0
  1
30.840
 50
90.0
  7
DEYP
 72
     1
 11
282.0596097217407
 21
188.4864342614234
 31
-0.0000002040284003
100
AcDbText
 73
     2
  0
TEXT
  5
13C
330
2
100
AcDbEntity
  8
KR-TEXTOS
  6
CONTINUOUS
100
AcDbText
 10
287.8796954540248
 20
183.2007199757092
 30
-0.0000002040284003
 40
2.0
  1
600.80
 50
90.0
  7
DEYP
 72
     1
 11
286.8796954540248
 21
188.4864342614234
 31
-0.0000002040284003
100
AcDbText
 73
     2
  0
INSERT
  5
13D
330
2
100
AcDbEntity
  8
KR-TEXTOS
  6
CONTINUOUS
100
AcDbBlockReference
  2
SIM10
 10
282.0596097217407
 20
181.7946499119141
 30
-0.0000002040284003
 41
2.0
 42
2.0
 43
2.0
 50
90.0
  0
INSERT
  5
13E
330
2
100
AcDbEntity
  8
KR-TEXTOS
  6
CONTINUOUS
100
AcDbBlockReference
  2
SIM10
 10
277.2395239894563
 20
181.7946499119141
 30
-0.0000002040284003
 41
2.0
 42
2.0
 43
2.0
 50
90.0
  0
TEXT
  5
13F
330
2
100
AcDbEntity
  8
KR-TEXTOS
  6
CONTINUOUS
100
AcDbText
 10
283.0596097217408
 20
168.5790867209583
 30
-0.0000002040284003
 40
2.0
  1
A52d
 50
90.0
  7
DEYP
 72
     1
 11
282.0596097217407
 21
172.1028962447678
 31
-0.0000002040284003
100
AcDbText
 73
     2
  0
INSERT
  5
140
330
2
100
AcDbEntity
  8
KR-TEXTOS
  6
CONTINUOUS
100
AcDbBlockReference
  2
SIM10
 10
286.8796954540248
 20
181.7946499119141
 30
-0.0000002040284003
 41
2.0
 42
2.0
 43
2.0
 50
90.0
  0
LINE
  5
141
330
2
100
AcDbEntity
  8
9
100
AcDbLine
 10
282.0596097217399
 20
221.9999999941676
 30
-0.0000001974752295
 11
280.9989495499594
 21
223.0606601659471
 31
-0.0000001974752295
  0
LINE
  5
142
330
2
100
AcDbEntity
  8
7
100
AcDbLine
 10
283.5596097217398
 20
221.9999999941671
 30
-0.0000001974752295
 11
280.5596097217398
 21
221.9999999941671
 31
-0.0000001974752295
  0
LINE
  5
143
330
2
100
AcDbEntity
  8
7
100
AcDbLine
 10
283.5596097217398
 20
221.9999999941671
 30
-0.0000001974752295
 11
280.5596097217398
 21
221.9999999941671
 31
-0.0000001974752295
  0
LINE
  5
144
330
2
100
AcDbEntity
  8
0
100
AcDbLine
 10
282.0596097217403
 20
221.9999999941671
 30
-0.0000001974752295
 11
283.1202698935198
 21
223.0606601659467
 31
-0.0000001974752295
  0
LINE
  5
145
330
2
100
AcDbEntity
  8
0
100
AcDbLine
 10
282.0596097217403
 20
220.9999999941499
 30
-0.000000202311503
 11
283.1202698935203
 21
219.9393398223701
 31
-0.000000202311503
  0
LINE
  5
146
330
2
100
AcDbEntity
  8
7
100
AcDbLine
 10
283.5596097217398
 20
220.9999999941499
 30
-0.000000202311503
 11
280.5596097217398
 21
220.9999999941499
 31
-0.000000202311503
  0
LINE
  5
147
330
2
100
AcDbEntity
  8
7
100
AcDbLine
 10
283.5596097217398
 20
220.9999999941499
 30
-0.000000202311503
 11
280.5596097217398
 21
220.9999999941499
 31
-0.000000202311503
  0
LINE
  5
148
330
2
100
AcDbEntity
  8
9
100
AcDbLine
 10
282.0596097217399
 20
220.9999999941494
 30
-0.000000202311503
 11
280.9989495499598
 21
219.9393398223699
 31
-0.000000202311503
  0
CIRCLE
  5
149
330
2
100
AcDbEntity
  8
0
  6
RAYITAS
 62
     9
100
AcDbCircle
 10
293.8138884138357
 20
221.4999999941665
 30
-0.0000002066365992
 40
4.54103961029341
  0
INSERT
  5
14A
330
2
100
AcDbEntity
  8
KR-TEXTOS
  6
CONTINUOUS
100
AcDbBlockReference
  2
SIM10
 10
276.3185492708776
 20
301.7203338123874
 30
-0.0000003172075301
 41
2.0
 42
2.0
 43
2.0
  0
TEXT
  5
14B
330
2
100
AcDbEntity
  8
KR-TEXTOS
  6
CONTINUOUS
100
AcDbText
 10
277.7567332614382
 20
300.7203338123874
 30
-0.0000003172075301
 40
2.0
  1
15.1400
  7
DEYP
 72
     1
 11
284.0900665947715
 21
301.7203338123874
 31
-0.0000003172075301
100
AcDbText
 73
     2
  0
TEXT
  5
14C
330
2
100
AcDbEntity
  8
KR-TEXTOS
  6
CONTINUOUS
100
AcDbText
 10
283.2482132316839
 20
296.5745327272718
 30
-0.0000003172075301
 40
2.0
  1
2.0
  7
DEYP
 72
     1
 11
285.6291656126363
 21
297.5745327272718
 31
-0.0000003172075301
100
AcDbText
 73
     2
  0
CIRCLE
  5
14D
330
2
100
AcDbEntity
  8
0
  6
RAYITAS
 62
     9
100
AcDbCircle
 10
293.8138884138357
 20
260.2499255860914
 30
-0.0000002796101745
 40
4.54103961029341
  0
TEXT
  5
14E
330
2
100
AcDbEntity
  8
KR-TEXTOS
  6
CONTINUOUS
100
AcDbText
 10
419.7389638516506
 20
284.8101591265908
 30
-0.0000003529613883
 40
2.0
  1
APOYOS EN DILATACION EN SOPORTE
  7
DEYP
100
AcDbText
  0
LINE
  5
14F
330
2
100
AcDbEntity
  8
0
 62
     7
100
AcDbLine
 10
408.8686078942259
 20
283.8560117877245
 30
-0.0000003529613883
 11
476.7794346128803
 21
283.8560117877245
 31
-0.0000003529613883
  0
TEXT
  5
150
330
2
100
AcDbEntity
  8
KR-TEXTOS
  6
CONTINUOUS
100
AcDbText
 10
415.4309591746855
 20
261.2040729249665
 30
-0.0000003448760116
 40
2.0
  1
M3
  7
DEYP
100
AcDbText
  0
LINE
  5
151
330
2
100
AcDbEntity
  8
0
 62
     7
100
AcDbLine
 10
411.7486113228201
 20
260.2499255861002
 30
-0.0000003448760116
 11
419.5753243342673
 21
260.2499255861002
 31
-0.0000003448760116
  0
TEXT
  5
152
330
2
100
AcDbEntity
  8
KR-TEXTOS
  6
CONTINUOUS
100
AcDbText
 10
419.7389638516506
 20
280.9018644488583
 30
-0.0000003529613883
 40
2.0
  1
METALICO DE CUBIERTA
  7
DEYP
100
AcDbText
  0
LINE
  5
153
330
2
100
AcDbEntity
  8
0
 62
     7
100
AcDbLine
 10
398.8138884138352
 20
331.7883156575708
 30
-0.000000353535687
 11
406.1897560121292
 21
331.7883156575708
 31
-0.000000353535687
  0
TEXT
  5
154
330
2
100
AcDbEntity
  8
KR-TEXTOS
  6
CONTINUOUS
100
AcDbText
 10
400.539268625343
 20
332.7424629964371
 30
-0.000000353535687
 40
2.0
  1
J.D.
  7
DEYP
100
AcDbText
  0
LINE
  5
155
330
2
100
AcDbEntity
  8
9
100
AcDbLine
 10
398.8138884138352
 20
325.9651453736437
 30
-0.000000353535687
 11
399.8745485856156
 21
327.0258055454232
 31
-0.000000353535687
  0
LINE
  5
156
330
2
100
AcDbEntity
  8
0
100
AcDbLine
 10
398.8138884138352
 20
325.9651453736432
 30
-0.000000353535687
 11
398.8138884138352
 21
331.7883156575708
 31
-0.000000353535687
  0
LINE
  5
157
330
2
100
AcDbEntity
  8
0
100
AcDbLine
 10
398.8138884138347
 20
325.9651453736432
 30
-0.000000353535687
 11
397.7532282420547
 21
327.0258055454228
 31
-0.000000353535687
  0
TEXT
  5
158
330
2
100
AcDbEntity
  8
KR-TEXTOS
  6
CONTINUOUS
100
AcDbText
 10
283.0596097217408
 20
257.2945800988012
 30
-0.0000002040284003
 40
2.0
  1
A52d
 50
90.0
  7
DEYP
 72
     1
 11
282.0596097217407
 21
260.8183896226107
 31
-0.0000002040284003
100
AcDbText
 73
     2
  0
INSERT
  5
159
330
2
100
AcDbEntity
  8
KR-TEXTOS
  6
CONTINUOUS
100
AcDbBlockReference
  2
SIM10
 10
277.2395239894563
 20
270.510143289757
 30
-0.0000002040284003
 41
2.0
 42
2.0
 43
2.0
 50
90.0
  0
INSERT
  5
15A
330
2
100
AcDbEntity
  8
KR-TEXTOS
  6
CONTINUOUS
100
AcDbBlockReference
  2
SIM10
 10
282.0596097217407
 20
270.510143289757
 30
-0.0000002040284003
 41
2.0
 42
2.0
 43
2.0
 50
90.0
  0
TEXT
  5
15B
330
2
100
AcDbEntity
  8
KR-TEXTOS
  6
CONTINUOUS
100
AcDbText
 10
278.2395239894563
 20
271.9162133535521
 30
-0.0000002040284003
 40
2.0
  1
600.40
 50
90.0
  7
DEYP
 72
     1
 11
277.2395239894563
 21
277.2019276392664
 31
-0.0000002040284003
100
AcDbText
 73
     2
  0
TEXT
  5
15C
330
2
100
AcDbEntity
  8
KR-TEXTOS
  6
CONTINUOUS
100
AcDbText
 10
283.0596097217408
 20
271.9638324011711
 30
-0.0000002040284003
 40
2.0
  1
20.920
 50
90.0
  7
DEYP
 72
     1
 11
282.0596097217407
 21
277.2019276392664
 31
-0.0000002040284003
100
AcDbText
 73
     2
  0
INSERT
  5
15D
330
2
100
AcDbEntity
  8
KR-TEXTOS
  6
CONTINUOUS
100
AcDbBlockReference
  2
SIM10
 10
286.8796954540248
 20
270.510143289757
 30
-0.0000002040284003
 41
2.0
 42
2.0
 43
2.0
 50
90.0
  0
TEXT
  5
15E
330
2
100
AcDbEntity
  8
KR-TEXTOS
  6
CONTINUOUS
100
AcDbText
 10
287.8796954540248
 20
271.9162133535521
 30
-0.0000002040284003
 40
2.0
  1
600.40
 50
90.0
  7
DEYP
 72
     1
 11
286.8796954540248
 21
277.2019276392664
 31
-0.0000002040284003
100
AcDbText
 73
     2
  0
LWPOLYLINE
  5
15F
330
2
100
AcDbEntity
  8
0
100
AcDbPolyline
 90
        4
 70
     0
 43
0.0
 38
-0.0000001320492528
 10
288.6750501200103
 20
-11.75086762144906
 10
288.6750501200103
 20
-16.75086762144906
 10
4.699915538736604
 20
-16.75086762144974
 10
4.699915538736604
 20
-11.75086762144951
  0
TEXT
  5
160
330
2
100
AcDbEntity
  8
KR-TEXTOS
  6
CONTINUOUS
100
AcDbText
 10
238.860218068065
 20
323.6547181778714
 30
0.000000078556043
 40
2.0
  1
V. TRANSV. CONT.
  7
DEYP
100
AcDbText
  0
LINE
  5
161
330
2
100
AcDbEntity
  8
0
 62
     7
100
AcDbLine
 10
239.1994451238656
 20
322.7005708390052
 30
0.000000078556043
 11
275.8790027432419
 21
322.7005708390052
 31
0.000000078556043
  0
TEXT
  5
162
330
2
100
AcDbEntity
  8
KR-TEXTOS
  6
CONTINUOUS
100
AcDbText
 10
238.860218068065
 20
319.7464235001389
 30
0.000000078556043
 40
2.0
  1
HEA 700 A52d
  7
DEYP
100
AcDbText
  0
LINE
  5
163
330
2
100
AcDbEntity
  8
9
100
AcDbLine
 10
165.4227382329309
 20
314.7557310124614
 30
0.0000002253348531
 11
293.3138884138356
 21
314.7557310124614
 31
0.0000001763361448
  0
LINE
  5
164
330
2
100
AcDbEntity
  8
9
100
AcDbLine
 10
155.1193876869069
 20
299.6474351713411
 30
0.0000002296597773
 11
293.3138884138356
 21
299.6474351713411
 31
0.0000001763361448
  0
LINE
  5
165
330
2
100
AcDbEntity
  8
9
100
AcDbLine
 10
165.4227382329309
 20
228.4413093438695
 30
0.0000002253348531
 11
293.3138884138356
 21
228.4413093438695
 31
0.0000001763361448
  0
LINE
  5
166
330
2
100
AcDbEntity
  8
9
100
AcDbLine
 10
155.1193876869069
 20
213.3330135027492
 30
0.0000002296597773
 11
293.3138884138356
 21
213.3330135027492
 31
0.0000001763361448
  0
LWPOLYLINE
  5
167
330
2
100
AcDbEntity
  8
0
 62
     5
100
AcDbPolyline
 90
        2
 70
     0
 43
1.0
 10
293.8138884138357
 20
307.8144216627649
 10
0.0
 20
307.8144216627583
  0
LINE
  5
168
330
2
100
AcDbEntity
  8
0
 62
     7
100
AcDbLine
 10
239.1994451238656
 20
250.127556797828
 30
-0.0000001280805562
 11
275.8790027432419
 21
250.127556797828
 31
-0.0000001280805562
  0
TEXT
  5
169
330
2
100
AcDbEntity
  8
KR-TEXTOS
  6
CONTINUOUS
100
AcDbText
 10
238.860218068065
 20
251.0817041366942
 30
-0.0000001280805562
 40
2.0
  1
V. TRANSV. MIX. CONT.
  7
DEYP
100
AcDbText
  0
TEXT
  5
16A
330
2
100
AcDbEntity
  8
KR-TEXTOS
  6
CONTINUOUS
100
AcDbText
 10
238.860218068065
 20
247.1734094589617
 30
-0.0000001280805562
 40
2.0
  1
HEA 600 A52d
  7
DEYP
100
AcDbText
  0
TEXT
  5
16B
330
2
100
AcDbEntity
  8
KR-TEXTOS
100
AcDbText
 10
134.3310180494776
 20
366.1007443126907
 30
-0.0000001280805562
 40
2.0
  1
VER RESTO DEFINICIÓN DE PERFILES Y ARMADURAS EN PLANOS DE PLANTA Y DETALLES
  7
ROMANS
 72
     1
 11
202.71197043043
 21
367.1007443126907
 31
-0.0000001280805562
100
AcDbText
 73
     2
  0
LINE
  5
16C
330
2
100
AcDbEntity
  8
9
100
AcDbLine
 10
158.9172700082517
 20
150.9763296246124
 30
0.0000000431661182
 11
293.3138884138356
 21
150.9763296246124
 31
-0.0000000058325901
  0
LINE
  5
16D
330
2
100
AcDbEntity
  8
9
100
AcDbLine
 10
173.2541021930774
 20
100.1324158348602
 30
0.0000000379391544
 11
293.3138884138356
 21
100.1324158348602
 31
-0.0000000058325901
  0
LINE
  5
16E
330
2
100
AcDbEntity
  8
9
100
AcDbLine
 10
229.4541720797687
 20
64.6731222173496
 30
-0.0000000548026545
 11
293.3138884138347
 21
64.6731222173496
 31
-0.0000000682813561
  0
LINE
  5
16F
330
2
100
AcDbEntity
  8
9
100
AcDbLine
 10
229.4541720797692
 20
55.03295075278106
 30
-0.0000000548026545
 11
293.3138884138352
 21
55.03295075278106
 31
-0.0000000682813561
  0
LWPOLYLINE
  5
170
330
2
100
AcDbEntity
  8
0
 62
     5
100
AcDbPolyline
 90
        2
 70
     0
 43
1.0
 10
293.8138884138357
 20
221.499999994173
 10
0.0
 20
221.4999999941665
  0
TEXT
  5
171
330
2
100
AcDbEntity
  8
KR-TEXTOS
  6
CONTINUOUS
100
AcDbText
 10
238.860218068065
 20
238.4130701079
 30
-0.0000001280805562
 40
2.0
  1
V. TRANSV. MIX. CONT.
  7
DEYP
100
AcDbText
  0
LINE
  5
172
330
2
100
AcDbEntity
  8
0
 62
     7
100
AcDbLine
 10
239.1994451238656
 20
237.4589227690337
 30
-0.0000001280805562
 11
275.8790027432419
 21
237.4589227690337
 31
-0.0000001280805562
  0
TEXT
  5
173
330
2
100
AcDbEntity
  8
KR-TEXTOS
  6
CONTINUOUS
100
AcDbText
 10
238.860218068065
 20
234.5047754301674
 30
-0.0000001280805562
 40
2.0
  1
HEA 800 A52d
  7
DEYP
100
AcDbText
  0
TEXT
  5
174
330
2
100
AcDbEntity
  8
KR-TEXTOS
  6
CONTINUOUS
100
AcDbText
 10
236.6747414317501
 20
159.2020299919402
 30
-0.0000001280805562
 40
2.0
  1
HEA 600 A52d
  7
DEYP
100
AcDbText
  0
TEXT
  5
175
330
2
100
AcDbEntity
  8
KR-TEXTOS
  6
CONTINUOUS
100
AcDbText
 10
236.6747414317501
 20
163.1103246696727
 30
-0.0000001280805562
 40
2.0
  1
V. TRANSV. MIX. CONT.
  7
DEYP
100
AcDbText
  0
LINE
  5
176
330
2
100
AcDbEntity
  8
0
 62
     7
100
AcDbLine
 10
237.0139684875507
 20
162.1561773308064
 30
-0.0000001280805562
 11
273.693526106927
 21
162.1561773308064
 31
-0.0000001280805562
  0
LWPOLYLINE
  5
177
330
2
100
AcDbEntity
  8
0
 62
     5
100
AcDbPolyline
 90
        2
 70
     0
 43
1.0
 38
-0.0000001821687349
 10
293.8138884138357
 20
144.0350202749159
 10
0.0
 20
144.0350202749096
  0
TEXT
  5
178
330
2
100
AcDbEntity
  8
KR-TEXTOS
100
AcDbText
 10
107.018422373103
 20
-99.32406310223383
 30
-0.0000001280805562
 40
2.0
  1
PUNTOS DE UNIÓN DE ARRIOSTRAMIENTOS SALVO CARÁCTER ARRIOSTRANTE DE LOS PANELES DE CUBIERTA CON CONDICIONES DE UNION APROPÌADAS
  7
ROMANS
 11
107.018422373103
 21
-98.32406310223383
 31
-0.0000001280805562
100
AcDbText
 73
     2
  0
TEXT
  5
179
330
2
100
AcDbEntity
  8
KR-TEXTOS
100
AcDbText
 10
107.018422373103
 20
-88.84787262604346
 30
-0.0000001280805562
 40
2.0
  1
VIGA CON PERFIL INTERRUMPIDO PERO CON UNIONES EN CONTINUIDAD DEFINIDAS EN DETALLES APARTE
  7
ROMANS
 11
107.018422373103
 21
-87.84787262604345
 31
-0.0000001280805562
100
AcDbText
 73
     2
  0
TEXT
  5
17A
330
2
100
AcDbEntity
  8
KR-TEXTOS
100
AcDbText
 10
107.018422373103
 20
-94.08596786413864
 30
-0.0000001280805562
 40
2.0
  1
VIGA O SOPORTE CUYA SECCIÓN METÁLICA ES CONTINUA SIN INTERRUPCIONES, YA SEA ENTERIZA O CON UNIONES SOLDADAS EN TALLER, A TOPE (PENETRACIÓN COMPLETA)
  7
ROMANS
 11
107.018422373103
 21
-93.08596786413863
 31
-0.0000001280805562
100
AcDbText
 73
     2
  0
LWPOLYLINE
  5
17B
330
2
100
AcDbEntity
  8
0
100
AcDbPolyline
 90
        4
 70
     0
 43
0.0
 38
-0.0000000141812718
 10
130.4919222098797
 20
75.30875372973082
 10
135.4919222098797
 20
75.30875372973082
 10
135.4919222098801
 20
86.4419986760056
 10
130.4919222098797
 20
86.4419986760056
  0
LINE
  5
17C
330
2
100
AcDbEntity
  8
9
100
AcDbLine
 10
-11.75427869209534
 20
-0.0000000000075033
 30
-0.0000000302770653
 11
-11.75427869209534
 21
95.78309366576787
 31
-0.0000001864296893
  0
LWPOLYLINE
  5
17D
330
2
100
AcDbEntity
  8
0
 62
     5
100
AcDbPolyline
 90
        2
 70
     0
 43
1.0
 10
0.0
 20
307.8144216627583
 10
0.0
 20
0.0
  0
LINE
  5
17E
330
2
100
AcDbEntity
  8
9
100
AcDbLine
 10
54.33197683123353
 20
55.03295075278106
 30
-0.0000000168097115
 11
214.9994863833863
 21
55.03295075278106
 31
-0.0000000513405392
  0
LINE
  5
17F
330
2
100
AcDbEntity
  8
9
100
AcDbLine
 10
54.33197683123353
 20
64.6731222173496
 30
-0.0000000168097115
 11
214.9994863833863
 21
64.6731222173496
 31
-0.0000000513405392
  0
TEXT
  5
180
330
2
100
AcDbEntity
  8
KR-TEXTOS
100
AcDbText
 10
80.72867442819916
 20
-73.1335869117579
 30
-0.0000001280805562
 40
2.0
  1
V.B.
  7
ROMANS
 11
80.72867442819916
 21
-72.1335869117579
 31
-0.0000001280805562
100
AcDbText
 73
     2
  0
TEXT
  5
181
330
2
100
AcDbEntity
  8
KR-TEXTOS
100
AcDbText
 10
101.6178127160892
 20
-73.1335869117579
 30
-0.0000001280805562
 40
2.0
  1
:
  7
ROMANS
 11
101.6178127160892
 21
-72.1335869117579
 31
-0.0000001280805562
100
AcDbText
 73
     2
  0
TEXT
  5
182
330
2
100
AcDbEntity
  8
KR-TEXTOS
100
AcDbText
 10
107.018422373103
 20
-73.1335869117579
 30
-0.0000001280805562
 40
2.0
  1
VIGA DE BORDE
  7
ROMANS
 11
107.018422373103
 21
-72.1335869117579
 31
-0.0000001280805562
100
AcDbText
 73
     2
  0
TEXT
  5
183
330
2
100
AcDbEntity
  8
KR-TEXTOS
100
AcDbText
 10
107.018422373103
 20
-83.60977738794828
 30
-0.0000001280805562
 40
2.0
  1
VIGA MIXTA CON CONECTADORES DEFINIDOS EN CUADROS APARTE
  7
ROMANS
 11
107.018422373103
 21
-82.60977738794826
 31
-0.0000001280805562
100
AcDbText
 73
     2
  0
TEXT
  5
184
330
2
100
AcDbEntity
  8
KR-TEXTOS
100
AcDbText
 10
107.018422373103
 20
-78.37168214985308
 30
-0.0000001280805562
 40
2.0
  1
VIGA TRANSVERSAL AL PÓRTICO
  7
ROMANS
 11
107.018422373103
 21
-77.37168214985309
 31
-0.0000001280805562
100
AcDbText
 73
     2
  0
TEXT
  5
185
330
2
100
AcDbEntity
  8
KR-TEXTOS
100
AcDbText
 10
80.72867442819916
 20
-94.08596786413864
 30
-0.0000001280805562
 40
2.0
  1
SIN INT.
  7
ROMANS
 11
80.72867442819916
 21
-93.08596786413863
 31
-0.0000001280805562
100
AcDbText
 73
     2
  0
TEXT
  5
186
330
2
100
AcDbEntity
  8
KR-TEXTOS
100
AcDbText
 10
80.72867442819916
 20
-88.84787262604346
 30
-0.0000001280805562
 40
2.0
  1
V. CONT.
  7
ROMANS
 11
80.72867442819916
 21
-87.84787262604345
 31
-0.0000001280805562
100
AcDbText
 73
     2
  0
TEXT
  5
187
330
2
100
AcDbEntity
  8
KR-TEXTOS
100
AcDbText
 10
80.72867442819916
 20
-83.60977738794828
 30
-0.0000001280805562
 40
2.0
  1
V. MIX.
  7
ROMANS
 11
80.72867442819916
 21
-82.60977738794826
 31
-0.0000001280805562
100
AcDbText
 73
     2
  0
TEXT
  5
188
330
2
100
AcDbEntity
  8
KR-TEXTOS
100
AcDbText
 10
80.72867442819916
 20
-99.32406310223383
 30
-0.0000001280805562
 40
2.0
  1
A
  7
ROMANS
 11
80.72867442819916
 21
-98.32406310223383
 31
-0.0000001280805562
100
AcDbText
 73
     2
  0
TEXT
  5
189
330
2
100
AcDbEntity
  8
KR-TEXTOS
100
AcDbText
 10
101.6178127160892
 20
-88.84787262604346
 30
-0.0000001280805562
 40
2.0
  1
:
  7
ROMANS
 11
101.6178127160892
 21
-87.84787262604345
 31
-0.0000001280805562
100
AcDbText
 73
     2
  0
TEXT
  5
18A
330
2
100
AcDbEntity
  8
KR-TEXTOS
100
AcDbText
 10
101.6178127160892
 20
-94.08596786413864
 30
-0.0000001280805562
 40
2.0
  1
:
  7
ROMANS
 11
101.6178127160892
 21
-93.08596786413863
 31
-0.0000001280805562
100
AcDbText
 73
     2
  0
TEXT
  5
18B
330
2
100
AcDbEntity
  8
KR-TEXTOS
100
AcDbText
 10
101.6178127160892
 20
-99.32406310223383
 30
-0.0000001280805562
 40
2.0
  1
:
  7
ROMANS
 11
101.6178127160892
 21
-98.32406310223383
 31
-0.0000001280805562
100
AcDbText
 73
     2
  0
TEXT
  5
18C
330
2
100
AcDbEntity
  8
KR-TEXTOS
100
AcDbText
 10
101.6178127160892
 20
-83.60977738794828
 30
-0.0000001280805562
 40
2.0
  1
:
  7
ROMANS
 11
101.6178127160892
 21
-82.60977738794826
 31
-0.0000001280805562
100
AcDbText
 73
     2
  0
TEXT
  5
18D
330
2
100
AcDbEntity
  8
KR-TEXTOS
100
AcDbText
 10
80.72867442819916
 20
-78.37168214985308
 30
-0.0000001280805562
 40
2.0
  1
V. TRANSV.
  7
ROMANS
 11
80.72867442819916
 21
-77.37168214985309
 31
-0.0000001280805562
100
AcDbText
 73
     2
  0
TEXT
  5
18E
330
2
100
AcDbEntity
  8
KR-TEXTOS
100
AcDbText
 10
101.6178127160892
 20
-78.37168214985308
 30
-0.0000001280805562
 40
2.0
  1
:
  7
ROMANS
 11
101.6178127160892
 21
-77.37168214985309
 31
-0.0000001280805562
100
AcDbText
 73
     2
  0
LINE
  5
18F
330
2
100
AcDbEntity
  8
9
100
AcDbLine
 10
121.3033267941168
 20
38.51349172363484
 30
-0.0000000930645841
 11
121.3033267941168
 21
67.52002297648232
 31
-0.0000001403531587
  0
LINE
  5
190
330
2
100
AcDbEntity
  8
0
100
AcDbLine
 10
-11.75427869209534
 20
-0.0000000000077307
 30
-0.0000001108861715
 11
-10.69361852031533
 21
1.060660171772042
 31
-0.0000001108861715
  0
LINE
  5
191
330
2
100
AcDbEntity
  8
9
100
AcDbLine
 10
-11.75427869209579
 20
-0.000000000007276
 30
-0.0000001108861715
 11
-12.81493886387579
 21
1.060660171772269
 31
-0.0000001108861715
  0
LINE
  5
192
330
2
100
AcDbEntity
  8
7
100
AcDbLine
 10
-10.25427869209579
 20
-0.0000000000077307
 30
-0.0000001108861715
 11
-13.25427869209579
 21
-0.0000000000077307
 31
-0.0000001108861715
  0
LINE
  5
193
330
2
100
AcDbEntity
  8
7
100
AcDbLine
 10
-10.25427869209579
 20
-0.0000000000077307
 30
-0.0000001108861715
 11
-13.25427869209579
 21
-0.0000000000077307
 31
-0.0000001108861715
  0
LINE
  5
194
330
2
100
AcDbEntity
  8
0
100
AcDbLine
 10
88.54223271312003
 20
64.6731222173496
 30
-0.0000001108861715
 11
89.60289288489958
 21
63.6124620455696
 31
-0.0000001108861715
  0
LINE
  5
195
330
2
100
AcDbEntity
  8
9
100
AcDbLine
 10
88.54223271312049
 20
64.67312221735006
 30
-0.0000001108861715
 11
89.60289288490002
 21
65.73378238913005
 31
-0.0000001108861715
  0
LINE
  5
196
330
2
100
AcDbEntity
  8
7
100
AcDbLine
 10
88.54223271312003
 20
63.17312221735005
 30
-0.0000001108861715
 11
88.54223271312003
 21
66.17312221735005
 31
-0.0000001108861715
  0
LINE
  5
197
330
2
100
AcDbEntity
  8
7
100
AcDbLine
 10
88.54223271312003
 20
63.17312221735005
 30
-0.0000001108861715
 11
88.54223271312003
 21
66.17312221735005
 31
-0.0000001108861715
  0
LINE
  5
198
330
2
100
AcDbEntity
  8
9
100
AcDbLine
 10
88.54223271311957
 20
64.67312221735006
 30
-0.0000001108861715
 11
87.48157254134003
 21
65.73378238913005
 31
-0.0000001108861715
  0
LINE
  5
199
330
2
100
AcDbEntity
  8
0
100
AcDbLine
 10
88.54223271312003
 20
64.6731222173496
 30
-0.0000001108861715
 11
87.48157254134003
 21
63.6124620455696
 31
-0.0000001108861715
  0
LINE
  5
19A
330
2
100
AcDbEntity
  8
0
100
AcDbLine
 10
88.36758902656811
 20
48.69543399176723
 30
-0.0000001108861715
 11
89.42824919834766
 21
47.63477381998723
 31
-0.0000001108861715
  0
LINE
  5
19B
330
2
100
AcDbEntity
  8
9
100
AcDbLine
 10
88.36758902656857
 20
48.69543399176769
 30
-0.0000001108861715
 11
89.4282491983481
 21
49.75609416354768
 31
-0.0000001108861715
  0
LINE
  5
19C
330
2
100
AcDbEntity
  8
7
100
AcDbLine
 10
88.36758902656811
 20
47.19543399176768
 30
-0.0000001108861715
 11
88.36758902656811
 21
50.19543399176768
 31
-0.0000001108861715
  0
LINE
  5
19D
330
2
100
AcDbEntity
  8
7
100
AcDbLine
 10
88.36758902656811
 20
47.19543399176768
 30
-0.0000001108861715
 11
88.36758902656811
 21
50.19543399176768
 31
-0.0000001108861715
  0
LINE
  5
19E
330
2
100
AcDbEntity
  8
0
100
AcDbLine
 10
88.54223271312003
 20
55.03295075278106
 30
-0.0000001108861715
 11
89.60289288489958
 21
53.97229058100106
 31
-0.0000001108861715
  0
LINE
  5
19F
330
2
100
AcDbEntity
  8
9
100
AcDbLine
 10
88.54223271312049
 20
55.03295075278152
 30
-0.0000001108861715
 11
89.60289288490002
 21
56.09361092456151
 31
-0.0000001108861715
  0
LINE
  5
1A0
330
2
100
AcDbEntity
  8
7
100
AcDbLine
 10
88.54223271312003
 20
53.53295075278151
 30
-0.0000001108861715
 11
88.54223271312003
 21
56.53295075278151
 31
-0.0000001108861715
  0
LINE
  5
1A1
330
2
100
AcDbEntity
  8
7
100
AcDbLine
 10
88.54223271312003
 20
53.53295075278151
 30
-0.0000001108861715
 11
88.54223271312003
 21
56.53295075278151
 31
-0.0000001108861715
  0
LINE
  5
1A2
330
2
100
AcDbEntity
  8
9
100
AcDbLine
 10
88.54223271311957
 20
55.03295075278152
 30
-0.0000001108861715
 11
87.48157254134003
 21
56.09361092456151
 31
-0.0000001108861715
  0
LINE
  5
1A3
330
2
100
AcDbEntity
  8
0
100
AcDbLine
 10
88.54223271312003
 20
55.03295075278106
 30
-0.0000001108861715
 11
87.48157254134003
 21
53.97229058100106
 31
-0.0000001108861715
  0
TEXT
  5
1A4
330
2
100
AcDbEntity
  8
KR-TEXTOS
  6
CONTINUOUS
100
AcDbText
 10
143.1160542579449
 20
-20.76036331288446
 30
-0.0000001320492528
 40
2.5
  1
$10
  7
DEYP
 72
     1
 11
146.6874828293734
 21
-19.51036331288446
 31
-0.0000001320492528
100
AcDbText
 73
     2
  0
LINE
  5
1A5
330
2
100
AcDbEntity
  8
0
100
AcDbLine
 10
121.3033267941168
 20
-0.0000000000077307
 30
-0.0000001108861715
 11
122.3639869658968
 21
1.060660171772042
 31
-0.0000001108861715
  0
LINE
  5
1A6
330
2
100
AcDbEntity
  8
7
100
AcDbLine
 10
122.8033267941164
 20
-0.0000000000077307
 30
-0.0000001108861715
 11
119.8033267941164
 21
-0.0000000000077307
 31
-0.0000001108861715
  0
LINE
  5
1A7
330
2
100
AcDbEntity
  8
7
100
AcDbLine
 10
122.8033267941164
 20
-0.0000000000077307
 30
-0.0000001108861715
 11
119.8033267941164
 21
-0.0000000000077307
 31
-0.0000001108861715
  0
LINE
  5
1A8
330
2
100
AcDbEntity
  8
9
100
AcDbLine
 10
121.3033267941163
 20
-0.000000000007276
 30
-0.0000001108861715
 11
120.2426666223364
 21
1.060660171772269
 31
-0.0000001108861715
  0
LINE
  5
1A9
330
2
100
AcDbEntity
  8
0
 62
     7
100
AcDbLine
 10
235.6748508728705
 20
44.85440095805256
 30
-0.0000001821687349
 11
170.5317885199883
 21
44.85440095805256
 31
-0.0000001821687349
  0
TEXT
  5
1AA
330
2
100
AcDbEntity
  8
KR-TEXTOS
  6
CONTINUOUS
100
AcDbText
 10
171.7201640416524
 20
45.80854829691884
 30
-0.0000001821687349
 40
2.0
  1
CONTRAFLECHA DE EJECUCION = L/1000
  7
DEYP
100
AcDbText
  0
LINE
  5
1AB
330
2
100
AcDbEntity
  8
0
100
AcDbLine
 10
128.3675890265681
 20
48.69543399176723
 30
-0.0000001459739989
 11
127.3069288547881
 21
47.63477381998723
 31
-0.0000001459739989
  0
LINE
  5
1AC
330
2
100
AcDbEntity
  8
9
100
AcDbLine
 10
128.3675890265676
 20
48.69543399176769
 30
-0.0000001459739989
 11
127.3069288547881
 21
49.75609416354768
 31
-0.0000001459739989
  0
LINE
  5
1AD
330
2
100
AcDbEntity
  8
7
100
AcDbLine
 10
128.3675890265681
 20
47.19543399176768
 30
-0.0000001459739989
 11
128.3675890265681
 21
50.19543399176768
 31
-0.0000001459739989
  0
LINE
  5
1AE
330
2
100
AcDbEntity
  8
7
100
AcDbLine
 10
128.3675890265681
 20
47.19543399176768
 30
-0.0000001459739989
 11
128.3675890265681
 21
50.19543399176768
 31
-0.0000001459739989
  0
LINE
  5
1AF
330
2
100
AcDbEntity
  8
0
100
AcDbLine
 10
128.54223271312
 20
55.03295075278106
 30
-0.0000001459739989
 11
129.6028928848995
 21
53.97229058100106
 31
-0.0000001459739989
  0
LINE
  5
1B0
330
2
100
AcDbEntity
  8
9
100
AcDbLine
 10
128.5422327131204
 20
55.03295075278152
 30
-0.0000001459739989
 11
129.6028928849
 21
56.09361092456151
 31
-0.0000001459739989
  0
LINE
  5
1B1
330
2
100
AcDbEntity
  8
7
100
AcDbLine
 10
128.54223271312
 20
53.53295075278151
 30
-0.0000001459739989
 11
128.54223271312
 21
56.53295075278151
 31
-0.0000001459739989
  0
LINE
  5
1B2
330
2
100
AcDbEntity
  8
7
100
AcDbLine
 10
128.54223271312
 20
53.53295075278151
 30
-0.0000001459739989
 11
128.54223271312
 21
56.53295075278151
 31
-0.0000001459739989
  0
LINE
  5
1B3
330
2
100
AcDbEntity
  8
9
100
AcDbLine
 10
128.5422327131195
 20
55.03295075278152
 30
-0.0000001459739989
 11
127.48157254134
 21
56.09361092456151
 31
-0.0000001459739989
  0
LINE
  5
1B4
330
2
100
AcDbEntity
  8
0
100
AcDbLine
 10
128.54223271312
 20
55.03295075278106
 30
-0.0000001459739989
 11
127.48157254134
 21
53.97229058100106
 31
-0.0000001459739989
  0
LINE
  5
1B5
330
2
100
AcDbEntity
  8
9
100
AcDbLine
 10
88.36758902656811
 20
48.69543399176723
 30
-0.0000000208298718
 11
128.3675890265681
 21
48.69543399176723
 31
-0.0000000299346792
  0
TEXT
  5
1B6
330
2
100
AcDbEntity
  8
KR-TEXTOS
  6
CONTINUOUS
100
AcDbText
 10
94.11343499814211
 20
55.98709809164734
 30
-0.00000002324227
 40
2.0
  1
600.40
  7
DEYP
100
AcDbText
  0
LINE
  5
1B7
330
2
100
AcDbEntity
  8
9
100
AcDbLine
 10
121.3033267941168
 20
-0.0000000000075033
 30
-0.0000000302770653
 11
121.3033267941168
 21
32.22123930444126
 31
-0.0000000828064927
  0
CIRCLE
  5
1B8
330
2
100
AcDbEntity
  8
0
100
AcDbCircle
 10
121.3033267941168
 20
35.36736551403805
 30
-0.0000000879355384
 40
3.146126209596722
  0
TEXT
  5
1B9
330
2
100
AcDbEntity
  8
KR-TEXTOS
  6
CONTINUOUS
100
AcDbText
 10
119.3509458417359
 20
34.36736551403805
 30
-0.0000000879355384
 40
2.0
  1
2K
  7
DEYP
 72
     1
 11
121.3033267941168
 21
35.36736551403805
 31
-0.0000000879355384
100
AcDbText
 73
     2
  0
LWPOLYLINE
  5
1BA
330
2
100
AcDbEntity
  8
0
 62
     5
100
AcDbPolyline
 90
        2
 70
     0
 43
1.0
 10
-77.73854828045933
 20
71.59053004516749
 10
-77.73854828045933
 20
59.48109108438507
  0
CIRCLE
  5
1BB
330
2
100
AcDbEntity
  8
0
  6
RAYITAS
 62
     9
100
AcDbCircle
 10
-77.73854828045933
 20
65.53581056477629
 30
0.0
 40
6.054719480391213
  0
CIRCLE
  5
1BC
330
2
100
AcDbEntity
  8
0
  6
RAYITAS
 62
     9
100
AcDbCircle
 10
108.5364289840267
 20
65.53581056477629
 30
0.0
 40
6.054719480391213
  0
LINE
  5
1BD
330
2
100
AcDbEntity
  8
9
100
AcDbLine
 10
0.5
 20
64.6731222173496
 30
0.0
 11
39.67902795929285
 21
64.6731222173496
 31
-0.0000000133475962
  0
LINE
  5
1BE
330
2
100
AcDbEntity
  8
9
100
AcDbLine
 10
0.5
 20
55.03295075278106
 30
0.0
 11
39.67902795929285
 21
55.03295075278106
 31
-0.0000000133475962
  0
CIRCLE
  5
1BF
330
2
100
AcDbEntity
  8
0
  6
RAYITAS
 62
     9
100
AcDbCircle
 10
0.0
 20
65.53581056477629
 30
0.0
 40
6.054719480391213
  0
LINE
  5
1C0
330
2
100
AcDbEntity
  8
7
100
AcDbLine
 10
0.5
 20
63.1731222173496
 30
0.0
 11
0.5
 21
66.1731222173496
 31
0.0
  0
LINE
  5
1C1
330
2
100
AcDbEntity
  8
0
100
AcDbLine
 10
0.5
 20
64.67312221734914
 30
0.0
 11
1.560660171779545
 21
63.61246204556914
 31
0.0
  0
LINE
  5
1C2
330
2
100
AcDbEntity
  8
9
100
AcDbLine
 10
0.5000000000004548
 20
64.6731222173496
 30
0.0
 11
1.56066017178
 21
65.7337823891296
 31
0.0
  0
LINE
  5
1C3
330
2
100
AcDbEntity
  8
9
100
AcDbLine
 10
0.5000000000004548
 20
55.03295075278106
 30
0.0
 11
1.56066017178
 21
56.09361092456106
 31
0.0
  0
LINE
  5
1C4
330
2
100
AcDbEntity
  8
0
100
AcDbLine
 10
0.5
 20
55.0329507527806
 30
0.0
 11
1.560660171779545
 21
53.97229058100061
 31
0.0
  0
LINE
  5
1C5
330
2
100
AcDbEntity
  8
7
100
AcDbLine
 10
0.5
 20
53.53295075278106
 30
0.0
 11
0.5
 21
56.53295075278106
 31
0.0
  0
INSERT
  5
1C6
330
2
100
AcDbEntity
  8
KR-TEXTOS
  6
CONTINUOUS
100
AcDbBlockReference
  2
SIM10
 10
92.99848615029715
 20
56.93935583527263
 30
0.0000000493011766
 41
2.0
 42
2.0
 43
2.0
  0
LINE
  5
1C7
330
2
100
AcDbEntity
  8
0
100
AcDbLine
 10
6.019309626089125
 20
117.8209500874702
 30
-0.0000001821687601
 11
1.725170508031169
 21
105.9641913087925
 31
-0.0000000165486348
  0
CIRCLE
  5
1C8
330
2
100
AcDbEntity
  8
0
  6
RAYITAS
 62
     9
100
AcDbCircle
 10
-30.0
 20
307.8144216627583
 30
-0.0000001549774494
 40
3.405779707720057
  0
CIRCLE
  5
1C9
330
2
100
AcDbEntity
  8
0
  6
RAYITAS
 62
     9
100
AcDbCircle
 10
-30.0
 20
221.4999999941665
 30
-0.0000001549774494
 40
3.405779707720057
  0
LINE
  5
1CA
330
2
100
AcDbEntity
  8
0
 62
     7
100
AcDbLine
 10
-75.76471242573416
 20
215.7588023149712
 30
-0.0000001821687349
 11
-29.058126037713
 21
215.7588023149712
 31
-0.0000001821687349
  0
LWPOLYLINE
  5
1CB
330
2
100
AcDbEntity
  8
0
100
AcDbPolyline
 90
        4
 70
     0
 43
0.0
 38
-0.0000001821687349
 10
-95.03040150497554
 20
168.238722882178
 10
-100.0304015049755
 20
168.238722882178
 10
-100.0304015049764
 20
228.0638071857906
 10
-95.030401504976
 20
228.0638071857906
  0
TEXT
  5
1CC
330
2
100
AcDbEntity
  8
KR-TEXTOS
  6
CONTINUOUS
100
AcDbText
 10
-76.10393948153523
 20
216.7129496538375
 30
-0.0000001821687349
 40
2.0
  1
VARIABLE SEGÚN PÓRTICOS
  7
DEYP
100
AcDbText
  0
TEXT
  5
1CD
330
2
100
AcDbEntity
  8
KR-TEXTOS
  6
CONTINUOUS
100
AcDbText
 10
-76.10393948153523
 20
212.8046549761049
 30
-0.0000001821687349
 40
2.0
  1
VER PLANOS DE PLANTA
  7
DEYP
100
AcDbText
  0
TEXT
  5
1CE
330
2
100
AcDbEntity
  8
KR-TEXTOS
  6
CONTINUOUS
100
AcDbText
 10
-104.600802602753
 20
301.4257473653362
 30
-0.0000000267711881
 40
2.5
  1
$3
  7
DEYP
 72
     1
 11
-102.2198502218006
 21
302.6757473653363
 31
-0.0000000267711881
100
AcDbText
 73
     2
  0
TEXT
  5
1CF
330
2
100
AcDbEntity
  8
KR-TEXTOS
  6
CONTINUOUS
100
AcDbText
 10
109.1074305166334
 20
113.5952049547239
 30
-0.0000001835474263
 40
2.0
  1
HEB 240 A52d
 50
90.0
  7
DEYP
 72
     1
 11
108.1074305166334
 21
125.0713954309144
 31
-0.0000001835474263
100
AcDbText
 73
     2
  0
TEXT
  5
1D0
330
2
100
AcDbEntity
  8
KR-TEXTOS
  6
CONTINUOUS
100
AcDbText
 10
7.485548794984424
 20
114.8668027486039
 30
-0.0000001821687601
 40
2.0
  1
ARTICULADA
  7
DEYP
100
AcDbText
  0
TEXT
  5
1D1
330
2
100
AcDbEntity
  8
KR-TEXTOS
  6
CONTINUOUS
100
AcDbText
 10
35.65403051663043
 20
113.8838259757277
 30
-0.0000001832368747
 40
2.0
  1
HEB 300 A52d
 50
90.0
  7
DEYP
 72
     1
 11
34.65403051663042
 21
125.3600164519182
 31
-0.0000001832368747
100
AcDbText
 73
     2
  0
LWPOLYLINE
  5
1D2
330
2
100
AcDbEntity
  8
9
100
AcDbPolyline
 90
        7
 70
     0
 43
0.0
 38
-0.0000001881101487
 10
-4.886595297703479
 20
114.1506292420644
 10
-5.947255469483025
 20
115.2112894138442
 10
-10.69361852031533
 20
115.2112894138442
 10
-11.75427869209488
 20
116.2719495856242
 10
-12.81493886387488
 20
115.2112894138442
 10
-17.53076621215041
 20
115.2112894138442
 10
-18.59142638393041
 20
114.1506292420644
  0
LWPOLYLINE
  5
1D3
330
2
100
AcDbEntity
  8
9
100
AcDbPolyline
 90
        7
 70
     0
 43
0.0
 38
-0.0000001881101487
 10
-4.886595297703479
 20
97.90441400932763
 10
-5.947255469483025
 20
96.84375383754787
 10
-10.69361852031533
 20
96.84375383754787
 10
-11.75427869209488
 20
95.78309366576808
 10
-12.81493886387488
 20
96.84375383754787
 10
-17.53076621215041
 20
96.84375383754787
 10
-18.59142638393041
 20
97.90441400932763
  0
CIRCLE
  5
1D4
330
2
100
AcDbEntity
  8
0
  6
RAYITAS
 62
     9
100
AcDbCircle
 10
0.0
 20
144.0350202749096
 30
-0.0000001821687349
 40
4.54103961029341
  0
TEXT
  5
1D5
330
2
100
AcDbEntity
  8
KR-TEXTOS
  6
CONTINUOUS
100
AcDbText
 10
-26.49035435977021
 20
140.4185490581176
 30
-0.0000001821687349
 40
2.0
  1
HEA 600 A52
  7
DEYP
100
AcDbText
  0
TEXT
  5
1D6
330
2
100
AcDbEntity
  8
KR-TEXTOS
  6
CONTINUOUS
100
AcDbText
 10
-26.49035435977021
 20
137.2434741082788
 30
-0.0000001821687349
 40
2.0
  1
HEB 600 A52
  7
DEYP
100
AcDbText
  0
TEXT
  5
1D7
330
2
100
AcDbEntity
  8
KR-TEXTOS
  6
CONTINUOUS
100
AcDbText
 10
-26.57505208222664
 20
145.4123724198884
 30
-0.0000001821687349
 40
2.0
  1
V. MIX. CONT.
  7
DEYP
100
AcDbText
  0
LWPOLYLINE
  5
1D8
330
2
100
AcDbEntity
  8
0
 62
     5
100
AcDbPolyline
 90
        2
 70
     0
 43
1.0
 38
-0.0000001821687349
 10
0.0
 20
144.0350202749102
 10
-30.0
 20
144.0350202749096
  0
LINE
  5
1D9
330
2
100
AcDbEntity
  8
7
100
AcDbLine
 10
20.0
 20
142.5350202749104
 30
-0.0000001821687349
 11
20.0
 21
145.5350202749104
 31
-0.0000001821687349
  0
LINE
  5
1DA
330
2
100
AcDbEntity
  8
0
 62
     7
100
AcDbLine
 10
6.019309626089125
 20
117.8209500874702
 30
-0.0000001821687601
 11
24.60387822316397
 21
117.8209500874702
 31
-0.0000001821687601
  0
TEXT
  5
1DB
330
2
100
AcDbEntity
  8
KR-TEXTOS
  6
CONTINUOUS
100
AcDbText
 10
7.485548794984424
 20
118.7750974263365
 30
-0.0000001821687601
 40
2.0
  1
UNIÓN
  7
DEYP
100
AcDbText
  0
TEXT
  5
1DC
330
2
100
AcDbEntity
  8
KR-TEXTOS
  6
CONTINUOUS
100
AcDbText
 10
10.5794398047596
 20
134.8064171251466
 30
-0.0000001837569496
 40
2.0
  1
HEB 340 A52d
 50
314.5179301975993
  7
DEYP
 72
     1
 11
19.33880025198141
 21
127.3246691742028
 31
-0.0000001837569496
100
AcDbText
 73
     2
  0
TEXT
  5
1DD
330
2
100
AcDbEntity
  8
KR-TEXTOS
  6
CONTINUOUS
100
AcDbText
 10
72.38073051663332
 20
113.595204954723
 30
-0.0000001835474263
 40
2.0
  1
HEB 280 A52d
 50
90.0
  7
DEYP
 72
     1
 11
71.38073051663332
 21
125.0713954309135
 31
-0.0000001835474263
100
AcDbText
 73
     2
  0
TEXT
  5
1DE
330
2
100
AcDbEntity
  8
KR-TEXTOS
  6
CONTINUOUS
100
AcDbText
 10
47.3061398047625
 20
134.8064171251466
 30
-0.0000001837569496
 40
2.0
  1
HEB 340 A52d
 50
314.5179301975993
  7
DEYP
 72
     1
 11
56.0655002519843
 21
127.3246691742028
 31
-0.0000001837569496
100
AcDbText
 73
     2
  0
CIRCLE
  5
1DF
330
2
100
AcDbEntity
  8
0
  6
RAYITAS
 62
     9
100
AcDbCircle
 10
90.61570971854962
 20
144.0350202749116
 30
-0.0000001821687349
 40
4.54103961029341
  0
TEXT
  5
1E0
330
2
100
AcDbEntity
  8
KR-TEXTOS
  6
CONTINUOUS
100
AcDbText
 10
84.03283980476265
 20
134.8064171251466
 30
-0.0000001837569496
 40
2.0
  1
HEB 220 A52d
 50
314.5179301975993
  7
DEYP
 72
     1
 11
92.79220025198446
 21
127.3246691742028
 31
-0.0000001837569496
100
AcDbText
 73
     2
  0
LWPOLYLINE
  5
1E1
330
2
100
AcDbEntity
  8
9
100
AcDbPolyline
 90
        7
 70
     0
 43
0.0
 38
-0.0000001821687349
 10
-27.86488334446039
 20
211.5229439899865
 10
-28.4615046910867
 20
212.1195653366123
 10
-28.4615046910867
 20
215.1621809683454
 10
-29.058126037713
 20
215.7588023149712
 10
-28.4615046910867
 20
216.3554236615975
 10
-28.4615046910867
 20
219.2850849491412
 10
-27.86488334446039
 20
219.8817062957675
  0
INSERT
  5
1E2
330
2
100
AcDbEntity
  8
KR-TEXTOS
  6
CONTINUOUS
100
AcDbBlockReference
  2
SIM10
 10
-11.7600824211886
 20
176.784616145168
 30
-0.0000001440527426
 41
2.0
 42
2.0
 43
2.0
 50
90.0
  0
INSERT
  5
1E3
330
2
100
AcDbEntity
  8
KR-TEXTOS
  6
CONTINUOUS
100
AcDbBlockReference
  2
SIM10
 10
-16.58016815347264
 20
176.784616145168
 30
-0.0000001440527426
 41
2.0
 42
2.0
 43
2.0
 50
90.0
  0
INSERT
  5
1E4
330
2
100
AcDbEntity
  8
KR-TEXTOS
  6
CONTINUOUS
100
AcDbBlockReference
  2
SIM10
 10
-6.939996688904102
 20
176.784616145168
 30
-0.0000001440527426
 41
2.0
 42
2.0
 43
2.0
 50
90.0
  0
TEXT
  5
1E5
330
2
100
AcDbEntity
  8
KR-TEXTOS
  6
CONTINUOUS
100
AcDbText
 10
-15.58016815347264
 20
178.1906862089631
 30
-0.0000001440527426
 40
2.0
  1
600.80
 50
90.0
  7
DEYP
 72
     1
 11
-16.58016815347264
 21
183.4764004946773
 31
-0.0000001440527426
100
AcDbText
 73
     2
  0
TEXT
  5
1E6
330
2
100
AcDbEntity
  8
KR-TEXTOS
  6
CONTINUOUS
100
AcDbText
 10
-10.76008242118859
 20
178.2383052565821
 30
-0.0000001440527426
 40
2.0
  1
30.840
 50
90.0
  7
DEYP
 72
     1
 11
-11.7600824211886
 21
183.4764004946773
 31
-0.0000001440527426
100
AcDbText
 73
     2
  0
TEXT
  5
1E7
330
2
100
AcDbEntity
  8
KR-TEXTOS
  6
CONTINUOUS
100
AcDbText
 10
-5.939996688904102
 20
178.1906862089631
 30
-0.0000001440527426
 40
2.0
  1
600.80
 50
90.0
  7
DEYP
 72
     1
 11
-6.939996688904102
 21
183.4764004946773
 31
-0.0000001440527426
100
AcDbText
 73
     2
  0
LWPOLYLINE
  5
1E8
330
2
100
AcDbEntity
  8
9
100
AcDbPolyline
 90
        7
 70
     0
 43
0.0
 38
-0.0000001238093948
 10
-4.892399026796738
 20
173.9194113077549
 10
-5.953059198576283
 20
172.8587511359749
 10
-10.69942224940859
 20
172.8587511359749
 10
-11.76008242118814
 20
171.7980909641951
 10
-12.82074259296814
 20
172.8587511359749
 10
-17.53656994124367
 20
172.8587511359749
 10
-18.59723011302367
 20
173.9194113077549
  0
LWPOLYLINE
  5
1E9
330
2
100
AcDbEntity
  8
9
100
AcDbPolyline
 90
        7
 70
     0
 43
0.0
 38
-0.0000001238093948
 10
-4.892399026796738
 20
190.1656265404915
 10
-5.953059198576283
 20
191.2262867122715
 10
-10.69942224940859
 20
191.2262867122715
 10
-11.76008242118814
 20
192.2869468840513
 10
-12.82074259296814
 20
191.2262867122715
 10
-17.53656994124367
 20
191.2262867122715
 10
-18.59723011302367
 20
190.1656265404915
  0
TEXT
  5
1EA
330
2
100
AcDbEntity
  8
KR-TEXTOS
  6
CONTINUOUS
100
AcDbText
 10
145.8341601447082
 20
113.8838259757277
 30
-0.0000001832368748
 40
2.0
  1
HEB 200 A52d
 50
90.0
  7
DEYP
 72
     1
 11
144.8341601447082
 21
125.3600164519182
 31
-0.0000001832368748
100
AcDbText
 73
     2
  0
TEXT
  5
1EB
330
2
100
AcDbEntity
  8
KR-TEXTOS
  6
CONTINUOUS
100
AcDbText
 10
121.5738400312599
 20
99.13241583486025
 30
-0.0000001821687601
 40
2.0
  1
HEA 650 A52d + UPN 140 A52
  7
DEYP
 72
     1
 11
146.9071733645932
 21
100.1324158348602
 31
-0.0000001821687601
100
AcDbText
 73
     2
  0
TEXT
  5
1EC
330
2
100
AcDbEntity
  8
KR-TEXTOS
  6
CONTINUOUS
100
AcDbText
 10
114.8119352693552
 20
95.43643831164173
 30
-0.0000001821687601
 40
2.0
  1
CONTRAFLECHA DE EJECUCION = L/1000
  7
DEYP
 72
     1
 11
146.9071733645932
 21
96.43643831164173
 31
-0.0000001821687601
100
AcDbText
 73
     2
  0
TEXT
  5
1ED
330
2
100
AcDbEntity
  8
KR-TEXTOS
  6
CONTINUOUS
100
AcDbText
 10
114.8119352693552
 20
146.2803521013938
 30
-0.0000001821687601
 40
2.0
  1
CONTRAFLECHA DE EJECUCION = L/1000
  7
DEYP
 72
     1
 11
146.9071733645932
 21
147.2803521013938
 31
-0.0000001821687601
100
AcDbText
 73
     2
  0
TEXT
  5
1EE
330
2
100
AcDbEntity
  8
KR-TEXTOS
  6
CONTINUOUS
100
AcDbText
 10
135.4309828884028
 20
149.9763296246124
 30
-0.0000001821687601
 40
2.0
  1
HEB 900 A52d
  7
DEYP
 72
     1
 11
146.9071733645932
 21
150.9763296246124
 31
-0.0000001821687601
100
AcDbText
 73
     2
  0
TEXT
  5
1EF
330
2
100
AcDbEntity
  8
KR-TEXTOS
  6
CONTINUOUS
100
AcDbText
 10
120.7596697071311
 20
134.8064007395755
 30
-0.0000001837569748
 40
2.0
  1
HEB 180 A52d
 50
314.5179301975993
  7
DEYP
 72
     1
 11
129.5190301543529
 21
127.3246527886317
 31
-0.0000001837569748
100
AcDbText
 73
     2
  0
TEXT
  5
1F0
330
2
100
AcDbEntity
  8
KR-TEXTOS
  6
CONTINUOUS
100
AcDbText
 10
157.4957560954166
 20
118.9839017355221
 30
-0.0000001837569748
 40
2.0
  1
HEB 180 A52d
 50
45.48206980240077
  7
DEYP
 72
     1
 11
164.8290544006422
 21
127.867914557011
 31
-0.0000001837569748
100
AcDbText
 73
     2
  0
TEXT
  5
1F1
330
2
100
AcDbEntity
  8
KR-TEXTOS
  6
CONTINUOUS
100
AcDbText
 10
219.2875897727831
 20
113.595204954723
 30
-0.0000001835474263
 40
2.0
  1
HEB 280 A52d
 50
90.0
  7
DEYP
 72
     1
 11
218.2875897727831
 21
125.0713954309135
 31
-0.0000001835474263
100
AcDbText
 73
     2
  0
TEXT
  5
1F2
330
2
100
AcDbEntity
  8
KR-TEXTOS
  6
CONTINUOUS
100
AcDbText
 10
182.5608897727829
 20
113.5952049547239
 30
-0.0000001835474263
 40
2.0
  1
HEB 240 A52d
 50
90.0
  7
DEYP
 72
     1
 11
181.5608897727829
 21
125.0713954309144
 31
-0.0000001835474263
100
AcDbText
 73
     2
  0
TEXT
  5
1F3
330
2
100
AcDbEntity
  8
KR-TEXTOS
  6
CONTINUOUS
100
AcDbText
 10
189.3436314650934
 20
88.75025226535148
 30
-0.0000001821687601
 40
2.0
  1
PERFIL DE FORJADO MIXT.
  7
DEYP
100
AcDbText
  0
LINE
  5
1F4
330
2
100
AcDbEntity
  8
0
 62
     7
100
AcDbLine
 10
230.1405407068159
 20
87.79610492648521
 30
-0.0000001821687601
 11
189.3988885142325
 21
87.79610492648521
 31
-0.0000001821687601
  0
TEXT
  5
1F5
330
2
100
AcDbEntity
  8
KR-TEXTOS
  6
CONTINUOUS
100
AcDbText
 10
189.3436314650934
 20
84.84195758761893
 30
-0.0000001821687601
 40
2.0
  1
HEA 600 A52
  7
DEYP
100
AcDbText
  0
TEXT
  5
1F6
330
2
100
AcDbEntity
  8
KR-TEXTOS
  6
CONTINUOUS
100
AcDbText
 10
194.2225859977851
 20
118.9839181210932
 30
-0.0000001837569496
 40
2.0
  1
HEB 220 A52d
 50
45.48206980240077
  7
DEYP
 72
     1
 11
201.5558843030107
 21
127.8679309425822
 31
-0.0000001837569496
100
AcDbText
 73
     2
  0
TEXT
  5
1F7
330
2
100
AcDbEntity
  8
KR-TEXTOS
  6
CONTINUOUS
100
AcDbText
 10
230.9492859977853
 20
118.9839181210932
 30
-0.0000001837569496
 40
2.0
  1
HEB 340 A52d
 50
45.48206980240077
  7
DEYP
 72
     1
 11
238.2825843030109
 21
127.8679309425822
 31
-0.0000001837569496
100
AcDbText
 73
     2
  0
TEXT
  5
1F8
330
2
100
AcDbEntity
  8
KR-TEXTOS
  6
CONTINUOUS
100
AcDbText
 10
178.195411732643
 20
87.11548249791599
 30
-0.000000091071942
 40
2.5
  1
$8
  7
DEYP
 72
     1
 11
180.5763641135954
 21
88.36548249791599
 31
-0.000000091071942
100
AcDbText
 73
     2
  0
TEXT
  5
1F9
330
2
100
AcDbEntity
  8
KR-TEXTOS
  6
CONTINUOUS
100
AcDbText
 10
137.0242623719967
 20
80.157339801651
 30
-0.000000091071942
 40
2.5
  1
$9
  7
DEYP
 72
     1
 11
139.3456909434253
 21
81.407339801651
 31
-0.000000091071942
100
AcDbText
 73
     2
  0
TEXT
  5
1FA
330
2
100
AcDbEntity
  8
KR-TEXTOS
  6
CONTINUOUS
100
AcDbText
 10
221.5871290858912
 20
160.9156292609452
 30
-0.0000000267711881
 40
2.5
  1
$6
  7
DEYP
 72
     1
 11
223.9680814668436
 21
162.1656292609452
 31
-0.0000000267711881
100
AcDbText
 73
     2
  0
INSERT
  5
1FB
330
2
100
AcDbEntity
  8
KR-TEXTOS
  6
CONTINUOUS
100
AcDbBlockReference
  2
SIM10
 10
-16.58016815347264
 20
264.5410203452356
 30
-0.0000001440527426
 41
2.0
 42
2.0
 43
2.0
 50
90.0
  0
INSERT
  5
1FC
330
2
100
AcDbEntity
  8
KR-TEXTOS
  6
CONTINUOUS
100
AcDbBlockReference
  2
SIM10
 10
-11.7600824211886
 20
264.5410203452356
 30
-0.0000001440527426
 41
2.0
 42
2.0
 43
2.0
 50
90.0
  0
INSERT
  5
1FD
330
2
100
AcDbEntity
  8
KR-TEXTOS
  6
CONTINUOUS
100
AcDbBlockReference
  2
SIM10
 10
-6.939996688904102
 20
264.5410203452356
 30
-0.0000001440527426
 41
2.0
 42
2.0
 43
2.0
 50
90.0
  0
LWPOLYLINE
  5
1FE
330
2
100
AcDbEntity
  8
9
100
AcDbPolyline
 90
        7
 70
     0
 43
0.0
 38
-0.0000001238093948
 10
-4.892399026796738
 20
261.6758155078225
 10
-5.953059198576283
 20
260.6151553360425
 10
-10.69942224940859
 20
260.6151553360425
 10
-11.76008242118814
 20
259.5544951642628
 10
-12.82074259296814
 20
260.6151553360425
 10
-17.53656994124367
 20
260.6151553360425
 10
-18.59723011302367
 20
261.6758155078225
  0
TEXT
  5
1FF
330
2
100
AcDbEntity
  8
KR-TEXTOS
  6
CONTINUOUS
100
AcDbText
 10
-5.939996688904102
 20
265.9470904090307
 30
-0.0000001440527426
 40
2.0
  1
600.35
 50
90.0
  7
DEYP
 72
     1
 11
-6.939996688904102
 21
271.232804694745
 31
-0.0000001440527426
100
AcDbText
 73
     2
  0
TEXT
  5
200
330
2
100
AcDbEntity
  8
KR-TEXTOS
  6
CONTINUOUS
100
AcDbText
 10
-15.58016815347264
 20
265.9470904090307
 30
-0.0000001440527426
 40
2.0
  1
600.35
 50
90.0
  7
DEYP
 72
     1
 11
-16.58016815347264
 21
271.232804694745
 31
-0.0000001440527426
100
AcDbText
 73
     2
  0
TEXT
  5
201
330
2
100
AcDbEntity
  8
KR-TEXTOS
  6
CONTINUOUS
100
AcDbText
 10
-10.76008242118859
 20
265.8518523137926
 30
-0.0000001440527426
 40
2.0
  1
15.930
 50
90.0
  7
DEYP
 72
     1
 11
-11.7600824211886
 21
271.232804694745
 31
-0.0000001440527426
100
AcDbText
 73
     2
  0
LWPOLYLINE
  5
202
330
2
100
AcDbEntity
  8
9
100
AcDbPolyline
 90
        7
 70
     0
 43
0.0
 38
-0.0000001238093948
 10
-4.892399026796738
 20
277.9220307405592
 10
-5.953059198576283
 20
278.9826909123391
 10
-10.69942224940859
 20
278.9826909123391
 10
-11.76008242118814
 20
280.0433510841189
 10
-12.82074259296814
 20
278.9826909123391
 10
-17.53656994124367
 20
278.9826909123391
 10
-18.59723011302367
 20
277.9220307405592
  0
TEXT
  5
203
330
2
100
AcDbEntity
  8
KR-TEXTOS
  6
CONTINUOUS
100
AcDbText
 10
223.7726057222061
 20
248.8870087279667
 30
-0.0000000267711881
 40
2.5
  1
$5
  7
DEYP
 72
     1
 11
226.1535581031584
 21
250.1370087279667
 31
-0.0000000267711881
100
AcDbText
 73
     2
  0
TEXT
  5
204
330
2
100
AcDbEntity
  8
KR-TEXTOS
  6
CONTINUOUS
100
AcDbText
 10
178.5384930257886
 20
323.5369421964658
 30
-0.0000000267711881
 40
2.5
  1
$4
  7
DEYP
 72
     1
 11
180.9789692162648
 21
324.7869421964658
 31
-0.0000000267711881
100
AcDbText
 73
     2
  0
LWPOLYLINE
  5
205
330
2
100
AcDbEntity
  8
0
100
AcDbPolyline
 90
        4
 70
     0
 43
0.0
 38
0.0000000501194821
 10
-93.66802461601764
 20
289.23605256115
 10
-98.66802461601764
 20
289.23605256115
 10
-98.6680246160181
 20
316.1154421695225
 10
-93.66802461601764
 20
316.1154421695225
  0
LINE
  5
206
330
2
100
AcDbEntity
  8
0
100
AcDbLine
 10
93.28889009452451
 20
225.1708510425964
 30
-0.0000000026302925
 11
110.7543738295421
 21
245.2033757975245
 31
-0.0000000102125752
  0
LINE
  5
207
330
2
100
AcDbEntity
  8
9
100
AcDbLine
 10
0.5
 20
150.9763296246124
 30
0.0000000643007539
 11
134.8966063099046
 21
150.9763296246124
 31
0.0000000520357423
  0
LINE
  5
208
330
2
100
AcDbEntity
  8
9
100
AcDbLine
 10
0.5
 20
100.1324158348602
 30
0.0000000643007539
 11
120.4345874799501
 21
100.1324158348602
 31
0.0000000533555437
  0
TEXT
  5
209
330
2
100
AcDbEntity
  8
KR-TEXTOS
  6
CONTINUOUS
100
AcDbText
 10
3.625902955318451
 20
151.9304769634786
 30
0.0000000643007539
 40
2.0
  1
HEM 900
  7
DEYP
100
AcDbText
  0
LINE
  5
20A
330
2
100
AcDbEntity
  8
7
100
AcDbLine
 10
0.5
 20
149.4763296246123
 30
0.0000000643007539
 11
0.5
 21
152.4763296246123
 31
0.0000000643007539
  0
LINE
  5
20B
330
2
100
AcDbEntity
  8
7
100
AcDbLine
 10
20.0
 20
149.4763296246123
 30
0.0
 11
20.0
 21
152.4763296246123
 31
0.0
  0
LINE
  5
20C
330
2
100
AcDbEntity
  8
7
100
AcDbLine
 10
20.0
 20
149.4763296246123
 30
0.0
 11
20.0
 21
152.4763296246123
 31
0.0
  0
ARC
  5
20D
330
2
100
AcDbEntity
  8
0
  6
TRAZO_Y_PUNTO
100
AcDbCircle
 10
1.725170508031169
 20
105.9641913087925
 30
-0.0000023735193839
 40
0.72
210
0.0000000011130604
220
-0.0000000222612086
230
0.9999999999999998
100
AcDbArc
 50
87.38596858982521
 51
92.86240522611153
  0
LINE
  5
20F
330
2
100
AcDbEntity
  8
0
100
AcDbLine
 10
20.0
 20
150.9763296246119
 30
0.0
 11
21.06066017177954
 21
149.9156694528321
 31
0.0
  0
LINE
  5
210
330
2
100
AcDbEntity
  8
9
100
AcDbLine
 10
20.00000000000045
 20
150.9763296246124
 30
0.0
 11
21.06066017178
 21
152.0369897963926
 31
0.0
  0
LINE
  5
211
330
2
100
AcDbEntity
  8
9
100
AcDbLine
 10
19.99999999999954
 20
150.9763296246124
 30
0.0
 11
18.93933982822
 21
152.0369897963926
 31
0.0
  0
LINE
  5
212
330
2
100
AcDbEntity
  8
0
100
AcDbLine
 10
20.0
 20
150.9763296246119
 30
0.0
 11
18.93933982822045
 21
149.9156694528321
 31
0.0
  0
LINE
  5
213
330
2
100
AcDbEntity
  8
7
100
AcDbLine
 10
0.5
 20
98.63241583486024
 30
0.0000000643007539
 11
0.5
 21
101.6324158348602
 31
0.0000000643007539
  0
LINE
  5
214
330
2
100
AcDbEntity
  8
0
100
AcDbLine
 10
0.5
 20
100.1324158348597
 30
0.0000000643007539
 11
1.560660171779545
 21
99.07175566308001
 31
0.0000000643007539
  0
LINE
  5
215
330
2
100
AcDbEntity
  8
9
100
AcDbLine
 10
0.5000000000004548
 20
100.1324158348602
 30
0.0000000643007539
 11
1.56066017178
 21
101.1930760066404
 31
0.0000000643007539
  0
LINE
  5
216
330
2
100
AcDbEntity
  8
9
100
AcDbLine
 10
0.5000000000004548
 20
150.9763296246124
 30
0.0000000643007539
 11
1.56066017178
 21
152.0369897963926
 31
0.0000000643007539
  0
LINE
  5
217
330
2
100
AcDbEntity
  8
0
100
AcDbLine
 10
0.5
 20
150.9763296246119
 30
0.0000000643007539
 11
1.560660171779545
 21
149.9156694528321
 31
0.0000000643007539
  0
TEXT
  5
218
330
2
100
AcDbEntity
  8
KR-TEXTOS
  6
CONTINUOUS
100
AcDbText
 10
6.299621587503679
 20
148.0221822857461
 30
0.0000000643007539
 40
2.0
  1
A52d
  7
DEYP
100
AcDbText
  0
TEXT
  5
219
330
2
100
AcDbEntity
  8
KR-TEXTOS
  6
CONTINUOUS
100
AcDbText
 10
7.944984311507141
 20
140.6234016947073
 30
0.0000000643007539
 40
2.0
  1
2.0
  7
DEYP
100
AcDbText
  0
INSERT
  5
21A
330
2
100
AcDbEntity
  8
KR-TEXTOS
  6
CONTINUOUS
100
AcDbBlockReference
  2
SIM10
 10
3.661622993936816
 20
215.4059121437956
 30
0.0
 41
2.0
 42
2.0
 43
2.0
  0
LINE
  5
21B
330
2
100
AcDbEntity
  8
9
100
AcDbLine
 10
-11.76008242118905
 20
220.9999999941669
 30
0.0
 11
-12.82074259296905
 21
222.0606601659464
 31
0.0
  0
LINE
  5
21C
330
2
100
AcDbEntity
  8
7
100
AcDbLine
 10
-10.26008242118905
 20
220.9999999941664
 30
0.0
 11
-13.26008242118905
 21
220.9999999941664
 31
0.0
  0
LINE
  5
21D
330
2
100
AcDbEntity
  8
7
100
AcDbLine
 10
-10.26008242118905
 20
220.9999999941664
 30
0.0
 11
-13.26008242118905
 21
220.9999999941664
 31
0.0
  0
LINE
  5
21E
330
2
100
AcDbEntity
  8
9
100
AcDbLine
 10
-11.76008242118905
 20
220.999999994166
 30
0.0
 11
-12.82074259296905
 21
219.9393398223865
 31
0.0
  0
LINE
  5
21F
330
2
100
AcDbEntity
  8
0
100
AcDbLine
 10
-11.7600824211886
 20
220.9999999941664
 30
0.0
 11
-10.69942224940859
 21
222.060660165946
 31
0.0
  0
LINE
  5
220
330
2
100
AcDbEntity
  8
0
100
AcDbLine
 10
-11.7600824211886
 20
220.9999999941664
 30
0.0
 11
-10.69942224940859
 21
219.9393398223865
 31
0.0
  0
TEXT
  5
221
330
2
100
AcDbEntity
  8
KR-TEXTOS
  6
CONTINUOUS
100
AcDbText
 10
-26.49035435977021
 20
214.7084538275357
 30
0.0
 40
2.0
  1
HEB 600 A52
  7
DEYP
100
AcDbText
  0
TEXT
  5
222
330
2
100
AcDbEntity
  8
KR-TEXTOS
  6
CONTINUOUS
100
AcDbText
 10
-26.49035435977021
 20
211.533378877697
 30
0.0
 40
2.0
  1
HEM 600 A52
  7
DEYP
100
AcDbText
  0
TEXT
  5
223
330
2
100
AcDbEntity
  8
KR-TEXTOS
  6
CONTINUOUS
100
AcDbText
 10
-26.49035435977021
 20
217.8835287773745
 30
0.0
 40
2.0
  1
HEA 600 A52
  7
DEYP
100
AcDbText
  0
LWPOLYLINE
  5
224
330
2
100
AcDbEntity
  8
0
 62
     5
100
AcDbPolyline
 90
        2
 70
     0
 43
1.0
 10
0.0
 20
221.4999999941665
 10
-30.0
 20
221.4999999941665
  0
TEXT
  5
225
330
2
100
AcDbEntity
  8
KR-TEXTOS
  6
CONTINUOUS
100
AcDbText
 10
-26.57505208222664
 20
222.8773521391453
 30
0.0
 40
2.0
  1
V. MIX. CONT.
  7
DEYP
100
AcDbText
  0
TEXT
  5
226
330
2
100
AcDbEntity
  8
KR-TEXTOS
  6
CONTINUOUS
100
AcDbText
 10
7.830062871535487
 20
210.2601110586799
 30
0.0
 40
2.0
  1
2.0
  7
DEYP
 72
     1
 11
10.21101525248786
 21
211.2601110586799
 31
0.0
100
AcDbText
 73
     2
  0
TEXT
  5
227
330
2
100
AcDbEntity
  8
KR-TEXTOS
  6
CONTINUOUS
100
AcDbText
 10
5.242664127354558
 20
214.4059121437956
 30
0.0
 40
2.0
  1
20.1400
  7
DEYP
 72
     1
 11
11.43314031783074
 21
215.4059121437956
 31
0.0
100
AcDbText
 73
     2
  0
CIRCLE
  5
228
330
2
100
AcDbEntity
  8
0
  6
RAYITAS
 62
     9
100
AcDbCircle
 10
90.61570971854781
 20
221.4999999941685
 30
0.0
 40
4.54103961029341
  0
LWPOLYLINE
  5
229
330
2
100
AcDbEntity
  8
0
100
AcDbPolyline
 90
        4
 70
     0
 43
0.0
 38
-0.0000000141812718
 10
190.1928877363779
 20
82.26689642599581
 10
185.192887736378
 20
82.26689642599581
 10
185.1928877363775
 20
93.40014137227058
 10
190.1928877363779
 20
93.40014137227058
  0
TEXT
  5
22A
330
2
100
AcDbEntity
  8
KR-TEXTOS
  6
CONTINUOUS
100
AcDbText
 10
114.8117061116795
 20
203.4774924756222
 30
0.0
 40
2.0
  1
CONTRAFLECHA DE EJECUCION = L/1000
  7
DEYP
 72
     1
 11
146.9069442069176
 21
204.4774924756223
 31
0.0
100
AcDbText
 73
     2
  0
TEXT
  5
22B
330
2
100
AcDbEntity
  8
KR-TEXTOS
  6
CONTINUOUS
100
AcDbText
 10
143.0133274441172
 20
207.5129277704652
 30
0.0
 40
2.0
  1
600.35
  7
DEYP
 72
     1
 11
148.2990417298315
 21
208.5129277704652
 31
0.0
100
AcDbText
 73
     2
  0
TEXT
  5
22C
330
2
100
AcDbEntity
  8
KR-TEXTOS
  6
CONTINUOUS
100
AcDbText
 10
143.0133274441172
 20
217.1530992350337
 30
0.0
 40
2.0
  1
600.35
  7
DEYP
 72
     1
 11
148.2990417298315
 21
218.1530992350337
 31
0.0
100
AcDbText
 73
     2
  0
TEXT
  5
22D
330
2
100
AcDbEntity
  8
KR-TEXTOS
  6
CONTINUOUS
100
AcDbText
 10
141.8580156262716
 20
212.3330135027492
 30
0.0
 40
2.0
  1
15.1400
  7
DEYP
 72
     1
 11
148.1913489596049
 21
213.3330135027492
 31
0.0
100
AcDbText
 73
     2
  0
INSERT
  5
22E
330
2
100
AcDbEntity
  8
KR-TEXTOS
  6
CONTINUOUS
100
AcDbBlockReference
  2
SIM10
 10
141.6072573803221
 20
218.1530992350337
 30
0.0
 41
2.0
 42
2.0
 43
2.0
  0
INSERT
  5
22F
330
2
100
AcDbEntity
  8
KR-TEXTOS
  6
CONTINUOUS
100
AcDbBlockReference
  2
SIM10
 10
140.6866899724459
 20
213.3330135027492
 30
0.0
 41
2.0
 42
2.0
 43
2.0
  0
INSERT
  5
230
330
2
100
AcDbEntity
  8
KR-TEXTOS
  6
CONTINUOUS
100
AcDbBlockReference
  2
SIM10
 10
141.6072573803221
 20
208.5129277704652
 30
0.0
 41
2.0
 42
2.0
 43
2.0
  0
LWPOLYLINE
  5
231
330
2
100
AcDbEntity
  8
0
100
AcDbPolyline
 90
        4
 70
     0
 43
0.0
 38
0.0000000501194821
 10
233.5846050896261
 20
156.067043189025
 10
228.5846050896261
 20
156.067043189025
 10
228.5846050896257
 20
167.2002881352998
 10
233.5846050896261
 20
167.2002881352998
  0
LINE
  5
232
330
2
100
AcDbEntity
  8
0
100
AcDbLine
 10
93.28889009452268
 20
311.4852727111883
 30
-0.0000000026302925
 11
110.7543738295403
 21
331.5177974661164
 31
-0.0000000102125752
  0
TEXT
  5
233
330
2
100
AcDbEntity
  8
KR-TEXTOS
  6
CONTINUOUS
100
AcDbText
 10
5.099806984497416
 20
300.7203338123874
 30
0.0
 40
2.0
  1
15.1400
  7
DEYP
 72
     1
 11
11.43314031783074
 21
301.7203338123874
 31
0.0
100
AcDbText
 73
     2
  0
INSERT
  5
234
330
2
100
AcDbEntity
  8
KR-TEXTOS
  6
CONTINUOUS
100
AcDbBlockReference
  2
SIM10
 10
3.661622993936816
 20
301.7203338123874
 30
0.0
 41
2.0
 42
2.0
 43
2.0
  0
TEXT
  5
235
330
2
100
AcDbEntity
  8
KR-TEXTOS
  6
CONTINUOUS
100
AcDbText
 10
7.830062871535487
 20
296.5745327272718
 30
0.0
 40
2.0
  1
2.0
  7
DEYP
 72
     1
 11
10.21101525248786
 21
297.5745327272718
 31
0.0
100
AcDbText
 73
     2
  0
TEXT
  5
236
330
2
100
AcDbEntity
  8
KR-TEXTOS
  6
CONTINUOUS
100
AcDbText
 10
-26.57505208222664
 20
309.1917738077372
 30
0.0
 40
2.0
  1
V. CONT.
  7
DEYP
100
AcDbText
  0
TEXT
  5
237
330
2
100
AcDbEntity
  8
KR-TEXTOS
  6
CONTINUOUS
100
AcDbText
 10
-26.49035435977021
 20
304.1979504459664
 30
0.0
 40
2.0
  1
HEA 600 A52
  7
DEYP
100
AcDbText
  0
LWPOLYLINE
  5
238
330
2
100
AcDbEntity
  8
0
 62
     5
100
AcDbPolyline
 90
        2
 70
     0
 43
1.0
 10
0.0
 20
307.8144216627583
 10
-30.0
 20
307.8144216627583
  0
CIRCLE
  5
239
330
2
100
AcDbEntity
  8
0
  6
RAYITAS
 62
     9
100
AcDbCircle
 10
90.61570971854598
 20
307.8144216627604
 30
0.0
 40
4.54103961029341
  0
LINE
  5
23A
330
2
100
AcDbEntity
  8
0
 62
     7
100
AcDbLine
 10
184.3087332938284
 20
245.2033757975245
 30
-0.0000000102125752
 11
110.7543738295421
 21
245.2033757975245
 31
-0.0000000102125752
  0
TEXT
  5
23B
330
2
100
AcDbEntity
  8
KR-TEXTOS
  6
CONTINUOUS
100
AcDbText
 10
111.9427493512066
 20
246.1575231363908
 30
-0.0000000102125752
 40
2.0
  1
PERFIL DE FORJADO MIXT. CONT. EN VOLADIZO
  7
DEYP
100
AcDbText
  0
TEXT
  5
23C
330
2
100
AcDbEntity
  8
KR-TEXTOS
  6
CONTINUOUS
100
AcDbText
 10
130.0498013497747
 20
227.4413093438695
 30
0.0
 40
2.0
  1
V. MIX. SIN INT. A52d
  7
DEYP
 72
     1
 11
146.9069442069176
 21
228.4413093438695
 31
0.0
100
AcDbText
 73
     2
  0
TEXT
  5
23D
330
2
100
AcDbEntity
  8
KR-TEXTOS
  6
CONTINUOUS
100
AcDbText
 10
111.9427493512066
 20
242.2492284586583
 30
-0.0000000102125752
 40
2.0
  1
IPE 500 A52
  7
DEYP
100
AcDbText
  0
TEXT
  5
23E
330
2
100
AcDbEntity
  8
KR-TEXTOS
  6
CONTINUOUS
100
AcDbText
 10
114.8117061116795
 20
289.7919141442141
 30
0.0
 40
2.0
  1
CONTRAFLECHA DE EJECUCION = L/1000
  7
DEYP
 72
     1
 11
146.9069442069176
 21
290.7919141442141
 31
0.0
100
AcDbText
 73
     2
  0
TEXT
  5
23F
330
2
100
AcDbEntity
  8
KR-TEXTOS
  6
CONTINUOUS
100
AcDbText
 10
142.0588777832301
 20
298.6474351713411
 30
0.0
 40
2.0
  1
10.1400
  7
DEYP
 72
     1
 11
148.3922111165634
 21
299.6474351713411
 31
0.0
100
AcDbText
 73
     2
  0
TEXT
  5
240
330
2
100
AcDbEntity
  8
KR-TEXTOS
  6
CONTINUOUS
100
AcDbText
 10
143.0133274441172
 20
293.8273494390571
 30
0.0
 40
2.0
  1
600.20
  7
DEYP
 72
     1
 11
148.2990417298315
 21
294.8273494390571
 31
0.0
100
AcDbText
 73
     2
  0
INSERT
  5
241
330
2
100
AcDbEntity
  8
KR-TEXTOS
  6
CONTINUOUS
100
AcDbBlockReference
  2
SIM10
 10
140.705727856473
 20
299.6474351713411
 30
0.0
 41
2.0
 42
2.0
 43
2.0
  0
INSERT
  5
242
330
2
100
AcDbEntity
  8
KR-TEXTOS
  6
CONTINUOUS
100
AcDbBlockReference
  2
SIM10
 10
141.6072573803221
 20
294.8273494390571
 30
0.0
 41
2.0
 42
2.0
 43
2.0
  0
LWPOLYLINE
  5
243
330
2
100
AcDbEntity
  8
0
100
AcDbPolyline
 90
        4
 70
     0
 43
0.0
 38
0.0000000501194821
 10
235.770081725941
 20
244.0384226560465
 10
230.770081725941
 20
244.0384226560465
 10
230.7700817259406
 20
255.1716676023213
 10
235.770081725941
 20
255.1716676023213
  0
TEXT
  5
244
330
2
100
AcDbEntity
  8
KR-TEXTOS
  6
CONTINUOUS
100
AcDbText
 10
143.0133274441172
 20
303.4675209036256
 30
0.0
 40
2.0
  1
600.20
  7
DEYP
 72
     1
 11
148.2990417298315
 21
304.4675209036256
 31
0.0
100
AcDbText
 73
     2
  0
TEXT
  5
245
330
2
100
AcDbEntity
  8
KR-TEXTOS
  6
CONTINUOUS
100
AcDbText
 10
130.0498013497747
 20
313.7557310124614
 30
0.0
 40
2.0
  1
V. MIX. SIN INT. A52d
  7
DEYP
 72
     1
 11
146.9069442069176
 21
314.7557310124614
 31
0.0
100
AcDbText
 73
     2
  0
TEXT
  5
246
330
2
100
AcDbEntity
  8
KR-TEXTOS
  6
CONTINUOUS
100
AcDbText
 10
111.9427493512048
 20
332.4719448049827
 30
-0.0000000102125752
 40
2.0
  1
PERFIL DE FORJADO CONT.
  7
DEYP
100
AcDbText
  0
LINE
  5
247
330
2
100
AcDbEntity
  8
0
 62
     7
100
AcDbLine
 10
152.8332547067075
 20
331.5177974661164
 30
-0.0000000102125752
 11
110.7543738295403
 21
331.5177974661164
 31
-0.0000000102125752
  0
INSERT
  5
248
330
2
100
AcDbEntity
  8
KR-TEXTOS
  6
CONTINUOUS
100
AcDbBlockReference
  2
SIM10
 10
141.6072573803221
 20
304.4675209036256
 30
0.0
 41
2.0
 42
2.0
 43
2.0
  0
TEXT
  5
249
330
2
100
AcDbEntity
  8
KR-TEXTOS
  6
CONTINUOUS
100
AcDbText
 10
111.9427493512048
 20
328.5636501272501
 30
-0.0000000102125752
 40
2.0
  1
IPE 450 A52
  7
DEYP
100
AcDbText
  0
LWPOLYLINE
  5
24A
330
2
100
AcDbEntity
  8
0
100
AcDbPolyline
 90
        4
 70
     0
 43
0.0
 38
0.0000000501194821
 10
172.628420504503
 20
311.3472473922795
 10
177.628420504503
 20
311.3472473922795
 10
177.6284205045035
 20
336.8542880107209
 10
172.628420504503
 20
336.8542880107209
  0
LINE
  5
24B
330
2
100
AcDbEntity
  8
7
100
AcDbLine
 10
0.5
 20
226.9413093438695
 30
0.0000002464694888
 11
0.5
 21
229.9413093438695
 31
0.0000002464694888
  0
LINE
  5
24C
330
2
100
AcDbEntity
  8
9
100
AcDbLine
 10
0.5
 20
213.3330135027492
 30
0.0000002464694888
 11
138.4755913534013
 21
213.3330135027492
 31
0.0000002331218926
  0
LINE
  5
24D
330
2
100
AcDbEntity
  8
7
100
AcDbLine
 10
20.0
 20
211.8330135027497
 30
0.0000001821687349
 11
20.0
 21
214.8330135027497
 31
0.0000001821687349
  0
LINE
  5
24E
330
2
100
AcDbEntity
  8
7
100
AcDbLine
 10
20.0
 20
211.8330135027497
 30
0.0000001821687349
 11
20.0
 21
214.8330135027497
 31
0.0000001821687349
  0
LINE
  5
24F
330
2
100
AcDbEntity
  8
0
100
AcDbLine
 10
20.0
 20
213.3330135027492
 30
0.0000001821687349
 11
21.06066017177954
 21
212.2723533309692
 31
0.0000001821687349
  0
LINE
  5
250
330
2
100
AcDbEntity
  8
0
100
AcDbLine
 10
20.0
 20
213.3330135027492
 30
0.0000001821687349
 11
18.93933982822
 21
212.2723533309692
 31
0.0000001821687349
  0
LINE
  5
251
330
2
100
AcDbEntity
  8
9
100
AcDbLine
 10
20.00000000000045
 20
213.3330135027497
 30
0.0000001821687349
 11
21.06066017178
 21
214.3936736745297
 31
0.0000001821687349
  0
LINE
  5
252
330
2
100
AcDbEntity
  8
9
100
AcDbLine
 10
19.99999999999954
 20
213.3330135027497
 30
0.0000001821687349
 11
18.93933982822
 21
214.3936736745297
 31
0.0000001821687349
  0
LINE
  5
253
330
2
100
AcDbEntity
  8
7
100
AcDbLine
 10
0.5
 20
211.8330135027493
 30
0.0000002464694888
 11
0.5
 21
214.8330135027492
 31
0.0000002464694888
  0
LINE
  5
254
330
2
100
AcDbEntity
  8
0
100
AcDbLine
 10
0.5
 20
213.3330135027488
 30
0.0000002464694888
 11
1.560660171779545
 21
212.2723533309688
 31
0.0000002464694888
  0
LINE
  5
255
330
2
100
AcDbEntity
  8
9
100
AcDbLine
 10
0.5000000000004548
 20
213.3330135027492
 30
0.0000002464694888
 11
1.56066017178
 21
214.3936736745292
 31
0.0000002464694888
  0
LINE
  5
256
330
2
100
AcDbEntity
  8
9
100
AcDbLine
 10
0.5
 20
299.6474351713411
 30
0.0000002464694888
 11
139.2307004954968
 21
299.6474351713411
 31
0.0000002331218926
  0
LINE
  5
257
330
2
100
AcDbEntity
  8
7
100
AcDbLine
 10
20.0
 20
298.1474351713416
 30
0.0000001821687349
 11
20.0
 21
301.1474351713416
 31
0.0000001821687349
  0
LINE
  5
258
330
2
100
AcDbEntity
  8
7
100
AcDbLine
 10
20.0
 20
298.1474351713416
 30
0.0000001821687349
 11
20.0
 21
301.1474351713416
 31
0.0000001821687349
  0
LINE
  5
259
330
2
100
AcDbEntity
  8
9
100
AcDbLine
 10
20.00000000000045
 20
299.6474351713416
 30
0.0000001821687349
 11
21.06066017178
 21
300.7080953431216
 31
0.0000001821687349
  0
LINE
  5
25A
330
2
100
AcDbEntity
  8
0
100
AcDbLine
 10
20.0
 20
299.6474351713411
 30
0.0000001821687349
 11
21.06066017177954
 21
298.5867749995611
 31
0.0000001821687349
  0
LINE
  5
25B
330
2
100
AcDbEntity
  8
0
100
AcDbLine
 10
20.0
 20
299.6474351713411
 30
0.0000001821687349
 11
18.93933982822
 21
298.5867749995611
 31
0.0000001821687349
  0
LINE
  5
25C
330
2
100
AcDbEntity
  8
9
100
AcDbLine
 10
19.99999999999954
 20
299.6474351713416
 30
0.0000001821687349
 11
18.93933982822
 21
300.7080953431216
 31
0.0000001821687349
  0
LINE
  5
25D
330
2
100
AcDbEntity
  8
9
100
AcDbLine
 10
0.5
 20
314.7557310124614
 30
0.0000002464694888
 11
128.3911501809047
 21
314.7557310124614
 31
0.0000002342044772
  0
LINE
  5
25E
330
2
100
AcDbEntity
  8
9
100
AcDbLine
 10
0.5
 20
228.4413093438695
 30
0.0000002464694888
 11
128.3911501809047
 21
228.4413093438695
 31
0.0000002342044772
  0
LINE
  5
25F
330
2
100
AcDbEntity
  8
9
100
AcDbLine
 10
0.5000000000004548
 20
228.4413093438695
 30
0.0000002464694888
 11
1.56066017178
 21
229.5019695156495
 31
0.0000002464694888
  0
LINE
  5
260
330
2
100
AcDbEntity
  8
0
100
AcDbLine
 10
0.5
 20
228.441309343869
 30
0.0000002464694888
 11
1.560660171779545
 21
227.380649172089
 31
0.0000002464694888
  0
LINE
  5
261
330
2
100
AcDbEntity
  8
9
100
AcDbLine
 10
0.5000000000004548
 20
299.6474351713411
 30
0.0000002464694888
 11
1.56066017178
 21
300.7080953431211
 31
0.0000002464694888
  0
LINE
  5
262
330
2
100
AcDbEntity
  8
0
100
AcDbLine
 10
0.5
 20
299.6474351713406
 30
0.0000002464694888
 11
1.560660171779545
 21
298.5867749995607
 31
0.0000002464694888
  0
LINE
  5
263
330
2
100
AcDbEntity
  8
7
100
AcDbLine
 10
0.5
 20
298.1474351713411
 30
0.0000002464694888
 11
0.5
 21
301.1474351713411
 31
0.0000002464694888
  0
LINE
  5
264
330
2
100
AcDbEntity
  8
9
100
AcDbLine
 10
0.5000000000004548
 20
314.7557310124614
 30
0.0000002464694888
 11
1.56066017178
 21
315.8163911842414
 31
0.0000002464694888
  0
LINE
  5
265
330
2
100
AcDbEntity
  8
0
100
AcDbLine
 10
0.5
 20
314.7557310124609
 30
0.0000002464694888
 11
1.560660171779545
 21
313.6950708406809
 31
0.0000002464694888
  0
LINE
  5
266
330
2
100
AcDbEntity
  8
7
100
AcDbLine
 10
0.5
 20
313.2557310124614
 30
0.0000002464694888
 11
0.5
 21
316.2557310124614
 31
0.0000002464694888
  0
LINE
  5
267
330
2
100
AcDbEntity
  8
9
100
AcDbLine
 10
282.0596097217403
 20
-0.000000000024329
 30
-0.0000000259519691
 11
282.0596097217407
 21
89.53687921256436
 31
-0.0000001673925475
  0
LWPOLYLINE
  5
268
330
2
100
AcDbEntity
  8
0
 62
     5
100
AcDbPolyline
 90
        2
 70
     0
 43
1.0
 38
-0.000000070133344
 10
293.8138884138357
 20
307.8144216627672
 10
293.8138884138357
 20
-0.0000000000161435
  0
LINE
  5
269
330
2
100
AcDbEntity
  8
0
100
AcDbLine
 10
287.0596097217412
 20
-49.7934637425335
 30
-0.0000001695788186
 11
282.0596097217412
 21
-49.7934637425335
 31
-0.0000001695788186
  0
TEXT
  5
26A
330
2
100
AcDbEntity
  8
KR-TEXTOS
100
AcDbText
 10
286.8652442491775
 20
-42.27392389623742
 30
-0.0000001280805562
 40
2.0
  1
ALTILLOS Y CRUJÍA LATERAL SEGÚN VERSIÓN
  7
ROMANS
 11
286.8652442491775
 21
-41.27392389623742
 31
-0.0000001280805562
100
AcDbText
 73
     2
  0
TEXT
  5
26B
330
2
100
AcDbEntity
  8
KR-TEXTOS
100
AcDbText
 10
286.8652442491775
 20
-45.82090935195947
 30
-0.0000001280805562
 40
2.0
  1
ANTERIOR DE PLANOS DE ARQUITECTURA
  7
ROMANS
 11
286.8652442491775
 21
-44.82090935195947
 31
-0.0000001280805562
100
AcDbText
 73
     2
  0
TEXT
  5
26C
330
2
100
AcDbEntity
  8
KR-TEXTOS
  6
CONTINUOUS
100
AcDbText
 10
286.8652442491775
 20
-36.03582865814223
 30
-0.0000001280805562
 40
2.0
  1
NOTA:
  7
DEYP
100
AcDbText
  0
LINE
  5
26D
330
2
100
AcDbEntity
  8
0
 62
     7
100
AcDbLine
 10
287.2044713049781
 20
-36.98997599700851
 30
-0.0000001280805562
 11
295.5903173668684
 21
-36.98997599700851
 31
-0.0000001280805562
  0
LINE
  5
26E
330
2
100
AcDbEntity
  8
7
100
AcDbLine
 10
283.5596097217403
 20
-0.000000000024329
 30
-0.0000001065610753
 11
280.5596097217403
 21
-0.000000000024329
 31
-0.0000001065610753
  0
LINE
  5
26F
330
2
100
AcDbEntity
  8
7
100
AcDbLine
 10
283.5596097217403
 20
-0.000000000024329
 30
-0.0000001065610753
 11
280.5596097217403
 21
-0.000000000024329
 31
-0.0000001065610753
  0
LINE
  5
270
330
2
100
AcDbEntity
  8
0
100
AcDbLine
 10
282.0596097217407
 20
-0.000000000024329
 30
-0.0000001065610753
 11
283.1202698935203
 21
1.060660171755444
 31
-0.0000001065610753
  0
LINE
  5
271
330
2
100
AcDbEntity
  8
9
100
AcDbLine
 10
282.0596097217403
 20
-0.0000000000238742
 30
-0.0000001065610753
 11
280.9989495499598
 21
1.060660171755671
 31
-0.0000001065610753
  0
LINE
  5
272
330
2
100
AcDbEntity
  8
0
100
AcDbLine
 10
399.8138884138356
 20
-11.75086762144837
 30
-0.0000001695788186
 11
399.8138884138356
 21
-16.75086762144838
 31
-0.0000001695788186
  0
LWPOLYLINE
  5
273
330
2
100
AcDbEntity
  8
0
100
AcDbPolyline
 90
        2
 70
     1
 43
0.5
 38
-0.0000001574507535
 10
408.6186078942264
 20
51.01501723236856
 42
1.0
 10
409.1186078942264
 20
51.01501723236856
 42
1.0
  0
LINE
  5
274
330
2
100
AcDbEntity
  8
0
100
AcDbLine
 10
293.3138884138356
 20
64.67312221734914
 30
-0.000000070133344
 11
292.2532282420556
 21
63.61246204556914
 31
-0.000000070133344
  0
LINE
  5
275
330
2
100
AcDbEntity
  8
9
100
AcDbLine
 10
293.3138884138352
 20
64.6731222173496
 30
-0.000000070133344
 11
292.2532282420556
 21
65.7337823891296
 31
-0.000000070133344
  0
LINE
  5
276
330
2
100
AcDbEntity
  8
7
100
AcDbLine
 10
293.3138884138356
 20
63.1731222173496
 30
-0.000000070133344
 11
293.3138884138356
 21
66.1731222173496
 31
-0.000000070133344
  0
LINE
  5
277
330
2
100
AcDbEntity
  8
9
100
AcDbLine
 10
293.3138884138352
 20
55.03295075278106
 30
-0.000000070133344
 11
292.2532282420556
 21
56.09361092456106
 31
-0.000000070133344
  0
LINE
  5
278
330
2
100
AcDbEntity
  8
0
100
AcDbLine
 10
293.3138884138356
 20
55.0329507527806
 30
-0.000000070133344
 11
292.2532282420556
 21
53.97229058100061
 31
-0.000000070133344
  0
LINE
  5
279
330
2
100
AcDbEntity
  8
7
100
AcDbLine
 10
293.3138884138356
 20
53.53295075278106
 30
-0.000000070133344
 11
293.3138884138356
 21
56.53295075278106
 31
-0.000000070133344
  0
CIRCLE
  5
27A
330
2
100
AcDbEntity
  8
0
  6
RAYITAS
 62
     9
100
AcDbCircle
 10
293.8080846847424
 20
65.53581056477629
 30
0.0
 40
6.054719480391213
  0
LINE
  5
27B
330
2
100
AcDbEntity
  8
9
100
AcDbLine
 10
282.0596097217407
 20
286.0124740286403
 30
-0.0000001508041138
 11
282.0596097217407
 21
307.3144216627643
 31
0.0
  0
LINE
  5
27C
330
2
100
AcDbEntity
  8
0
100
AcDbLine
 10
289.8500194479165
 20
310.4258096435271
 30
-0.0000001147374277
 11
275.8790027432419
 21
322.7005708390052
 31
0.000000078556043
  0
LWPOLYLINE
  5
27D
330
2
100
AcDbEntity
  8
0
  6
TRAZOS
 62
     5
100
AcDbPolyline
 90
        2
 70
     0
 43
1.0
 38
-0.0000001821687349
 10
397.8138884138352
 20
144.0350202749182
 10
293.8138884138357
 20
144.0350202749159
  0
LINE
  5
27E
330
2
100
AcDbEntity
  8
0
100
AcDbLine
 10
290.088743185348
 20
146.6320057906432
 30
-0.0000001709344107
 11
273.693526106927
 21
162.1561773308064
 31
-0.0000001280805562
  0
LINE
  5
27F
330
2
100
AcDbEntity
  8
0
 62
     7
100
AcDbLine
 10
304.1284897314421
 20
95.00954871664612
 30
-0.0000001821687601
 11
329.7746494049474
 21
95.00954871664612
 31
-0.0000001821687601
  0
TEXT
  5
280
330
2
100
AcDbEntity
  8
KR-TEXTOS
  6
CONTINUOUS
100
AcDbText
 10
305.5947289003374
 20
92.05540137777985
 30
-0.0000001821687601
 40
2.0
  1
HEA 800 A52d
  7
DEYP
100
AcDbText
  0
TEXT
  5
281
330
2
100
AcDbEntity
  8
KR-TEXTOS
  6
CONTINUOUS
100
AcDbText
 10
305.5947289003374
 20
95.9636960555124
 30
-0.0000001821687601
 40
2.0
  1
V. TRANSV. MIX.
  7
DEYP
100
AcDbText
  0
TEXT
  5
282
330
2
100
AcDbEntity
  8
KR-TEXTOS
  6
CONTINUOUS
100
AcDbText
 10
256.014289772786
 20
113.8838259757277
 30
-0.0000001832368747
 40
2.0
  1
HEB 300 A52d
 50
90.0
  7
DEYP
 72
     1
 11
255.014289772786
 21
125.3600164519182
 31
-0.0000001832368747
100
AcDbText
 73
     2
  0
LWPOLYLINE
  5
283
330
2
100
AcDbEntity
  8
9
100
AcDbPolyline
 90
        7
 70
     0
 43
0.0
 38
-0.0000001837850525
 10
288.9272931161321
 20
111.1940813498595
 10
287.8666329443526
 20
110.1334211780797
 10
283.1202698935203
 20
110.1334211780797
 10
282.0596097217407
 20
109.0727610062997
 10
280.9989495499607
 20
110.1334211780797
 10
276.2831222016852
 20
110.1334211780797
 10
275.2224620299052
 20
111.1940813498595
  0
LINE
  5
284
330
2
100
AcDbEntity
  8
9
100
AcDbLine
 10
282.0596097217407
 20
98.82499875661507
 30
-0.0000001755888
 11
282.0596097217407
 21
109.0727610062997
 31
-0.0000001837850525
  0
LWPOLYLINE
  5
285
330
2
100
AcDbEntity
  8
9
100
AcDbPolyline
 90
        7
 70
     0
 43
0.0
 38
-0.0000001837850525
 10
288.9272931161321
 20
127.4402965825963
 10
287.8666329443526
 20
128.5009567543761
 10
283.1202698935203
 20
128.5009567543761
 10
282.0596097217407
 20
129.5616169261559
 10
280.9989495499607
 20
128.5009567543761
 10
276.2831222016852
 20
128.5009567543761
 10
275.2224620299052
 20
127.4402965825963
  0
LINE
  5
286
330
2
100
AcDbEntity
  8
7
100
AcDbLine
 10
283.5596097217403
 20
144.5350202748927
 30
-0.0000001778436387
 11
280.5596097217403
 21
144.5350202748927
 31
-0.0000001778436387
  0
LINE
  5
287
330
2
100
AcDbEntity
  8
7
100
AcDbLine
 10
283.5596097217403
 20
144.5350202748927
 30
-0.0000001778436387
 11
280.5596097217403
 21
144.5350202748927
 31
-0.0000001778436387
  0
LINE
  5
288
330
2
100
AcDbEntity
  8
9
100
AcDbLine
 10
282.0596097217403
 20
143.5350202748923
 30
-0.0000001778436387
 11
280.9989495499598
 21
142.4743601031127
 31
-0.0000001778436387
  0
LINE
  5
289
330
2
100
AcDbEntity
  8
0
100
AcDbLine
 10
282.0596097217407
 20
143.5350202748927
 30
-0.0000001778436387
 11
283.1202698935203
 21
142.4743601031132
 31
-0.0000001778436387
  0
LINE
  5
28A
330
2
100
AcDbEntity
  8
7
100
AcDbLine
 10
283.5596097217403
 20
143.5350202748927
 30
-0.0000001778436387
 11
280.5596097217403
 21
143.5350202748927
 31
-0.0000001778436387
  0
LINE
  5
28B
330
2
100
AcDbEntity
  8
7
100
AcDbLine
 10
283.5596097217403
 20
143.5350202748927
 30
-0.0000001778436387
 11
280.5596097217403
 21
143.5350202748927
 31
-0.0000001778436387
  0
LINE
  5
28C
330
2
100
AcDbEntity
  8
9
100
AcDbLine
 10
282.0596097217403
 20
144.5350202748932
 30
-0.0000001778436387
 11
280.9989495499598
 21
145.5956804466727
 31
-0.0000001778436387
  0
LINE
  5
28D
330
2
100
AcDbEntity
  8
0
100
AcDbLine
 10
282.0596097217407
 20
144.5350202748927
 30
-0.0000001778436387
 11
283.1202698935203
 21
145.5956804466727
 31
-0.0000001778436387
  0
LINE
  5
28E
330
2
100
AcDbEntity
  8
7
100
AcDbLine
 10
273.8138884138352
 20
142.5350202749104
 30
-0.0000001821687349
 11
273.8138884138352
 21
145.5350202749104
 31
-0.0000001821687349
  0
TEXT
  5
28F
330
2
100
AcDbEntity
  8
KR-TEXTOS
  6
CONTINUOUS
100
AcDbText
 10
267.6759859977882
 20
118.9839181210932
 30
-0.0000001837569496
 40
2.0
  1
HEB 340 A52d
 50
45.48206980240077
  7
DEYP
 72
     1
 11
275.0092843030138
 21
127.8679309425822
 31
-0.0000001837569496
100
AcDbText
 73
     2
  0
CIRCLE
  5
290
330
2
100
AcDbEntity
  8
0
  6
RAYITAS
 62
     9
100
AcDbCircle
 10
293.8138884138357
 20
144.0350202749096
 30
-0.0000001821687349
 40
4.54103961029341
  0
LWPOLYLINE
  5
291
330
2
100
AcDbEntity
  8
9
100
AcDbPolyline
 90
        7
 70
     0
 43
0.0
 38
-0.0000001837850525
 10
288.9272931161321
 20
178.929445074501
 10
287.8666329443526
 20
177.8687849027212
 10
283.1202698935203
 20
177.8687849027212
 10
282.0596097217407
 20
176.8081247309412
 10
280.9989495499607
 20
177.8687849027212
 10
276.2831222016852
 20
177.8687849027212
 10
275.2224620299052
 20
178.929445074501
  0
LWPOLYLINE
  5
292
330
2
100
AcDbEntity
  8
9
100
AcDbPolyline
 90
        7
 70
     0
 43
0.0
 38
-0.0000001837850525
 10
288.9272931161321
 20
195.1756603072378
 10
287.8666329443526
 20
196.2363204790176
 10
283.1202698935203
 20
196.2363204790176
 10
282.0596097217407
 20
197.2969806507974
 10
280.9989495499607
 20
196.2363204790176
 10
276.2831222016852
 20
196.2363204790176
 10
275.2224620299052
 20
195.1756603072378
  0
LWPOLYLINE
  5
293
330
2
100
AcDbEntity
  8
0
  6
TRAZOS
 62
     5
100
AcDbPolyline
 90
        2
 70
     0
 43
1.0
 38
-0.000000147401837
 10
323.8138884138356
 20
221.4999999941667
 10
323.8138884138356
 20
182.7675101345382
  0
LWPOLYLINE
  5
294
330
2
100
AcDbEntity
  8
0
100
AcDbPolyline
 90
        2
 70
     1
 43
0.5
 38
-0.0000001574507535
 10
408.6186078942264
 20
163.7637608099401
 42
1.0
 10
409.1186078942264
 20
163.7637608099401
 42
1.0
  0
TEXT
  5
295
330
2
100
AcDbEntity
  8
KR-TEXTOS
  6
CONTINUOUS
100
AcDbText
 10
267.1803530490359
 20
111.3652108853159
 30
-0.0000000267711881
 40
2.5
  1
$14
  7
DEYP
 72
     1
 11
270.8113054299883
 21
112.6152108853159
 31
-0.0000000267711881
100
AcDbText
 73
     2
  0
TEXT
  5
296
330
2
100
AcDbEntity
  8
KR-TEXTOS
  6
CONTINUOUS
100
AcDbText
 10
267.593775277135
 20
185.387204493021
 30
-0.0000000267711881
 40
2.5
  1
$13
  7
DEYP
 72
     1
 11
271.1652038485635
 21
186.637204493021
 31
-0.0000000267711881
100
AcDbText
 73
     2
  0
LWPOLYLINE
  5
297
330
2
100
AcDbEntity
  8
9
100
AcDbPolyline
 90
        7
 70
     0
 43
0.0
 38
-0.0000001837850525
 10
288.9272931161321
 20
283.8911536850807
 10
287.8666329443526
 20
284.9518138568605
 10
283.1202698935203
 20
284.9518138568605
 10
282.0596097217407
 20
286.0124740286403
 10
280.9989495499607
 20
284.9518138568605
 10
276.2831222016852
 20
284.9518138568605
 10
275.2224620299052
 20
283.8911536850807
  0
LWPOLYLINE
  5
298
330
2
100
AcDbEntity
  8
9
100
AcDbPolyline
 90
        7
 70
     0
 43
0.0
 38
-0.0000001837850525
 10
288.9272931161321
 20
267.6449384523439
 10
287.8666329443526
 20
266.5842782805641
 10
283.1202698935203
 20
266.5842782805641
 10
282.0596097217407
 20
265.5236181087841
 10
280.9989495499607
 20
266.5842782805641
 10
276.2831222016852
 20
266.5842782805641
 10
275.2224620299052
 20
267.6449384523439
  0
CIRCLE
  5
299
330
2
100
AcDbEntity
  8
0
  6
RAYITAS
 62
     9
100
AcDbCircle
 10
293.8138884138357
 20
308.2102321650181
 30
-0.0000001695788186
 40
4.54103961029341
  0
CIRCLE
  5
29A
330
2
100
AcDbEntity
  8
0
  6
RAYITAS
 62
     9
100
AcDbCircle
 10
397.8138884138347
 20
307.4620979893488
 30
-0.0000001695788186
 40
6.054719480391213
  0
LWPOLYLINE
  5
29B
330
2
100
AcDbEntity
  8
0
100
AcDbPolyline
 90
        2
 70
     1
 43
0.5
 38
-0.0000001655361303
 10
408.6186078942264
 20
283.8560117877245
 42
1.0
 10
409.1186078942264
 20
283.8560117877245
 42
1.0
  0
LINE
  5
29C
330
2
100
AcDbEntity
  8
0
100
AcDbLine
 10
403.868607894226
 20
307.4620979893488
 30
-0.0000001695788186
 11
408.8686078942259
 21
307.4620979893488
 31
-0.0000001695788186
  0
LINE
  5
29D
330
2
100
AcDbEntity
  8
0
 62
     5
100
AcDbLine
 10
397.8138884138347
 20
311.4620979893488
 30
-0.0000001614934419
 11
397.8138884138347
 21
303.4620979893488
 31
-0.0000001614934419
  0
LINE
  5
29E
330
2
100
AcDbEntity
  8
0
100
AcDbLine
 10
399.8138884138352
 20
323.4523418950234
 30
-0.0000001614934419
 11
399.8138884138347
 21
319.7023418950234
 31
-0.0000001614934419
  0
LINE
  5
29F
330
2
100
AcDbEntity
  8
0
100
AcDbLine
 10
397.8138884138347
 20
323.4523418950234
 30
-0.0000001614934419
 11
397.8138884138347
 21
319.7023418950234
 31
-0.0000001614934419
  0
LINE
  5
2A0
330
2
100
AcDbEntity
  8
0
 62
     7
100
AcDbLine
 10
411.7486113228201
 20
307.4620979893488
 30
-0.0000001280805562
 11
421.0814465614712
 21
307.4620979893488
 31
-0.0000001280805562
  0
TEXT
  5
2A1
330
2
100
AcDbEntity
  8
KR-TEXTOS
  6
CONTINUOUS
100
AcDbText
 10
415.4309591746851
 20
308.4162453282151
 30
-0.0000001280805562
 40
2.0
  1
P.C.
  7
DEYP
100
AcDbText
  0
LWPOLYLINE
  5
2A2
330
2
100
AcDbEntity
  8
0
  6
TRAZOS
 62
     5
100
AcDbPolyline
 90
        2
 70
     0
 43
1.0
 38
-0.0000000729735753
 10
293.8138884138357
 20
260.2499255860916
 10
397.8138884138352
 20
260.2499255861002
  0
LWPOLYLINE
  5
2A3
330
2
100
AcDbEntity
  8
0
  6
TRAZOS
 62
     5
100
AcDbPolyline
 90
        2
 70
     0
 43
1.0
 10
397.8138884138347
 20
221.4999999941753
 10
293.8138884138357
 20
221.499999994173
  0
TEXT
  5
2A4
330
2
100
AcDbEntity
  8
KR-TEXTOS
  6
CONTINUOUS
100
AcDbText
 10
275.3888037043498
 20
151.9304769634786
 30
0.0000000643007539
 40
2.0
  1
HEM 900
  7
DEYP
100
AcDbText
  0
LINE
  5
2A5
330
2
100
AcDbEntity
  8
7
100
AcDbLine
 10
273.8138884138352
 20
149.4763296246123
 30
0.0
 11
273.8138884138352
 21
152.4763296246123
 31
0.0
  0
LINE
  5
2A6
330
2
100
AcDbEntity
  8
7
100
AcDbLine
 10
273.8138884138352
 20
149.4763296246123
 30
0.0
 11
273.8138884138352
 21
152.4763296246123
 31
0.0
  0
LINE
  5
2A7
330
2
100
AcDbEntity
  8
7
100
AcDbLine
 10
293.3138884138356
 20
149.4763296246123
 30
-0.0000000058325901
 11
293.3138884138356
 21
152.4763296246123
 31
-0.0000000058325901
  0
LINE
  5
2A8
330
2
100
AcDbEntity
  8
0
100
AcDbLine
 10
293.3138884138356
 20
100.1324158348597
 30
-0.0000000058325901
 11
292.2532282420556
 21
99.07175566308001
 31
-0.0000000058325901
  0
LINE
  5
2A9
330
2
100
AcDbEntity
  8
9
100
AcDbLine
 10
293.3138884138352
 20
100.1324158348602
 30
-0.0000000058325901
 11
292.2532282420556
 21
101.1930760066404
 31
-0.0000000058325901
  0
LINE
  5
2AA
330
2
100
AcDbEntity
  8
7
100
AcDbLine
 10
293.3138884138356
 20
98.63241583486024
 30
-0.0000000058325901
 11
293.3138884138356
 21
101.6324158348602
 31
-0.0000000058325901
  0
ARC
  5
2AB
330
2
100
AcDbEntity
  8
0
  6
TRAZO_Y_PUNTO
100
AcDbCircle
 10
292.088717905804
 20
105.9641913087923
 30
-0.000002700551997
 40
0.72
210
-0.0000000011130604
220
-0.0000000222612086
230
0.9999999999999998
100
AcDbArc
 50
87.13759477388848
 51
92.61403141017479
  0
LINE
  5
2AC
330
2
100
AcDbEntity
  8
0
100
AcDbLine
 10
273.8138884138352
 20
150.9763296246119
 30
0.0
 11
274.8745485856147
 21
149.9156694528321
 31
0.0
  0
LINE
  5
2AD
330
2
100
AcDbEntity
  8
9
100
AcDbLine
 10
273.8138884138356
 20
150.9763296246124
 30
0.0
 11
274.8745485856152
 21
152.0369897963926
 31
0.0
  0
LINE
  5
2AE
330
2
100
AcDbEntity
  8
9
100
AcDbLine
 10
273.8138884138347
 20
150.9763296246124
 30
0.0
 11
272.7532282420552
 21
152.0369897963926
 31
0.0
  0
LINE
  5
2AF
330
2
100
AcDbEntity
  8
0
100
AcDbLine
 10
273.8138884138352
 20
150.9763296246119
 30
0.0
 11
272.7532282420556
 21
149.9156694528321
 31
0.0
  0
LINE
  5
2B0
330
2
100
AcDbEntity
  8
9
100
AcDbLine
 10
293.3138884138352
 20
150.9763296246124
 30
-0.0000000058325901
 11
292.2532282420556
 21
152.0369897963926
 31
-0.0000000058325901
  0
LINE
  5
2B1
330
2
100
AcDbEntity
  8
0
100
AcDbLine
 10
293.3138884138356
 20
150.9763296246119
 30
-0.0000000058325901
 11
292.2532282420556
 21
149.9156694528321
 31
-0.0000000058325901
  0
TEXT
  5
2B2
330
2
100
AcDbEntity
  8
KR-TEXTOS
  6
CONTINUOUS
100
AcDbText
 10
280.289811144105
 20
148.0221822857461
 30
0.0000000643007539
 40
2.0
  1
A52d
  7
DEYP
100
AcDbText
  0
TEXT
  5
2B3
330
2
100
AcDbEntity
  8
KR-TEXTOS
  6
CONTINUOUS
100
AcDbText
 10
275.3422634545477
 20
140.6234016947073
 30
0.0000000643007539
 40
2.0
  1
2.0
  7
DEYP
100
AcDbText
  0
LINE
  5
2B4
330
2
100
AcDbEntity
  8
7
100
AcDbLine
 10
273.8138884138361
 20
211.8330135027493
 30
0.0000001120353909
 11
273.8138884138361
 21
214.8330135027492
 31
0.0000001120353909
  0
LINE
  5
2B5
330
2
100
AcDbEntity
  8
7
100
AcDbLine
 10
273.8138884138361
 20
211.8330135027493
 30
0.0000001120353909
 11
273.8138884138361
 21
214.8330135027492
 31
0.0000001120353909
  0
LINE
  5
2B6
330
2
100
AcDbEntity
  8
0
100
AcDbLine
 10
273.8138884138361
 20
213.3330135027488
 30
0.0000001120353909
 11
272.7532282420566
 21
212.2723533309688
 31
0.0000001120353909
  0
LINE
  5
2B7
330
2
100
AcDbEntity
  8
0
100
AcDbLine
 10
273.8138884138361
 20
213.3330135027488
 30
0.0000001120353909
 11
274.8745485856161
 21
212.2723533309688
 31
0.0000001120353909
  0
LINE
  5
2B8
330
2
100
AcDbEntity
  8
9
100
AcDbLine
 10
273.8138884138356
 20
213.3330135027492
 30
0.0000001120353909
 11
272.7532282420561
 21
214.3936736745292
 31
0.0000001120353909
  0
LINE
  5
2B9
330
2
100
AcDbEntity
  8
9
100
AcDbLine
 10
273.8138884138365
 20
213.3330135027492
 30
0.0000001120353909
 11
274.8745485856161
 21
214.3936736745292
 31
0.0000001120353909
  0
LWPOLYLINE
  5
2BA
330
2
100
AcDbEntity
  8
0
  6
TRAZOS
 62
     5
100
AcDbPolyline
 90
        2
 70
     0
 43
1.0
 10
397.8138884138347
 20
307.8144216627672
 10
293.8138884138357
 20
307.8144216627649
  0
LINE
  5
2BB
330
2
100
AcDbEntity
  8
0
100
AcDbLine
 10
282.0596097217412
 20
307.3144216627647
 30
0.0
 11
283.1202698935212
 21
306.2537614909849
 31
0.0
  0
LINE
  5
2BC
330
2
100
AcDbEntity
  8
7
100
AcDbLine
 10
283.5596097217408
 20
307.3144216627647
 30
0.0
 11
280.5596097217407
 21
307.3144216627647
 31
0.0
  0
LINE
  5
2BD
330
2
100
AcDbEntity
  8
7
100
AcDbLine
 10
283.5596097217408
 20
307.3144216627647
 30
0.0
 11
280.5596097217407
 21
307.3144216627647
 31
0.0
  0
LINE
  5
2BE
330
2
100
AcDbEntity
  8
9
100
AcDbLine
 10
282.0596097217407
 20
307.3144216627643
 30
0.0
 11
280.9989495499607
 21
306.2537614909847
 31
0.0
  0
LINE
  5
2BF
330
2
100
AcDbEntity
  8
0
100
AcDbLine
 10
273.8138884138361
 20
299.6474351713406
 30
0.0000001120353909
 11
272.7532282420566
 21
298.5867749995607
 31
0.0000001120353909
  0
LINE
  5
2C0
330
2
100
AcDbEntity
  8
9
100
AcDbLine
 10
273.8138884138356
 20
299.6474351713411
 30
0.0000001120353909
 11
272.7532282420561
 21
300.7080953431211
 31
0.0000001120353909
  0
LINE
  5
2C1
330
2
100
AcDbEntity
  8
7
100
AcDbLine
 10
273.8138884138361
 20
298.1474351713411
 30
0.0000001120353909
 11
273.8138884138361
 21
301.1474351713411
 31
0.0000001120353909
  0
LINE
  5
2C2
330
2
100
AcDbEntity
  8
7
100
AcDbLine
 10
273.8138884138361
 20
298.1474351713411
 30
0.0000001120353909
 11
273.8138884138361
 21
301.1474351713411
 31
0.0000001120353909
  0
LINE
  5
2C3
330
2
100
AcDbEntity
  8
9
100
AcDbLine
 10
273.8138884138365
 20
299.6474351713411
 30
0.0000001120353909
 11
274.8745485856161
 21
300.7080953431211
 31
0.0000001120353909
  0
LINE
  5
2C4
330
2
100
AcDbEntity
  8
0
100
AcDbLine
 10
273.8138884138361
 20
299.6474351713406
 30
0.0000001120353909
 11
274.8745485856161
 21
298.5867749995607
 31
0.0000001120353909
  0
LINE
  5
2C5
330
2
100
AcDbEntity
  8
7
100
AcDbLine
 10
293.3138884138356
 20
226.9413093438695
 30
0.0000001763361448
 11
293.3138884138356
 21
229.9413093438695
 31
0.0000001763361448
  0
LINE
  5
2C6
330
2
100
AcDbEntity
  8
7
100
AcDbLine
 10
293.3138884138356
 20
211.8330135027493
 30
0.0000001763361448
 11
293.3138884138356
 21
214.8330135027492
 31
0.0000001763361448
  0
LINE
  5
2C7
330
2
100
AcDbEntity
  8
0
100
AcDbLine
 10
293.3138884138356
 20
213.3330135027488
 30
0.0000001763361448
 11
292.2532282420556
 21
212.2723533309688
 31
0.0000001763361448
  0
LINE
  5
2C8
330
2
100
AcDbEntity
  8
9
100
AcDbLine
 10
293.3138884138352
 20
213.3330135027492
 30
0.0000001763361448
 11
292.2532282420556
 21
214.3936736745292
 31
0.0000001763361448
  0
LINE
  5
2C9
330
2
100
AcDbEntity
  8
9
100
AcDbLine
 10
293.3138884138352
 20
228.4413093438695
 30
0.0000001763361448
 11
292.2532282420556
 21
229.5019695156495
 31
0.0000001763361448
  0
LINE
  5
2CA
330
2
100
AcDbEntity
  8
0
100
AcDbLine
 10
293.3138884138356
 20
228.441309343869
 30
0.0000001763361448
 11
292.2532282420556
 21
227.380649172089
 31
0.0000001763361448
  0
LINE
  5
2CB
330
2
100
AcDbEntity
  8
7
100
AcDbLine
 10
293.3138884138356
 20
298.1474351713411
 30
0.0000001763361448
 11
293.3138884138356
 21
301.1474351713411
 31
0.0000001763361448
  0
LINE
  5
2CC
330
2
100
AcDbEntity
  8
9
100
AcDbLine
 10
293.3138884138352
 20
299.6474351713411
 30
0.0000001763361448
 11
292.2532282420556
 21
300.7080953431211
 31
0.0000001763361448
  0
LINE
  5
2CD
330
2
100
AcDbEntity
  8
0
100
AcDbLine
 10
293.3138884138356
 20
299.6474351713406
 30
0.0000001763361448
 11
292.2532282420556
 21
298.5867749995607
 31
0.0000001763361448
  0
LINE
  5
2CE
330
2
100
AcDbEntity
  8
9
100
AcDbLine
 10
293.3138884138352
 20
314.7557310124614
 30
0.0000001763361448
 11
292.2532282420556
 21
315.8163911842414
 31
0.0000001763361448
  0
LINE
  5
2CF
330
2
100
AcDbEntity
  8
0
100
AcDbLine
 10
293.3138884138356
 20
314.7557310124609
 30
0.0000001763361448
 11
292.2532282420556
 21
313.6950708406809
 31
0.0000001763361448
  0
LINE
  5
2D0
330
2
100
AcDbEntity
  8
7
100
AcDbLine
 10
293.3138884138356
 20
313.2557310124614
 30
0.0000001763361448
 11
293.3138884138356
 21
316.2557310124614
 31
0.0000001763361448
  0
ENDSEC
  0
SECTION
  2
OBJECTS
  0
DICTIONARY
  5
7
330
0
100
AcDbDictionary
  3
ACAD_GROUP
350
1F
  3
ACAD_LAYOUT
350
B
  3
ACAD_MLINESTYLE
350
20
  3
ACAD_PLOTSETTINGS
350
21
  3
ACAD_PLOTSTYLENAME
350
6
  3
ACDBVARIABLEDICTIONARY
350
2D3
  3
ACDBHEADERROUNDTRIPXREC
350
2E4
  0
DICTIONARY
  5
305
330
2
100
AcDbDictionary
280
     1
  3
ACAD_LAYOUTSELFREF
360
306
  0
DICTIONARY
  5
307
330
C
100
AcDbDictionary
280
     1
  3
ACAD_LAYOUTSELFREF
360
308
  0
DICTIONARY
  5
1F
102
{ACAD_REACTORS
330
7
102
}
330
7
100
AcDbDictionary
  0
DICTIONARY
  5
B
102
{ACAD_REACTORS
330
7
102
}
330
7
100
AcDbDictionary
  0
DICTIONARY
  5
20
102
{ACAD_REACTORS
330
7
102
}
330
7
100
AcDbDictionary
  3
STANDARD
350
29
  0
DICTIONARY
  5
21
102
{ACAD_REACTORS
330
7
102
}
330
7
100
AcDbDictionary
  0
ACDBDICTIONARYWDFLT
  5
6
102
{ACAD_REACTORS
330
7
102
}
330
7
100
AcDbDictionary
281
     1
  3
Normal
350
5
100
AcDbDictionaryWithDefault
340
5
  0
DICTIONARY
  5
2D3
102
{ACAD_REACTORS
330
7
102
}
330
7
100
AcDbDictionary
  3
DIMASSOC
350
2D5
  3
HIDETEXT
350
2D4
  0
DICTIONARY
  5
2E4
102
{ACAD_REACTORS
330
7
102
}
330
7
100
AcDbDictionary
  3
TSTACKALIGN
350
2E5
  3
TSTACKSIZE
350
2E6
  3
HYPERLINKBASE
350
2E7
  3
STYLESHEET
350
2E8
  3
LAYOUTDICT
350
2E9
  3
PLOTSETDICT
350
2EA
  3
PLOTSTYLNAMDICT
350
2EB
  3
LWETCUNION
350
2EC
  3
INSUNITS
350
2ED
  3
CEPSNTYPE
350
2EE
  3
FINGERPRINTGUID
350
2EF
  3
VERSIONGUID
350
2F0
  3
PSVPSCALE
350
2F1
  3
DIMSTYLEDATA
350
2F2
  3
PUCSORTHOREF
350
2F3
  3
PUCSORTHOVIEW
350
2F4
  3
PUCSBASE
350
2F5
  3
PUCSORGTOP
350
2F6
  3
PUCSORGBOTTOM
350
2F7
  3
PUCSORGLEFT
350
2F8
  3
PUCSORGRIGHT
350
2F9
  3
PUCSORGFRONT
350
2FA
  3
PUCSORGBACK
350
2FB
  3
UCSORTHOREF
350
2FC
  3
UCSORTHOVIEW
350
2FD
  3
UCSBASE
350
2FE
  3
UCSORGTOP
350
2FF
  3
UCSORGBOTTOM
350
300
  3
UCSORGLEFT
350
301
  3
UCSORGRIGHT
350
302
  3
UCSORGFRONT
350
303
  3
UCSORGBACK
350
304
  0
XRECORD
  5
306
102
{ACAD_REACTORS
330
305
102
}
330
305
100
AcDbXrecord
340
2
  0
XRECORD
  5
308
102
{ACAD_REACTORS
330
307
102
}
330
307
100
AcDbXrecord
340
C
  0
MLINESTYLE
  5
29
102
{ACAD_REACTORS
330
20
102
}
330
20
100
AcDbMlineStyle
  2
STANDARD
 70
     0
  3

 62
   256
 51
90.0
 52
90.0
 71
     2
 49
0.5
 62
   256
  6
BYLAYER
 49
-0.5
 62
   256
  6
BYLAYER
  0
ACDBPLACEHOLDER
  5
5
102
{ACAD_REACTORS
330
6
102
}
330
6
100
AcDbPlaceHolder
280
     0
  0
DICTIONARYVAR
  5
2D5
102
{ACAD_REACTORS
330
2D3
102
}
330
2D3
100
DictionaryVariables
280
     0
  1
1
  0
DICTIONARYVAR
  5
2D4
102
{ACAD_REACTORS
330
2D3
102
}
330
2D3
100
DictionaryVariables
280
     0
  1
1
  0
XRECORD
  5
2E5
102
{ACAD_REACTORS
330
2E4
102
}
330
2E4
100
AcDbXrecord
 90
        1
  0
XRECORD
  5
2E6
102
{ACAD_REACTORS
330
2E4
102
}
330
2E4
100
AcDbXrecord
 90
       70
  0
XRECORD
  5
2E7
102
{ACAD_REACTORS
330
2E4
102
}
330
2E4
100
AcDbXrecord
  1

  0
XRECORD
  5
2E8
102
{ACAD_REACTORS
330
2E4
102
}
330
2E4
100
AcDbXrecord
  1

  0
XRECORD
  5
2E9
102
{ACAD_REACTORS
330
2E4
102
}
330
2E4
100
AcDbXrecord
340
B
  0
XRECORD
  5
2EA
102
{ACAD_REACTORS
330
2E4
102
}
330
2E4
100
AcDbXrecord
340
21
  0
XRECORD
  5
2EB
102
{ACAD_REACTORS
330
2E4
102
}
330
2E4
100
AcDbXrecord
340
6
  0
XRECORD
  5
2EC
102
{ACAD_REACTORS
330
2E4
102
}
330
2E4
100
AcDbXrecord
 90
    10781
  0
XRECORD
  5
2ED
102
{ACAD_REACTORS
330
2E4
102
}
330
2E4
100
AcDbXrecord
 90
        0
  0
XRECORD
  5
2EE
102
{ACAD_REACTORS
330
2E4
102
}
330
2E4
100
AcDbXrecord
 90
        0
  0
XRECORD
  5
2EF
102
{ACAD_REACTORS
330
2E4
102
}
330
2E4
100
AcDbXrecord
  1
{F5BB8477-4703-11D7-B009-93383F344F2B}
  0
XRECORD
  5
2F0
102
{ACAD_REACTORS
330
2E4
102
}
330
2E4
100
AcDbXrecord
  1
{F5BB849B-4703-11D7-B009-93383F344F2B}
  0
XRECORD
  5
2F1
102
{ACAD_REACTORS
330
2E4
102
}
330
2E4
100
AcDbXrecord
 40
0.0
  0
XRECORD
  5
2F2
102
{ACAD_REACTORS
330
2E4
102
}
330
2E4
100
AcDbXrecord
1000
DSTYLE
1002
{
1070
   279
 70
     2
1070
   341
340
22
1070
   342
340
22
1070
   343
340
22
1070
   344
340
22
1002
}
  0
XRECORD
  5
2F3
102
{ACAD_REACTORS
330
2E4
102
}
330
2E4
100
AcDbXrecord
340
0
  0
XRECORD
  5
2F4
102
{ACAD_REACTORS
330
2E4
102
}
330
2E4
100
AcDbXrecord
 70
     0
  0
XRECORD
  5
2F5
102
{ACAD_REACTORS
330
2E4
102
}
330
2E4
100
AcDbXrecord
340
0
  0
XRECORD
  5
2F6
102
{ACAD_REACTORS
330
2E4
102
}
330
2E4
100
AcDbXrecord
 10
0.0
 20
0.0
 30
0.0
  0
XRECORD
  5
2F7
102
{ACAD_REACTORS
330
2E4
102
}
330
2E4
100
AcDbXrecord
 10
0.0
 20
0.0
 30
0.0
  0
XRECORD
  5
2F8
102
{ACAD_REACTORS
330
2E4
102
}
330
2E4
100
AcDbXrecord
 10
0.0
 20
0.0
 30
0.0
  0
XRECORD
  5
2F9
102
{ACAD_REACTORS
330
2E4
102
}
330
2E4
100
AcDbXrecord
 10
0.0
 20
0.0
 30
0.0
  0
XRECORD
  5
2FA
102
{ACAD_REACTORS
330
2E4
102
}
330
2E4
100
AcDbXrecord
 10
0.0
 20
0.0
 30
0.0
  0
XRECORD
  5
2FB
102
{ACAD_REACTORS
330
2E4
102
}
330
2E4
100
AcDbXrecord
 10
0.0
 20
0.0
 30
0.0
  0
XRECORD
  5
2FC
102
{ACAD_REACTORS
330
2E4
102
}
330
2E4
100
AcDbXrecord
340
0
  0
XRECORD
  5
2FD
102
{ACAD_REACTORS
330
2E4
102
}
330
2E4
100
AcDbXrecord
 70
     0
  0
XRECORD
  5
2FE
102
{ACAD_REACTORS
330
2E4
102
}
330
2E4
100
AcDbXrecord
340
0
  0
XRECORD
  5
2FF
102
{ACAD_REACTORS
330
2E4
102
}
330
2E4
100
AcDbXrecord
 10
0.0
 20
0.0
 30
0.0
  0
XRECORD
  5
300
102
{ACAD_REACTORS
330
2E4
102
}
330
2E4
100
AcDbXrecord
 10
0.0
 20
0.0
 30
0.0
  0
XRECORD
  5
301
102
{ACAD_REACTORS
330
2E4
102
}
330
2E4
100
AcDbXrecord
 10
0.0
 20
0.0
 30
0.0
  0
XRECORD
  5
302
102
{ACAD_REACTORS
330
2E4
102
}
330
2E4
100
AcDbXrecord
 10
0.0
 20
0.0
 30
0.0
  0
XRECORD
  5
303
102
{ACAD_REACTORS
330
2E4
102
}
330
2E4
100
AcDbXrecord
 10
0.0
 20
0.0
 30
0.0
  0
XRECORD
  5
304
102
{ACAD_REACTORS
330
2E4
102
}
330
2E4
100
AcDbXrecord
 10
0.0
 20
0.0
 30
0.0
  0
ENDSEC
  0
EOF
