  0
SECTION
  2
HEADER
  9
$ACADVER
  1
AC1014
  9
$ACADMAINTVER
 70
     9
  9
$DWGCODEPAGE
  3
ANSI_1252
  9
$INSBASE
 10
32.77502294688929
 20
-1332.489054598384
 30
0.0000004144569519
  9
$EXTMIN
 10
-113.2353553257222
 20
-85.59841121940811
 30
-0.0000005146240881
  9
$EXTMAX
 10
488.9898100801137
 20
371.2072758865659
 30
0.0000003573556603
  9
$LIMMIN
 10
0.0
 20
0.0
  9
$LIMMAX
 10
420.0
 20
297.0
  9
$ORTHOMODE
 70
     0
  9
$REGENMODE
 70
     1
  9
$FILLMODE
 70
     1
  9
$QTEXTMODE
 70
     0
  9
$MIRRTEXT
 70
     0
  9
$DRAGMODE
 70
     2
  9
$LTSCALE
 40
10.0
  9
$OSMODE
 70
    37
  9
$ATTMODE
 70
     1
  9
$TEXTSIZE
 40
2.0
  9
$TRACEWID
 40
1.0
  9
$TEXTSTYLE
  7
DEYP
  9
$CLAYER
  8
0
  9
$CELTYPE
  6
BYLAYER
  9
$CECOLOR
 62
   256
  9
$CELTSCALE
 40
1.0
  9
$DELOBJ
 70
     1
  9
$DISPSILH
 70
     0
  9
$DIMSCALE
 40
1.0
  9
$DIMASZ
 40
0.12
  9
$DIMEXO
 40
0.25
  9
$DIMDLI
 40
0.75
  9
$DIMRND
 40
0.05
  9
$DIMDLE
 40
0.0
  9
$DIMEXE
 40
0.12
  9
$DIMTP
 40
0.0
  9
$DIMTM
 40
0.0
  9
$DIMTXT
 40
0.18
  9
$DIMCEN
 40
0.3
  9
$DIMTSZ
 40
0.0
  9
$DIMTOL
 70
     0
  9
$DIMLIM
 70
     0
  9
$DIMTIH
 70
     0
  9
$DIMTOH
 70
     1
  9
$DIMSE1
 70
     0
  9
$DIMSE2
 70
     0
  9
$DIMTAD
 70
     2
  9
$DIMZIN
 70
     1
  9
$DIMBLK
  1
TICK
  9
$DIMASO
 70
     1
  9
$DIMSHO
 70
     1
  9
$DIMPOST
  1

  9
$DIMAPOST
  1

  9
$DIMALT
 70
     0
  9
$DIMALTD
 70
     2
  9
$DIMALTF
 40
25.4
  9
$DIMLFAC
 40
1.0
  9
$DIMTOFL
 70
     0
  9
$DIMTVP
 40
0.0
  9
$DIMTIX
 70
     1
  9
$DIMSOXD
 70
     0
  9
$DIMSAH
 70
     1
  9
$DIMBLK1
  1
TICK
  9
$DIMBLK2
  1
TICK
  9
$DIMSTYLE
  2
COTA1
  9
$DIMCLRD
 70
     7
  9
$DIMCLRE
 70
     7
  9
$DIMCLRT
 70
     2
  9
$DIMTFAC
 40
1.0
  9
$DIMGAP
 40
0.09
  9
$DIMJUST
 70
     4
  9
$DIMSD1
 70
     0
  9
$DIMSD2
 70
     0
  9
$DIMTOLJ
 70
     1
  9
$DIMTZIN
 70
     1
  9
$DIMALTZ
 70
     1
  9
$DIMALTTZ
 70
     1
  9
$DIMFIT
 70
     5
  9
$DIMUPT
 70
     0
  9
$DIMUNIT
 70
     2
  9
$DIMDEC
 70
     2
  9
$DIMTDEC
 70
     2
  9
$DIMALTU
 70
     2
  9
$DIMALTTD
 70
     2
  9
$DIMTXSTY
  7
STANDARD
  9
$DIMAUNIT
 70
     0
  9
$LUNITS
 70
     2
  9
$LUPREC
 70
     4
  9
$SKETCHINC
 40
1.0
  9
$FILLETRAD
 40
0.0
  9
$AUNITS
 70
     0
  9
$AUPREC
 70
     0
  9
$MENU
  1
.
  9
$ELEVATION
 40
0.0
  9
$PELEVATION
 40
0.0
  9
$THICKNESS
 40
0.0
  9
$LIMCHECK
 70
     0
  9
$BLIPMODE
 70
     0
  9
$CHAMFERA
 40
10.0
  9
$CHAMFERB
 40
10.0
  9
$CHAMFERC
 40
20.0
  9
$CHAMFERD
 40
0.0
  9
$SKPOLY
 70
     0
  9
$TDCREATE
 40
2452237.366010300
  9
$TDUPDATE
 40
2452695.533560497
  9
$TDINDWG
 40
0.8588350463
  9
$TDUSRTIMER
 40
0.8588350463
  9
$USRTIMER
 70
     1
  9
$ANGBASE
 50
0.0
  9
$ANGDIR
 70
     0
  9
$PDMODE
 70
     0
  9
$PDSIZE
 40
0.0
  9
$PLINEWID
 40
1.0
  9
$COORDS
 70
     1
  9
$SPLFRAME
 70
     0
  9
$SPLINETYPE
 70
     6
  9
$SPLINESEGS
 70
     8
  9
$ATTDIA
 70
     0
  9
$ATTREQ
 70
     1
  9
$HANDLING
 70
  4097
  9
$HANDSEED
  5
2AD
  9
$SURFTAB1
 70
     6
  9
$SURFTAB2
 70
     6
  9
$SURFTYPE
 70
     6
  9
$SURFU
 70
     6
  9
$SURFV
 70
     6
  9
$UCSNAME
  2

  9
$UCSORG
 10
0.0
 20
0.0
 30
0.0
  9
$UCSXDIR
 10
1.0
 20
0.0
 30
0.0
  9
$UCSYDIR
 10
0.0
 20
1.0
 30
0.0
  9
$PUCSNAME
  2

  9
$PUCSORG
 10
0.0
 20
0.0
 30
0.0
  9
$PUCSXDIR
 10
1.0
 20
0.0
 30
0.0
  9
$PUCSYDIR
 10
0.0
 20
1.0
 30
0.0
  9
$USERI1
 70
     0
  9
$USERI2
 70
     0
  9
$USERI3
 70
     0
  9
$USERI4
 70
     0
  9
$USERI5
 70
     0
  9
$USERR1
 40
1.0
  9
$USERR2
 40
1.0
  9
$USERR3
 40
0.0
  9
$USERR4
 40
0.0
  9
$USERR5
 40
0.0
  9
$WORLDVIEW
 70
     1
  9
$SHADEDGE
 70
     3
  9
$SHADEDIF
 70
    70
  9
$TILEMODE
 70
     1
  9
$MAXACTVP
 70
    48
  9
$PINSBASE
 10
0.0
 20
0.0
 30
0.0
  9
$PLIMCHECK
 70
     0
  9
$PEXTMIN
 10
1.000000000000000E+20
 20
1.000000000000000E+20
 30
1.000000000000000E+20
  9
$PEXTMAX
 10
-1.000000000000000E+20
 20
-1.000000000000000E+20
 30
-1.000000000000000E+20
  9
$PLIMMIN
 10
0.0
 20
0.0
  9
$PLIMMAX
 10
420.0
 20
297.0
  9
$UNITMODE
 70
     0
  9
$VISRETAIN
 70
     1
  9
$PLINEGEN
 70
     0
  9
$PSLTSCALE
 70
     1
  9
$TREEDEPTH
 70
  3020
  9
$PICKSTYLE
 70
     1
  9
$CMLSTYLE
  2
STANDARD
  9
$CMLJUST
 70
     0
  9
$CMLSCALE
 40
20.0
  9
$PROXYGRAPHICS
 70
     1
  9
$MEASUREMENT
 70
     0
  0
ENDSEC
  0
SECTION
  2
CLASSES
  0
CLASS
  1
LWPOLYLINE
  2
AcDbPolyline
  3
AutoCAD 2000
 90
        0
280
     0
281
     1
  0
CLASS
  1
HATCH
  2
AcDbHatch
  3
AutoCAD 2000
 90
        0
280
     0
281
     1
  0
CLASS
  1
XRECORD
  2
AcDbXrecord
  3
AutoCAD 2000
 90
        0
280
     0
281
     0
  0
CLASS
  1
DICTIONARYVAR
  2
AcDbDictionaryVar
  3
AutoCAD 2000
 90
        0
280
     0
281
     0
  0
CLASS
  1
ACDBDICTIONARYWDFLT
  2
AcDbDictionaryWithDefault
  3
AutoCAD 2000
 90
        0
280
     0
281
     0
  0
CLASS
  1
ACDBPLACEHOLDER
  2
AcDbPlaceHolder
  3
AutoCAD 2000
 90
        0
280
     0
281
     0
  0
CLASS
  1
LAYOUT
  2
AcDbLayout
  3
AutoCAD 2000
 90
        0
280
     0
281
     0
  0
CLASS
  1
LONG_TRANSACTION
  2
AcDbLongTransaction
  3
AutoCAD 2000
 90
        0
280
     0
281
     0
  0
CLASS
  1
LWPOLYLINE
  2
AcDbPolyline
  3
AutoCAD 2000
 90
        0
280
     0
281
     1
  0
CLASS
  1
HATCH
  2
AcDbHatch
  3
AutoCAD 2000
 90
        0
280
     0
281
     1
  0
CLASS
  1
XRECORD
  2
AcDbXrecord
  3
AutoCAD 2000
 90
        0
280
     0
281
     0
  0
ENDSEC
  0
SECTION
  2
TABLES
  0
TABLE
  2
VPORT
  5
19
330
0
100
AcDbSymbolTable
 70
     2
  0
VPORT
  5
287
330
19
100
AcDbSymbolTableRecord
100
AcDbViewportTableRecord
  2
*ACTIVE
 70
     0
 10
0.0
 20
0.0
 11
1.0
 21
1.0
 12
187.8772273771958
 22
150.5977710234291
 13
0.0
 23
0.0
 14
10.0
 24
10.0
 15
10.0
 25
10.0
 16
0.0
 26
0.0
 36
1.0
 17
0.0
 27
0.0
 37
0.0
 40
477.9294031172621
 41
1.676282051282051
 42
50.0
 43
0.0
 44
0.0
 50
0.0
 51
0.0
 71
     0
 72
 20000
 73
     1
 74
     1
 75
     0
 76
     0
 77
     0
 78
     0
  0
ENDTAB
  0
TABLE
  2
LTYPE
  5
14
330
0
100
AcDbSymbolTable
 70
     5
  0
LTYPE
  5
15
330
14
100
AcDbSymbolTableRecord
100
AcDbLinetypeTableRecord
  2
BYBLOCK
 70
     0
  3

 72
    65
 73
     0
 40
0.0
  0
LTYPE
  5
16
330
14
100
AcDbSymbolTableRecord
100
AcDbLinetypeTableRecord
  2
BYLAYER
 70
     0
  3

 72
    65
 73
     0
 40
0.0
  0
LTYPE
  5
8
330
14
100
AcDbSymbolTableRecord
100
AcDbLinetypeTableRecord
  2
CONTINUOUS
 70
     0
  3
Solid line
 72
    65
 73
     0
 40
0.0
  0
LTYPE
  5
70
330
14
100
AcDbSymbolTableRecord
100
AcDbLinetypeTableRecord
  2
CONTINUA
 70
     0
  3
Linea ininterrumpida
 72
    65
 73
     0
 40
0.0
  0
LTYPE
  5
6C
330
14
100
AcDbSymbolTableRecord
100
AcDbLinetypeTableRecord
  2
CENTRO
 70
     0
  3
____ _ ____ _ ____ _ ____ _ ____ _ ____ _ __
 72
    65
 73
     4
 40
2.0
 49
1.25
 74
     0
 49
-0.25
 74
     0
 49
0.25
 74
     0
 49
-0.25
 74
     0
  0
LTYPE
  5
75
330
14
100
AcDbSymbolTableRecord
100
AcDbLinetypeTableRecord
  2
RAYITAS
 70
     0
  3
_ _ _ _ _ _ _ _ _ _ _ _ _ _ _ _ _ _ _ _ _ _
 72
    65
 73
     2
 40
0.375
 49
0.25
 74
     0
 49
-0.125
 74
     0
  0
LTYPE
  5
3B
330
14
100
AcDbSymbolTableRecord
100
AcDbLinetypeTableRecord
  2
TRAZOS
 70
     0
  3
__ __ __ __ __ __ __ __ __ __ __ __ __ __ __ __
 72
    65
 73
     2
 40
0.75
 49
0.5
 74
     0
 49
-0.25
 74
     0
  0
ENDTAB
  0
TABLE
  2
LAYER
  5
10
330
0
100
AcDbSymbolTable
 70
     6
  0
LAYER
  5
4
330
10
100
AcDbSymbolTableRecord
100
AcDbLayerTableRecord
  2
0
 70
     0
 62
     7
  6
CONTINUOUS
  0
LAYER
  5
24
330
10
100
AcDbSymbolTableRecord
100
AcDbLayerTableRecord
  2
05C
 70
     0
 62
     5
  6
CONTINUOUS
  0
LAYER
  5
6B
330
10
100
AcDbSymbolTableRecord
100
AcDbLayerTableRecord
  2
7
 70
     0
 62
     7
  6
CENTRO
  0
LAYER
  5
6F
330
10
100
AcDbSymbolTableRecord
100
AcDbLayerTableRecord
  2
9
 70
     0
 62
     7
  6
CONTINUA
  0
LAYER
  5
109
330
10
100
AcDbSymbolTableRecord
100
AcDbLayerTableRecord
  2
KR-GRUESA
 70
     0
 62
     6
  6
CONTINUOUS
  0
LAYER
  5
34
330
10
100
AcDbSymbolTableRecord
100
AcDbLayerTableRecord
  2
KR-TEXTOS
 70
     0
 62
     2
  6
CONTINUOUS
  0
ENDTAB
  0
TABLE
  2
STYLE
  5
11
330
0
100
AcDbSymbolTable
 70
     4
  0
STYLE
  5
12
330
11
100
AcDbSymbolTableRecord
100
AcDbTextStyleTableRecord
  2
STANDARD
 70
     0
 40
0.0
 41
1.0
 50
0.0
 71
     0
 42
2.5
  3
txt
  4

  0
STYLE
  5
2B
330
11
100
AcDbSymbolTableRecord
100
AcDbTextStyleTableRecord
  2
ROMANS
 70
     0
 40
2.0
 41
1.0
 50
0.0
 71
     0
 42
2.0
  3
ROMANS.shx
  4

  0
STYLE
  5
28
330
11
100
AcDbSymbolTableRecord
100
AcDbTextStyleTableRecord
  2
DEYP
 70
     0
 40
0.0
 41
1.0
 50
0.0
 71
     0
 42
2.0
  3
romans.shx
  4

  0
STYLE
  5
63
330
11
100
AcDbSymbolTableRecord
100
AcDbTextStyleTableRecord
  2
SYMATH
 70
     0
 40
1.0
 41
1.0
 50
0.0
 71
     0
 42
1.0
  3
SYMATH
  4

  0
ENDTAB
  0
TABLE
  2
VIEW
  5
17
330
0
100
AcDbSymbolTable
 70
     0
  0
ENDTAB
  0
TABLE
  2
UCS
  5
18
330
0
100
AcDbSymbolTable
 70
     0
  0
ENDTAB
  0
TABLE
  2
APPID
  5
1B
330
0
100
AcDbSymbolTable
 70
     1
  0
APPID
  5
1C
330
1B
100
AcDbSymbolTableRecord
100
AcDbRegAppTableRecord
  2
ACAD
 70
     0
  0
ENDTAB
  0
TABLE
  2
DIMSTYLE
  5
1D
330
0
100
AcDbSymbolTable
 70
     1
  0
DIMSTYLE
105
2A
330
1D
100
AcDbSymbolTableRecord
100
AcDbDimStyleTableRecord
  2
COTA1
 70
     0
  3

  4

  5
COTA
  6
COTA
  7
COTA
 40
1.0
 41
0.75
 42
5.0
 43
6.0
 44
1.8
 45
0.0
 46
2.0
 47
0.0
 48
0.0
140
2.0
141
1.5
142
0.0
143
25.4
144
1.0
145
1.0
146
1.0
147
0.09
 71
     0
 72
     0
 73
     0
 74
     0
 75
     0
 76
     0
 77
     0
 78
     0
170
     0
171
     2
172
     0
173
     1
174
     1
175
     0
176
     1
177
     1
178
     1
270
     2
271
     3
272
     3
273
     2
274
     2
340
2B
275
     0
280
     0
281
     0
282
     0
283
     1
284
     0
285
     0
286
     0
287
     5
288
     0
  0
ENDTAB
  0
TABLE
  2
BLOCK_RECORD
  5
1
330
0
100
AcDbSymbolTable
 70
     3
  0
BLOCK_RECORD
  5
2
102
{ACAD_XDICTIONARY
360
2A9
102
}
330
1
100
AcDbSymbolTableRecord
100
AcDbBlockTableRecord
  2
*MODEL_SPACE
  0
BLOCK_RECORD
  5
C
102
{ACAD_XDICTIONARY
360
2AB
102
}
330
1
100
AcDbSymbolTableRecord
100
AcDbBlockTableRecord
  2
*PAPER_SPACE
  0
BLOCK_RECORD
  5
22
330
1
100
AcDbSymbolTableRecord
100
AcDbBlockTableRecord
  2
TICK
  0
BLOCK_RECORD
  5
2C
330
1
100
AcDbSymbolTableRecord
100
AcDbBlockTableRecord
  2
COTA
  0
BLOCK_RECORD
  5
61
330
1
100
AcDbSymbolTableRecord
100
AcDbBlockTableRecord
  2
SIM10
  0
ENDTAB
  0
ENDSEC
  0
SECTION
  2
BLOCKS
  0
BLOCK
  5
3
330
2
100
AcDbEntity
  8
0
100
AcDbBlockBegin
  2
*MODEL_SPACE
 70
     0
 10
0.0
 20
0.0
 30
0.0
  3
*MODEL_SPACE
  1

  0
ENDBLK
  5
9
330
2
100
AcDbEntity
  8
0
100
AcDbBlockEnd
  0
BLOCK
  5
D
330
C
100
AcDbEntity
 67
     1
  8
0
100
AcDbBlockBegin
  2
*PAPER_SPACE
 70
     0
 10
0.0
 20
0.0
 30
0.0
  3
*PAPER_SPACE
  1

  0
ENDBLK
  5
E
330
C
100
AcDbEntity
 67
     1
  8
0
100
AcDbBlockEnd
  0
BLOCK
  5
26
330
22
100
AcDbEntity
  8
0
100
AcDbBlockBegin
  2
TICK
 70
     0
 10
0.0
 20
0.0
 30
0.0
  3
TICK
  1

  0
LINE
  5
23
330
22
100
AcDbEntity
  8
05C
100
AcDbLine
 10
-0.7071067811865462
 20
-0.7071067811865462
 30
0.0
 11
0.7071067811865533
 21
0.7071067811865533
 31
0.0
  0
LINE
  5
25
330
22
100
AcDbEntity
  8
0
100
AcDbLine
 10
-1.0
 20
0.0
 30
0.0
 11
1.000000000000056
 21
0.0
 31
0.0
  0
ENDBLK
  5
27
330
22
100
AcDbEntity
  8
0
100
AcDbBlockEnd
  0
BLOCK
  5
31
330
2C
100
AcDbEntity
  8
0
100
AcDbBlockBegin
  2
COTA
 70
     0
 10
0.0
 20
0.0
 30
0.0
  3
COTA
  1

  0
LINE
  5
2D
330
2C
100
AcDbEntity
  8
0
  6
CONTINUOUS
 62
     4
100
AcDbLine
 10
-0.707106781186667
 20
-0.707106781186667
 30
0.0
 11
0.0
 21
0.0
 31
0.0
  0
LINE
  5
2E
330
2C
100
AcDbEntity
  8
0
  6
CONTINUOUS
 62
     4
100
AcDbLine
 10
0.0
 20
0.0
 30
0.0
 11
0.707106781186667
 21
0.707106781186667
 31
0.0
  0
LINE
  5
2F
330
2C
100
AcDbEntity
  8
0
  6
CONTINUOUS
 62
     7
100
AcDbLine
 10
-1.0
 20
0.0
 30
0.0
 11
0.0
 21
0.0
 31
0.0
  0
LINE
  5
30
330
2C
100
AcDbEntity
  8
0
  6
CONTINUOUS
 62
     7
100
AcDbLine
 10
0.0
 20
0.0
 30
0.0
 11
1.5
 21
0.0
 31
0.0
  0
ENDBLK
  5
32
330
2C
100
AcDbEntity
  8
0
100
AcDbBlockEnd
  0
BLOCK
  5
64
330
61
100
AcDbEntity
  8
0
100
AcDbBlockBegin
  2
SIM10
 70
     0
 10
0.0
 20
0.0
 30
0.0
  3
SIM10
  1

  0
TEXT
  5
62
330
61
100
AcDbEntity
  8
0
  6
CONTINUOUS
 62
     0
100
AcDbText
 10
-0.6190476190476188
 20
-0.4285714285714286
 30
0.0
 40
1.0
  1
K
  7
SYMATH
 72
     4
 11
0.0
 21
0.0
 31
0.0
100
AcDbText
  0
ENDBLK
  5
65
330
61
100
AcDbEntity
  8
0
100
AcDbBlockEnd
  0
ENDSEC
  0
SECTION
  2
ENTITIES
  0
TEXT
  5
33
330
2
100
AcDbEntity
  8
KR-TEXTOS
100
AcDbText
 10
286.8652442491772
 20
-57.57518804404458
 30
-0.0000000171943847
 40
2.0
  1
ANTERIOR DE PLANOS DE ARQUITECTURA
  7
ROMANS
 11
286.8652442491772
 21
-56.57518804404458
 31
-0.0000000171943847
100
AcDbText
 73
     2
  0
TEXT
  5
35
330
2
100
AcDbEntity
  8
KR-TEXTOS
100
AcDbText
 10
286.8652442491772
 20
-54.02820258832253
 30
-0.0000000171943847
 40
2.0
  1
ALTILLOS Y CRUJÍA LATERAL SEGÚN VERSIÓN
  7
ROMANS
 11
286.8652442491772
 21
-53.02820258832253
 31
-0.0000000171943847
100
AcDbText
 73
     2
  0
TEXT
  5
36
330
2
100
AcDbEntity
  8
KR-TEXTOS
  6
CONTINUOUS
100
AcDbText
 10
321.9567455566928
 20
-39.00444205658118
 30
-0.0000001355833173
 40
2.0
  1
MODIFICACION DE ARQUITECTURA
  7
DEYP
 72
     1
 11
346.8138884138356
 21
-38.00444205658118
 31
-0.0000001355833173
100
AcDbText
 73
     2
  0
TEXT
  5
37
330
2
100
AcDbEntity
  8
KR-TEXTOS
100
AcDbText
 10
107.018422373103
 20
-80.36031598131172
 30
-0.0000000171943847
 40
2.0
  1
VIGA O SOPORTE CUYA SECCIÓN METÁLICA ES CONTINUA SIN INTERRUPCIONES, YA SEA ENTERIZA O CON UNIONES SOLDADAS EN TALLER, A TOPE (PENETRACIÓN COMPLETA)
  7
ROMANS
 11
107.018422373103
 21
-79.36031598131171
 31
-0.0000000171943847
100
AcDbText
 73
     2
  0
TEXT
  5
38
330
2
100
AcDbEntity
  8
KR-TEXTOS
100
AcDbText
 10
107.018422373103
 20
-85.5984112194069
 30
-0.0000000171943847
 40
2.0
  1
PUNTOS DE UNIÓN DE ARRIOSTRAMIENTOS SALVO CARÁCTER ARRIOSTRANTE DE LOS PANELES DE CUBIERTA CON CONDICIONES DE UNION APROPÌADAS
  7
ROMANS
 11
107.018422373103
 21
-84.59841121940689
 31
-0.0000000171943847
100
AcDbText
 73
     2
  0
LINE
  5
39
330
2
100
AcDbEntity
  8
0
100
AcDbLine
 10
399.8138884138356
 20
-28.50514631353394
 30
-0.0000002818183627
 11
293.8138884138357
 21
-28.50514631353417
 31
-0.000000275161888
  0
LWPOLYLINE
  5
3A
330
2
100
AcDbEntity
  8
0
  6
TRAZOS
 62
     5
100
AcDbPolyline
 90
        2
 70
     0
 43
1.0
 38
0.0000001108861715
 10
397.8138884138347
 20
296.0601429706819
 10
293.8138884138357
 20
296.0601429706796
  0
LWPOLYLINE
  5
3C
330
2
100
AcDbEntity
  8
0
  6
TRAZOS
 62
     5
100
AcDbPolyline
 90
        2
 70
     0
 43
1.0
 38
0.0000001108861715
 10
397.8138884138347
 20
219.74572130209
 10
293.8138884138357
 20
219.7457213020877
  0
LWPOLYLINE
  5
3D
330
2
100
AcDbEntity
  8
0
  6
TRAZOS
 62
     5
100
AcDbPolyline
 90
        2
 70
     0
 43
1.0
 38
-0.0000000365156654
 10
323.8138884138356
 20
219.7457213020813
 10
323.8138884138356
 20
181.0132314424529
  0
LWPOLYLINE
  5
3E
330
2
100
AcDbEntity
  8
0
  6
TRAZOS
 62
     5
100
AcDbPolyline
 90
        2
 70
     0
 43
1.0
 38
0.0000000379125962
 10
293.8138884138357
 20
248.4956468940063
 10
397.8138884138352
 20
248.4956468940149
  0
LWPOLYLINE
  5
3F
330
2
100
AcDbEntity
  8
0
  6
TRAZOS
 62
     5
100
AcDbPolyline
 90
        2
 70
     0
 43
1.0
 38
-0.0000000712825634
 10
397.8138884138352
 20
132.2807415828328
 10
293.8138884138357
 20
132.2807415828306
  0
LWPOLYLINE
  5
40
330
2
100
AcDbEntity
  8
0
  6
TRAZOS
 62
     5
100
AcDbPolyline
 90
        2
 70
     0
 43
1.0
 38
-0.0000000835164953
 10
293.8138884138357
 20
181.0132314424529
 10
397.8138884138357
 20
181.0132314424615
  0
LWPOLYLINE
  5
41
330
2
100
AcDbEntity
  8
0
  6
TRAZOS
 62
     5
100
AcDbPolyline
 90
        2
 70
     0
 43
1.0
 38
-0.0000001355833173
 10
397.8138884138352
 20
56.26574428440585
 10
293.8138884138357
 20
56.26574428440358
  0
LWPOLYLINE
  5
42
330
2
100
AcDbEntity
  8
0
  6
TRAZOS
 62
     5
100
AcDbPolyline
 90
        2
 70
     0
 43
1.0
 38
-0.0000002468059398
 10
293.8138884138357
 20
22.25573279615196
 10
397.8138884138352
 20
22.2557327961606
  0
LINE
  5
43
330
2
100
AcDbEntity
  8
0
100
AcDbLine
 10
-31.40283103628167
 20
216.642271527852
 30
-0.0000000494360381
 11
-46.23937718795241
 21
183.8197329512947
 31
-0.0000001059630029
  0
LINE
  5
44
330
2
100
AcDbEntity
  8
0
100
AcDbLine
 10
93.28889009452632
 20
135.9515926312542
 30
-0.0000000739128559
 11
110.7543738295439
 21
155.9841173861823
 31
-0.0000000814951386
  0
LINE
  5
45
330
2
100
AcDbEntity
  8
0
100
AcDbLine
 10
2.359738782500414
 20
136.1605191048758
 30
-0.0000000731557471
 11
12.86526737485655
 21
153.4332418283227
 31
-0.0000000814951386
  0
LINE
  5
46
330
2
100
AcDbEntity
  8
0
100
AcDbLine
 10
289.6310759239345
 20
58.1647071827108
 30
0.0000000660663408
 11
275.8790027432419
 21
72.59554778634424
 31
-0.0000000814951386
  0
LINE
  5
47
330
2
100
AcDbEntity
  8
0
100
AcDbLine
 10
289.8592365316599
 20
246.2636591626196
 30
-0.0000001353116411
 11
275.8790027432419
 21
240.1904311063629
 31
-0.0000000171943847
  0
LINE
  5
48
330
2
100
AcDbEntity
  8
0
100
AcDbLine
 10
290.0177545457793
 20
222.2377904018553
 30
-0.0000000791230981
 11
275.8790027432419
 21
231.5195353827096
 31
-0.0000000171943847
  0
TEXT
  5
49
330
2
100
AcDbEntity
  8
KR-TEXTOS
  6
CONTINUOUS
100
AcDbText
 10
-60.77954639801919
 20
286.9998508523233
 30
-0.0000003035707804
 40
2.0
  1
IPE 450 A52d
  7
DEYP
100
AcDbText
  0
TEXT
  5
4A
330
2
100
AcDbEntity
  8
KR-TEXTOS
  6
CONTINUOUS
100
AcDbText
 10
-60.77954639801919
 20
290.9081455300558
 30
-0.0000003035707804
 40
2.0
  1
V. B. CONT.
  7
DEYP
100
AcDbText
  0
LINE
  5
4B
330
2
100
AcDbEntity
  8
0
 62
     7
100
AcDbLine
 10
-60.44031934221812
 20
289.9539981911896
 30
-0.0000003035707804
 11
-38.25469678619811
 21
289.9539981911896
 31
-0.0000003035707804
  0
TEXT
  5
4C
330
2
100
AcDbEntity
  8
KR-TEXTOS
  6
CONTINUOUS
100
AcDbText
 10
-76.10393948153523
 20
125.1334038317745
 30
-0.0000002534512983
 40
2.0
  1
VER PLANOS DE PLANTA
  7
DEYP
100
AcDbText
  0
LINE
  5
4D
330
2
100
AcDbEntity
  8
0
 62
     7
100
AcDbLine
 10
-75.76471242573416
 20
128.0875511706408
 30
-0.0000002534512983
 11
-29.058126037713
 21
128.0875511706408
 31
-0.0000002534512983
  0
TEXT
  5
4E
330
2
100
AcDbEntity
  8
KR-TEXTOS
  6
CONTINUOUS
100
AcDbText
 10
-76.10393948153523
 20
129.0416985095071
 30
-0.0000002534512983
 40
2.0
  1
VARIABLE SEGÚN PÓRTICOS
  7
DEYP
100
AcDbText
  0
LINE
  5
4F
330
2
100
AcDbEntity
  8
0
 62
     7
100
AcDbLine
 10
-96.14507479350914
 20
183.8197329512947
 30
-0.0000001059630029
 11
-46.23937718795241
 21
183.8197329512947
 31
-0.0000001059630029
  0
TEXT
  5
50
330
2
100
AcDbEntity
  8
KR-TEXTOS
  6
CONTINUOUS
100
AcDbText
 10
-69.23607020276904
 20
54.73567921155723
 30
-0.0000000814951386
 40
2.0
  1
APOYOS ARTICULADOS DE
  7
DEYP
100
AcDbText
  0
TEXT
  5
51
330
2
100
AcDbEntity
  8
KR-TEXTOS
  6
CONTINUOUS
100
AcDbText
 10
-69.23607020276904
 20
50.82738453382467
 30
-0.0000000814951386
 40
2.0
  1
ESTRUCTURA METALICA SOBRE
  7
DEYP
100
AcDbText
  0
LINE
  5
52
330
2
100
AcDbEntity
  8
0
 62
     7
100
AcDbLine
 10
-68.89684314696797
 20
53.78153187269095
 30
-0.0000000814951386
 11
-15.37093266301781
 21
53.78153187269095
 31
-0.0000000814951386
  0
TEXT
  5
53
330
2
100
AcDbEntity
  8
KR-TEXTOS
  6
CONTINUOUS
100
AcDbText
 10
-69.23607020276904
 20
47.57738453382467
 30
-0.0000000814951386
 40
2.0
  1
SOPORTES DE SOTANOS
  7
DEYP
100
AcDbText
  0
LINE
  5
54
330
2
100
AcDbEntity
  8
0
 62
     5
100
AcDbLine
 10
-80.73854828045979
 20
51.26574428440585
 30
-0.0000001377900697
 11
-74.73854828045978
 21
51.2657442844054
 31
-0.0000001377017465
  0
LWPOLYLINE
  5
55
330
2
100
AcDbEntity
  8
0
 62
     5
100
AcDbPolyline
 90
        2
 70
     0
 43
1.0
 38
-0.0000001355833173
 10
-72.2169256312959
 20
56.26574428439721
 10
-77.73274455136607
 20
56.26574428439721
  0
LWPOLYLINE
  5
56
330
2
100
AcDbEntity
  8
0
100
AcDbPolyline
 90
        4
 70
     0
 43
0.0
 38
-0.0000002534512983
 10
-102.6597201961296
 20
121.9651591660758
 10
-107.6597201961296
 20
121.9651591660758
 10
-107.6597201961303
 20
190.2308767789836
 10
-102.6597201961301
 20
190.2308767789836
  0
TEXT
  5
57
330
2
100
AcDbEntity
  8
KR-TEXTOS
  6
CONTINUOUS
100
AcDbText
 10
-113.5924981828651
 20
154.5757404350556
 30
-0.0000003303419684
 40
2.5
  1
$2
  7
DEYP
 72
     1
 11
-111.2115458019127
 21
155.8257404350556
 31
-0.0000003303419684
100
AcDbText
 73
     2
  0
TEXT
  5
58
330
2
100
AcDbEntity
  8
KR-TEXTOS
  6
CONTINUOUS
100
AcDbText
 10
-96.48430184931022
 20
170.7896863891012
 30
-0.0000001059630029
 40
2.0
  1
VER PLANOS DE PLANTA
  7
DEYP
100
AcDbText
  0
TEXT
  5
59
330
2
100
AcDbEntity
  8
KR-TEXTOS
  6
CONTINUOUS
100
AcDbText
 10
-96.48430184931022
 20
174.1483194635436
 30
-0.0000001059630029
 40
2.0
  1
VARIABLE SEGÚN VANOS
  7
DEYP
100
AcDbText
  0
TEXT
  5
5A
330
2
100
AcDbEntity
  8
KR-TEXTOS
  6
CONTINUOUS
100
AcDbText
 10
-96.48430184931022
 20
184.773880290161
 30
-0.0000001059630029
 40
2.0
  1
V.B. MIX. CONT.
  7
DEYP
100
AcDbText
  0
TEXT
  5
5B
330
2
100
AcDbEntity
  8
KR-TEXTOS
  6
CONTINUOUS
100
AcDbText
 10
-96.48430184931022
 20
177.506952537986
 30
-0.0000001059630029
 40
2.0
  1
HEA 500 A52 + UPN 120 A52
  7
DEYP
100
AcDbText
  0
TEXT
  5
5C
330
2
100
AcDbEntity
  8
KR-TEXTOS
  6
CONTINUOUS
100
AcDbText
 10
-96.48430184931022
 20
180.8655856124285
 30
-0.0000001059630029
 40
2.0
  1
IPE 500 A52 + UPN 120 A52
  7
DEYP
100
AcDbText
  0
TEXT
  5
5D
330
2
100
AcDbEntity
  8
KR-TEXTOS
  6
CONTINUOUS
100
AcDbText
 10
-105.6060366345683
 20
204.8128715345878
 30
-0.0000001481732335
 40
2.5
  1
$1
  7
DEYP
 72
     1
 11
-103.5822271107588
 21
206.0628715345878
 31
-0.0000001481732335
100
AcDbText
 73
     2
  0
LINE
  5
5E
330
2
100
AcDbEntity
  8
0
100
AcDbLine
 10
93.28889009452813
 20
59.93659533282744
 30
-0.0000001382136098
 11
110.7543738295455
 21
79.9691200877553
 31
-0.0000001457958925
  0
TEXT
  5
5F
330
2
100
AcDbEntity
  8
KR-TEXTOS
  6
CONTINUOUS
100
AcDbText
 10
136.759753038826
 20
40.20576961662641
 30
-0.0000001355833173
 40
2.0
  1
2.0
  7
DEYP
 72
     1
 11
139.1407054197784
 21
41.20576961662641
 31
-0.0000001355833173
100
AcDbText
 73
     2
  0
INSERT
  5
60
330
2
100
AcDbEntity
  8
KR-TEXTOS
  6
CONTINUOUS
100
AcDbBlockReference
  2
SIM10
 10
137.0890286968146
 20
45.35157070174204
 30
-0.0000001355833173
 41
2.0
 42
2.0
 43
2.0
  0
LWPOLYLINE
  5
66
330
2
100
AcDbEntity
  8
0
 62
     5
100
AcDbPolyline
 90
        2
 70
     0
 43
1.0
 38
-0.0000001355833173
 10
293.8138884138357
 20
56.26574428440358
 10
0.0058037290932589
 20
56.26574428439721
  0
LINE
  5
67
330
2
100
AcDbEntity
  8
0
 62
     5
100
AcDbLine
 10
-5.0
 20
-11.75427869208465
 30
-0.0000001214756481
 11
5.0
 21
-11.75427869208533
 31
-0.0000001213284428
  0
LINE
  5
68
330
2
100
AcDbEntity
  8
0
 62
     5
100
AcDbLine
 10
-3.000000000000454
 20
51.26574428440585
 30
-0.0000001377900697
 11
2.999999999999545
 21
51.2657442844054
 31
-0.0000001377017465
  0
TEXT
  5
69
330
2
100
AcDbEntity
  8
KR-TEXTOS
  6
CONTINUOUS
100
AcDbText
 10
-12.82717733314166
 20
15.43430422472339
 30
-0.0000001355833173
 40
2.0
  1
(A1, B1)
 50
90.0
  7
DEYP
 72
     1
 11
-13.82717733314166
 21
22.00573279615196
 31
-0.0000001355833173
100
AcDbText
 73
     2
  0
LINE
  5
6A
330
2
100
AcDbEntity
  8
7
100
AcDbLine
 10
-10.25427869209579
 20
55.76574428439721
 30
-0.0000001355833173
 11
-13.25427869209579
 21
55.76574428439721
 31
-0.0000001355833173
  0
LINE
  5
6D
330
2
100
AcDbEntity
  8
7
100
AcDbLine
 10
-10.25427869209579
 20
55.76574428439721
 30
-0.0000001355833173
 11
-13.25427869209579
 21
55.76574428439721
 31
-0.0000001355833173
  0
LINE
  5
6E
330
2
100
AcDbEntity
  8
9
100
AcDbLine
 10
-11.75427869209579
 20
55.76574428439767
 30
-0.0000001355833173
 11
-12.81493886387579
 21
56.82640445617721
 31
-0.0000001355833173
  0
LINE
  5
71
330
2
100
AcDbEntity
  8
9
100
AcDbLine
 10
-11.75427869209579
 20
55.76574428439676
 30
-0.0000001355833173
 11
-12.81493886387579
 21
54.70508411261722
 31
-0.0000001355833173
  0
LINE
  5
72
330
2
100
AcDbEntity
  8
0
100
AcDbLine
 10
-11.75427869209534
 20
55.76574428439721
 30
-0.0000001355833173
 11
-10.69361852031533
 21
56.82640445617676
 31
-0.0000001355833173
  0
LINE
  5
73
330
2
100
AcDbEntity
  8
0
100
AcDbLine
 10
-11.75427869209534
 20
55.76574428439721
 30
-0.0000001355833173
 11
-10.69361852031533
 21
54.70508411261722
 31
-0.0000001355833173
  0
CIRCLE
  5
74
330
2
100
AcDbEntity
  8
0
  6
RAYITAS
 62
     9
100
AcDbCircle
 10
90.61570971855099
 20
56.26574428439926
 30
-0.0000001355833173
 40
4.54103961029341
  0
TEXT
  5
76
330
2
100
AcDbEntity
  8
KR-TEXTOS
  6
CONTINUOUS
100
AcDbText
 10
58.54885159794317
 20
47.09875779297976
 30
-0.0000001355833173
 40
2.0
  1
20.1030
  7
DEYP
 72
     1
 11
64.73932778841936
 21
48.09875779297977
 31
-0.0000001355833173
100
AcDbText
 73
     2
  0
TEXT
  5
77
330
2
100
AcDbEntity
  8
KR-TEXTOS
  6
CONTINUOUS
100
AcDbText
 10
59.56130627293163
 20
51.91884352526426
 30
-0.0000001355833173
 40
2.0
  1
600.25
  7
DEYP
 72
     1
 11
64.84702055864591
 21
52.91884352526427
 31
-0.0000001355833173
100
AcDbText
 73
     2
  0
TEXT
  5
78
330
2
100
AcDbEntity
  8
KR-TEXTOS
  6
CONTINUOUS
100
AcDbText
 10
46.59778017858916
 20
58.08197347649389
 30
-0.0000001355833173
 40
2.0
  1
V. MIX. SIN INT. A52d
  7
DEYP
 72
     1
 11
63.45492303573201
 21
59.08197347649388
 31
-0.0000001355833173
100
AcDbText
 73
     2
  0
TEXT
  5
79
330
2
100
AcDbEntity
  8
KR-TEXTOS
  6
CONTINUOUS
100
AcDbText
 10
59.56130627293163
 20
42.27867206069572
 30
-0.0000001355833173
 40
2.0
  1
600.25
  7
DEYP
 72
     1
 11
64.84702055864591
 21
43.27867206069572
 31
-0.0000001355833173
100
AcDbText
 73
     2
  0
INSERT
  5
7A
330
2
100
AcDbEntity
  8
KR-TEXTOS
  6
CONTINUOUS
100
AcDbBlockReference
  2
SIM10
 10
57.23466880126034
 20
48.09875779297977
 30
-0.0000001355833173
 41
2.0
 42
2.0
 43
2.0
  0
INSERT
  5
7B
330
2
100
AcDbEntity
  8
KR-TEXTOS
  6
CONTINUOUS
100
AcDbBlockReference
  2
SIM10
 10
58.15523620913655
 20
52.91884352526427
 30
-0.0000001355833173
 41
2.0
 42
2.0
 43
2.0
  0
INSERT
  5
7C
330
2
100
AcDbEntity
  8
KR-TEXTOS
  6
CONTINUOUS
100
AcDbBlockReference
  2
SIM10
 10
58.15523620913655
 20
43.27867206069572
 30
-0.0000001355833173
 41
2.0
 42
2.0
 43
2.0
  0
TEXT
  5
7D
330
2
100
AcDbEntity
  8
KR-TEXTOS
  6
CONTINUOUS
100
AcDbText
 10
132.7994684788618
 20
6.67435591189779
 30
-0.0000001355833173
 40
2.0
  1
(A2, B2)
 50
90.0
  7
DEYP
 72
     1
 11
131.7994684788618
 21
13.24578448332636
 31
-0.0000001355833173
100
AcDbText
 73
     2
  0
LINE
  5
7E
330
2
100
AcDbEntity
  8
9
100
AcDbLine
 10
133.8723671199077
 20
55.76574428439676
 30
-0.0000001355833173
 11
132.8117069481277
 21
54.70508411261722
 31
-0.0000001355833173
  0
LINE
  5
7F
330
2
100
AcDbEntity
  8
7
100
AcDbLine
 10
135.3723671199077
 20
55.76574428439721
 30
-0.0000001355833173
 11
132.3723671199077
 21
55.76574428439721
 31
-0.0000001355833173
  0
LINE
  5
80
330
2
100
AcDbEntity
  8
7
100
AcDbLine
 10
135.3723671199077
 20
55.76574428439721
 30
-0.0000001355833173
 11
132.3723671199077
 21
55.76574428439721
 31
-0.0000001355833173
  0
LINE
  5
81
330
2
100
AcDbEntity
  8
0
100
AcDbLine
 10
133.8723671199081
 20
55.76574428439721
 30
-0.0000001355833173
 11
134.9330272916881
 21
54.70508411261722
 31
-0.0000001355833173
  0
LINE
  5
82
330
2
100
AcDbEntity
  8
0
100
AcDbLine
 10
282.0596097217405
 20
-61.54774243461861
 30
-0.0000002818183627
 11
282.0596097217403
 21
-42.81755295965331
 31
-0.000000275161888
  0
LINE
  5
83
330
2
100
AcDbEntity
  8
0
100
AcDbLine
 10
287.0596097217405
 20
-42.81755295965331
 30
-0.0000002754881025
 11
282.0596097217405
 21
-42.81755295965331
 31
-0.0000002754881025
  0
LINE
  5
84
330
2
100
AcDbEntity
  8
0
100
AcDbLine
 10
293.8138884138357
 20
-23.50514631353394
 30
-0.0000002754881025
 11
293.8138884138357
 21
-28.50514631353394
 31
-0.0000002754881025
  0
TEXT
  5
85
330
2
100
AcDbEntity
  8
KR-TEXTOS
  6
CONTINUOUS
100
AcDbText
 10
205.2222052646619
 20
58.08197347649389
 30
-0.0000001355833173
 40
2.0
  1
V. MIX. SIN INT. A52d
  7
DEYP
 72
     1
 11
222.0793481218047
 21
59.08197347649388
 31
-0.0000001355833173
100
AcDbText
 73
     2
  0
LWPOLYLINE
  5
86
330
2
100
AcDbEntity
  8
0
 62
     5
100
AcDbPolyline
 90
        2
 70
     0
 43
1.0
 38
-0.0000002468059398
 10
146.9098460714644
 20
-11.75427869209329
 10
146.9098460714644
 20
56.26574428439721
  0
LINE
  5
87
330
2
100
AcDbEntity
  8
0
 62
     5
100
AcDbLine
 10
143.9098460714644
 20
51.26574428439721
 30
-0.0000001356274789
 11
149.9098460714644
 21
51.26574428439676
 31
-0.0000001355391557
  0
TEXT
  5
88
330
2
100
AcDbEntity
  8
KR-TEXTOS
  6
CONTINUOUS
100
AcDbText
 10
138.6786826462175
 20
44.35157070174205
 30
-0.0000001355833173
 40
2.0
  1
600.  40
  7
DEYP
 72
     1
 11
145.9643969319317
 21
45.35157070174204
 31
-0.0000001355833173
100
AcDbText
 73
     2
  0
TEXT
  5
89
330
2
100
AcDbEntity
  8
KR-TEXTOS
  6
CONTINUOUS
100
AcDbText
 10
152.8694629136265
 20
40.20576961662641
 30
-0.0000001355833173
 40
2.0
  1
2.0
  7
DEYP
 72
     1
 11
155.2504152945789
 21
41.20576961662641
 31
-0.0000001355833173
100
AcDbText
 73
     2
  0
LINE
  5
8A
330
2
100
AcDbEntity
  8
0
 62
     5
100
AcDbLine
 10
141.9098460714644
 20
-11.75427869209306
 30
-0.0000001193130573
 11
151.9098460714644
 21
-11.75427869209374
 31
-0.000000119165852
  0
TEXT
  5
8B
330
2
100
AcDbEntity
  8
KR-TEXTOS
  6
CONTINUOUS
100
AcDbText
 10
217.1732766840159
 20
47.09875779297976
 30
-0.0000001355833173
 40
2.0
  1
20.1030
  7
DEYP
 72
     1
 11
223.3637528744921
 21
48.09875779297977
 31
-0.0000001355833173
100
AcDbText
 73
     2
  0
TEXT
  5
8C
330
2
100
AcDbEntity
  8
KR-TEXTOS
  6
CONTINUOUS
100
AcDbText
 10
218.1857313590043
 20
51.91884352526426
 30
-0.0000001355833173
 40
2.0
  1
600.25
  7
DEYP
 72
     1
 11
223.4714456447186
 21
52.91884352526427
 31
-0.0000001355833173
100
AcDbText
 73
     2
  0
TEXT
  5
8D
330
2
100
AcDbEntity
  8
KR-TEXTOS
  6
CONTINUOUS
100
AcDbText
 10
218.1857313590043
 20
42.27867206069572
 30
-0.0000001355833173
 40
2.0
  1
600.25
  7
DEYP
 72
     1
 11
223.4714456447186
 21
43.27867206069572
 31
-0.0000001355833173
100
AcDbText
 73
     2
  0
INSERT
  5
8E
330
2
100
AcDbEntity
  8
KR-TEXTOS
  6
CONTINUOUS
100
AcDbBlockReference
  2
SIM10
 10
215.859093887333
 20
48.09875779297977
 30
-0.0000001355833173
 41
2.0
 42
2.0
 43
2.0
  0
INSERT
  5
8F
330
2
100
AcDbEntity
  8
KR-TEXTOS
  6
CONTINUOUS
100
AcDbBlockReference
  2
SIM10
 10
216.7796612952092
 20
52.91884352526427
 30
-0.0000001355833173
 41
2.0
 42
2.0
 43
2.0
  0
INSERT
  5
90
330
2
100
AcDbEntity
  8
KR-TEXTOS
  6
CONTINUOUS
100
AcDbBlockReference
  2
SIM10
 10
216.7796612952092
 20
43.27867206069572
 30
-0.0000001355833173
 41
2.0
 42
2.0
 43
2.0
  0
LINE
  5
91
330
2
100
AcDbEntity
  8
0
100
AcDbLine
 10
292.4947006299507
 20
17.91053034596575
 30
-0.000000218184451
 11
286.1945786500287
 21
-2.841106227726186
 31
-0.0000000814951386
  0
CIRCLE
  5
92
330
2
100
AcDbEntity
  8
0
  6
RAYITAS
 62
     9
100
AcDbCircle
 10
293.8138884138357
 20
22.25573279615196
 30
-0.0000002468059398
 40
4.54103961029341
  0
LINE
  5
93
330
2
100
AcDbEntity
  8
0
 62
     7
100
AcDbLine
 10
231.814426193398
 20
-2.841106227726186
 30
-0.0000000814951386
 11
286.1945786500287
 21
-2.841106227726186
 31
-0.0000000814951386
  0
TEXT
  5
94
330
2
100
AcDbEntity
  8
KR-TEXTOS
  6
CONTINUOUS
100
AcDbText
 10
273.9390473027497
 20
-53.43264769713596
 30
-0.0000001355833173
 40
2.5
  1
@
  7
DEYP
 72
     1
 11
275.5461901598926
 21
-52.18264769713596
 31
-0.0000001355833173
100
AcDbText
 73
     2
  0
TEXT
  5
95
330
2
100
AcDbEntity
  8
KR-TEXTOS
  6
CONTINUOUS
100
AcDbText
 10
231.4751991375974
 20
-1.886958888859908
 30
-0.0000000814951386
 40
2.0
  1
V. TRANSV. MIX. CONT.
  7
DEYP
100
AcDbText
  0
TEXT
  5
96
330
2
100
AcDbEntity
  8
KR-TEXTOS
  6
CONTINUOUS
100
AcDbText
 10
277.6982603064341
 20
-53.18264769713596
 30
-0.0000001355833173
 40
2.0
  1
1
  7
DEYP
 72
     1
 11
278.507784115958
 21
-52.18264769713596
 31
-0.0000001355833173
100
AcDbText
 73
     2
  0
TEXT
  5
97
330
2
100
AcDbEntity
  8
KR-TEXTOS
  6
CONTINUOUS
100
AcDbText
 10
280.986711080694
 20
4.867558120482143
 30
-0.0000001312582211
 40
2.0
  1
(A3, B3)
 50
90.0
  7
DEYP
 72
     1
 11
279.986711080694
 21
11.43898669191071
 31
-0.0000001312582211
100
AcDbText
 73
     2
  0
LINE
  5
98
330
2
100
AcDbEntity
  8
7
100
AcDbLine
 10
283.5596097217403
 20
56.76574428438039
 30
-0.0000001312582211
 11
280.5596097217403
 21
56.76574428438039
 31
-0.0000001312582211
  0
LINE
  5
99
330
2
100
AcDbEntity
  8
7
100
AcDbLine
 10
283.5596097217403
 20
56.76574428438039
 30
-0.0000001312582211
 11
280.5596097217403
 21
56.76574428438039
 31
-0.0000001312582211
  0
LINE
  5
9A
330
2
100
AcDbEntity
  8
9
100
AcDbLine
 10
282.0596097217403
 20
55.76574428437993
 30
-0.0000001312582211
 11
280.9989495499598
 21
54.70508411260039
 31
-0.0000001312582211
  0
LINE
  5
9B
330
2
100
AcDbEntity
  8
0
100
AcDbLine
 10
282.0596097217407
 20
55.76574428438039
 30
-0.0000001312582211
 11
283.1202698935203
 21
54.70508411260084
 31
-0.0000001312582211
  0
LINE
  5
9C
330
2
100
AcDbEntity
  8
7
100
AcDbLine
 10
283.5596097217403
 20
55.76574428438039
 30
-0.0000001312582211
 11
280.5596097217403
 21
55.76574428438039
 31
-0.0000001312582211
  0
LINE
  5
9D
330
2
100
AcDbEntity
  8
7
100
AcDbLine
 10
283.5596097217403
 20
55.76574428438039
 30
-0.0000001312582211
 11
280.5596097217403
 21
55.76574428438039
 31
-0.0000001312582211
  0
LINE
  5
9E
330
2
100
AcDbEntity
  8
9
100
AcDbLine
 10
282.0596097217403
 20
56.76574428438084
 30
-0.0000001312582211
 11
280.9989495499598
 21
57.82640445616038
 31
-0.0000001312582211
  0
LINE
  5
9F
330
2
100
AcDbEntity
  8
0
100
AcDbLine
 10
282.0596097217407
 20
56.76574428438039
 30
-0.0000001312582211
 11
283.1202698935203
 21
57.82640445616038
 31
-0.0000001312582211
  0
LINE
  5
A0
330
2
100
AcDbEntity
  8
0
 62
     5
100
AcDbLine
 10
290.8138884138352
 20
51.26574428438903
 30
-0.0000001334649735
 11
296.8138884138352
 21
51.26574428438857
 31
-0.0000001333766503
  0
LINE
  5
A1
330
2
100
AcDbEntity
  8
0
 62
     5
100
AcDbLine
 10
288.8138884138356
 20
-11.75427869210125
 30
-0.0000001171505519
 11
298.8138884138356
 21
-11.75427869210193
 31
-0.0000001170033466
  0
LINE
  5
A2
330
2
100
AcDbEntity
  8
0
100
AcDbLine
 10
-25.11583967095771
 20
123.4788498288889
 30
-0.0000005077763195
 11
-30.11583967095771
 21
123.4788498288889
 31
-0.0000005077763195
  0
LINE
  5
A3
330
2
100
AcDbEntity
  8
0
100
AcDbLine
 10
-30.11583967095771
 20
104.7486603539236
 30
-0.0000005141065797
 11
-30.11583967095794
 21
123.4788498288889
 31
-0.000000507450105
  0
LWPOLYLINE
  5
A4
330
2
100
AcDbEntity
  8
0
100
AcDbPolyline
 90
        4
 70
     0
 43
0.0
 38
-0.0000005146240881
 10
168.5009237692882
 20
299.6219485768895
 10
173.5009237692886
 20
299.6219485768895
 10
173.5009237692888
 20
325.4000597606061
 10
168.5009237692886
 20
325.4000597606061
  0
LWPOLYLINE
  5
A5
330
2
100
AcDbEntity
  8
0
100
AcDbPolyline
 90
        4
 70
     0
 43
0.0
 38
-0.0000005146240881
 10
237.7675504048673
 20
140.9224642473711
 10
232.7675504048668
 20
140.9224642473711
 10
232.7675504048666
 20
151.7915745044886
 10
237.7675504048668
 20
151.7915745044886
  0
LWPOLYLINE
  5
A6
330
2
100
AcDbEntity
  8
0
100
AcDbPolyline
 90
        4
 70
     0
 43
0.0
 38
-0.0000005146240881
 10
237.7675504048673
 20
236.9271027853912
 10
232.7675504048668
 20
236.9271027853912
 10
232.7675504048666
 20
247.7962130425087
 10
237.7675504048668
 20
247.7962130425087
  0
LWPOLYLINE
  5
A7
330
2
100
AcDbEntity
  8
0
100
AcDbPolyline
 90
        4
 70
     0
 43
0.0
 38
-0.0000005146240881
 10
237.7675504048673
 20
224.5079424526804
 10
232.7675504048668
 20
224.5079424526804
 10
232.7675504048666
 20
235.3770527097978
 10
237.7675504048668
 20
235.3770527097978
  0
LINE
  5
A8
330
2
100
AcDbEntity
  8
0
100
AcDbLine
 10
237.7675504048668
 20
320.3113868844025
 30
-0.0000005077763195
 11
232.7675504048668
 21
320.3113868844025
 31
-0.0000005077763195
  0
LINE
  5
A9
330
2
100
AcDbEntity
  8
0
100
AcDbLine
 10
232.7675504048668
 20
301.5811974094372
 30
-0.0000005141065797
 11
232.7675504048666
 21
320.3113868844025
 31
-0.000000507450105
  0
LINE
  5
AA
330
2
100
AcDbEntity
  8
0
 62
     7
100
AcDbLine
 10
162.5756662142328
 20
79.9691200877553
 30
-0.0000001457958925
 11
110.7543738295455
 21
79.9691200877553
 31
-0.0000001457958925
  0
TEXT
  5
AB
330
2
100
AcDbEntity
  8
KR-TEXTOS
  6
CONTINUOUS
100
AcDbText
 10
111.9427493512098
 20
80.92326742662157
 30
-0.0000001457958925
 40
2.0
  1
PERFIL DE FORJADO MIXT. CONT.
  7
DEYP
100
AcDbText
  0
LINE
  5
AC
330
2
100
AcDbEntity
  8
0
 62
     7
100
AcDbLine
 10
162.5756662142312
 20
155.9841173861823
 30
-0.0000000814951386
 11
110.7543738295439
 21
155.9841173861823
 31
-0.0000000814951386
  0
TEXT
  5
AD
330
2
100
AcDbEntity
  8
KR-TEXTOS
  6
CONTINUOUS
100
AcDbText
 10
111.9427493512082
 20
156.9382647250486
 30
-0.0000000814951386
 40
2.0
  1
PERFIL DE FORJADO MIXT. CONT.
  7
DEYP
100
AcDbText
  0
TEXT
  5
AE
330
2
100
AcDbEntity
  8
KR-TEXTOS
  6
CONTINUOUS
100
AcDbText
 10
123.6241317857502
 20
65.24031880706457
 30
-0.0000001355833173
 40
2.0
  1
3.0-   12%%C12/0.200   -3.0
  7
DEYP
 72
     1
 11
146.9098460714644
 21
66.24031880706457
 31
-0.0000001355833173
100
AcDbText
 73
     2
  0
LINE
  5
AF
330
2
100
AcDbEntity
  8
0
 62
     4
100
AcDbLine
 10
176.9098460714644
 20
64.26574428439721
 30
-0.0000001355833173
 11
116.9098460714644
 21
64.26574428439721
 31
-0.0000001355833173
  0
LINE
  5
B0
330
2
100
AcDbEntity
  8
0
100
AcDbLine
 10
-32.7380780668866
 20
294.0347383401974
 30
-0.0000001301604762
 11
-38.25469678619811
 21
289.9539981911896
 31
-0.0000003035707804
  0
LINE
  5
B1
330
2
100
AcDbEntity
  8
9
100
AcDbLine
 10
-11.75427869209488
 20
180.5268644628725
 30
-0.0000002328617152
 11
-11.75427869209488
 21
247.8060202012707
 31
-0.0000002601264332
  0
TEXT
  5
B2
330
2
100
AcDbEntity
  8
KR-TEXTOS
  6
CONTINUOUS
100
AcDbText
 10
-38.23640208994853
 20
112.8637550914063
 30
-0.0000003678715343
 40
2.5
  1
@
  7
DEYP
 72
     1
 11
-36.62925923280567
 21
114.1137550914063
 31
-0.0000003678715343
100
AcDbText
 73
     2
  0
TEXT
  5
B3
330
2
100
AcDbEntity
  8
KR-TEXTOS
  6
CONTINUOUS
100
AcDbText
 10
-34.6676652767403
 20
113.1137550914063
 30
-0.0000003678715343
 40
2.0
  1
4
  7
DEYP
 72
     1
 11
-33.6676652767403
 21
114.1137550914063
 31
-0.0000003678715343
100
AcDbText
 73
     2
  0
LINE
  5
B4
330
2
100
AcDbEntity
  8
0
100
AcDbLine
 10
-25.11583967095726
 20
104.7486603539236
 30
-0.0000002909808641
 11
-30.11583967095726
 21
104.7486603539236
 31
-0.0000002909808641
  0
LWPOLYLINE
  5
B5
330
2
100
AcDbEntity
  8
9
100
AcDbPolyline
 90
        7
 70
     0
 43
0.0
 38
-0.0000002534512983
 10
-27.86488334446062
 20
124.7235308969548
 10
-28.46150469108692
 20
125.3201522435806
 10
-28.46150469108692
 20
127.4909298240149
 10
-29.058126037713
 20
128.0875511706408
 10
-28.46150469108692
 20
128.6841725172671
 10
-28.46150469108692
 20
130.5344158399475
 10
-27.86488334446062
 20
131.1310371865738
  0
TEXT
  5
B6
330
2
100
AcDbEntity
  8
KR-TEXTOS
  6
CONTINUOUS
100
AcDbText
 10
8.09758362029393
 20
114.5315662034267
 30
-0.0000003303419684
 40
2.5
  1
$7
  7
DEYP
 72
     1
 11
10.47853600124631
 21
115.7815662034267
 31
-0.0000003303419684
100
AcDbText
 73
     2
  0
LINE
  5
B7
330
2
100
AcDbEntity
  8
9
100
AcDbLine
 10
-11.75427869209488
 20
268.2832686629403
 30
-0.0000002684247895
 11
-11.75427869209488
 21
295.5601429706732
 31
-0.0000002796813019
  0
TEXT
  5
B8
330
2
100
AcDbEntity
  8
KR-TEXTOS
  6
CONTINUOUS
100
AcDbText
 10
132.3611682126262
 20
126.2876537792326
 30
-0.0000003303419684
 40
2.5
  1
$6
  7
DEYP
 72
     1
 11
134.7421205935786
 21
127.5376537792326
 31
-0.0000003303419684
100
AcDbText
 73
     2
  0
TEXT
  5
B9
330
2
100
AcDbEntity
  8
KR-TEXTOS
  6
CONTINUOUS
100
AcDbText
 10
13.2013374912899
 20
154.3873891671889
 30
-0.0000000814951386
 40
2.0
  1
V. TRANSV. MIX. CONT.
  7
DEYP
100
AcDbText
  0
LINE
  5
BA
330
2
100
AcDbEntity
  8
0
 62
     7
100
AcDbLine
 10
12.86526737485655
 20
153.4332418283227
 30
-0.0000000814951386
 11
48.38108250738651
 21
153.4332418283227
 31
-0.0000000814951386
  0
LINE
  5
BB
330
2
100
AcDbEntity
  8
0
100
AcDbLine
 10
-31.24006980409513
 20
135.4527381620287
 30
-0.0000002170739038
 11
-46.23937718795241
 21
183.8197329512947
 31
-0.0000001059630029
  0
LINE
  5
BC
330
2
100
AcDbEntity
  8
9
100
AcDbLine
 10
-11.75427869209488
 20
104.5176708935389
 30
-0.0000001089459533
 11
-11.75427869209488
 21
160.0496160012032
 31
-0.000000199478203
  0
CIRCLE
  5
BD
330
2
100
AcDbEntity
  8
0
  6
RAYITAS
 62
     9
100
AcDbCircle
 10
-30.0
 20
132.2807415828235
 30
-0.0000002262600128
 40
3.405779707720057
  0
TEXT
  5
BE
330
2
100
AcDbEntity
  8
KR-TEXTOS
  6
CONTINUOUS
100
AcDbText
 10
-12.82717733314166
 20
112.9667042739532
 30
-0.0000001355833173
 40
2.0
  1
A52d
 50
90.0
  7
DEYP
 72
     1
 11
-13.82717733314166
 21
116.4905137977627
 31
-0.0000001355833173
100
AcDbText
 73
     2
  0
TEXT
  5
BF
330
2
100
AcDbEntity
  8
KR-TEXTOS
  6
CONTINUOUS
100
AcDbText
 10
-8.681380051049018
 20
110.4905137977627
 30
-0.0000001355833173
 40
2.0
  1
SIN INT.
 50
90.0
  7
DEYP
 72
     1
 11
-9.681380051049018
 21
116.4905137977627
 31
-0.0000001355833173
100
AcDbText
 73
     2
  0
TEXT
  5
C0
330
2
100
AcDbEntity
  8
KR-TEXTOS
  6
CONTINUOUS
100
AcDbText
 10
-15.57436442437938
 20
90.42141021845072
 30
-0.0000000974673249
 40
2.0
  1
600.70
 50
90.0
  7
DEYP
 72
     1
 11
-16.57436442437938
 21
95.70712450416499
 31
-0.0000000974673249
100
AcDbText
 73
     2
  0
TEXT
  5
C1
330
2
100
AcDbEntity
  8
KR-TEXTOS
  6
CONTINUOUS
100
AcDbText
 10
-10.75427869209534
 20
90.46902926606975
 30
-0.0000000974673249
 40
2.0
  1
30.860
 50
90.0
  7
DEYP
 72
     1
 11
-11.75427869209534
 21
95.70712450416499
 31
-0.0000000974673249
100
AcDbText
 73
     2
  0
TEXT
  5
C2
330
2
100
AcDbEntity
  8
KR-TEXTOS
  6
CONTINUOUS
100
AcDbText
 10
-5.934192959810843
 20
90.42141021845072
 30
-0.0000000974673249
 40
2.0
  1
600.70
 50
90.0
  7
DEYP
 72
     1
 11
-6.934192959810843
 21
95.70712450416499
 31
-0.0000000974673249
100
AcDbText
 73
     2
  0
INSERT
  5
C3
330
2
100
AcDbEntity
  8
KR-TEXTOS
  6
CONTINUOUS
100
AcDbBlockReference
  2
SIM10
 10
-16.57436442437938
 20
89.01534015465562
 30
-0.0000000974673249
 41
2.0
 42
2.0
 43
2.0
 50
90.0
  0
INSERT
  5
C4
330
2
100
AcDbEntity
  8
KR-TEXTOS
  6
CONTINUOUS
100
AcDbBlockReference
  2
SIM10
 10
-11.75427869209534
 20
89.01534015465562
 30
-0.0000000974673249
 41
2.0
 42
2.0
 43
2.0
 50
90.0
  0
INSERT
  5
C5
330
2
100
AcDbEntity
  8
KR-TEXTOS
  6
CONTINUOUS
100
AcDbBlockReference
  2
SIM10
 10
-6.934192959810843
 20
89.01534015465562
 30
-0.0000000974673249
 41
2.0
 42
2.0
 43
2.0
 50
90.0
  0
TEXT
  5
C6
330
2
100
AcDbEntity
  8
KR-TEXTOS
  6
CONTINUOUS
100
AcDbText
 10
13.2013374912899
 20
150.4790944894564
 30
-0.0000000814951386
 40
2.0
  1
HEA 600 A52d
  7
DEYP
100
AcDbText
  0
CIRCLE
  5
C7
330
2
100
AcDbEntity
  8
0
  6
RAYITAS
 62
     9
100
AcDbCircle
 10
0.0
 20
296.060142970673
 30
-0.0000000957504277
 40
4.54103961029341
  0
CIRCLE
  5
C8
330
2
100
AcDbEntity
  8
0
  6
RAYITAS
 62
     9
100
AcDbCircle
 10
0.0
 20
219.7457213020811
 30
-0.0000000957504277
 40
4.54103961029341
  0
TEXT
  5
C9
330
2
100
AcDbEntity
  8
KR-TEXTOS
  6
CONTINUOUS
100
AcDbText
 10
-12.82717733314166
 20
228.9843548403154
 30
-0.0000001355833173
 40
2.0
  1
A52d
 50
90.0
  7
DEYP
 72
     1
 11
-13.82717733314166
 21
232.5081643641249
 31
-0.0000001355833173
100
AcDbText
 73
     2
  0
TEXT
  5
CA
330
2
100
AcDbEntity
  8
KR-TEXTOS
  6
CONTINUOUS
100
AcDbText
 10
-8.681380051049018
 20
226.5081643641249
 30
-0.0000001355833173
 40
2.0
  1
SIN INT.
 50
90.0
  7
DEYP
 72
     1
 11
-9.681380051049018
 21
232.5081643641249
 31
-0.0000001355833173
100
AcDbText
 73
     2
  0
TEXT
  5
CB
330
2
100
AcDbEntity
  8
KR-TEXTOS
  6
CONTINUOUS
100
AcDbText
 10
-44.21648987984918
 20
308.5602688950482
 30
-0.0000001059630029
 40
2.0
  1
HEA 600 A52d
  7
DEYP
100
AcDbText
  0
LINE
  5
CC
330
2
100
AcDbEntity
  8
0
 62
     7
100
AcDbLine
 10
-43.8772628240481
 20
311.5144162339145
 30
-0.0000001059630029
 11
-15.50332114371121
 21
311.5144162339145
 31
-0.0000001059630029
  0
TEXT
  5
CD
330
2
100
AcDbEntity
  8
KR-TEXTOS
  6
CONTINUOUS
100
AcDbText
 10
-44.21648987984918
 20
312.4685635727808
 30
-0.0000001059630029
 40
2.0
  1
V. TRANSV. CONT.
  7
DEYP
100
AcDbText
  0
LINE
  5
CE
330
2
100
AcDbEntity
  8
0
100
AcDbLine
 10
-3.93949719361808
 20
298.3187714491375
 30
-0.0000000983455111
 11
-15.50332114371121
 21
311.5144162339145
 31
-0.0000001059630029
  0
LINE
  5
CF
330
2
100
AcDbEntity
  8
7
100
AcDbLine
 10
-10.25427869209579
 20
295.560142970673
 30
-0.0000000957504277
 11
-13.25427869209579
 21
295.560142970673
 31
-0.0000000957504277
  0
LINE
  5
D0
330
2
100
AcDbEntity
  8
7
100
AcDbLine
 10
-10.25427869209579
 20
295.560142970673
 30
-0.0000000957504277
 11
-13.25427869209579
 21
295.560142970673
 31
-0.0000000957504277
  0
LINE
  5
D1
330
2
100
AcDbEntity
  8
0
100
AcDbLine
 10
-11.75427869209534
 20
295.560142970673
 30
-0.0000000957504277
 11
-10.69361852031533
 21
294.4994827988932
 31
-0.0000000957504277
  0
LINE
  5
D2
330
2
100
AcDbEntity
  8
9
100
AcDbLine
 10
-11.75427869209579
 20
295.5601429706725
 30
-0.0000000957504277
 11
-12.81493886387579
 21
294.499482798893
 31
-0.0000000957504277
  0
TEXT
  5
D3
330
2
100
AcDbEntity
  8
KR-TEXTOS
  6
CONTINUOUS
100
AcDbText
 10
111.9427493512098
 20
77.01497274888902
 30
-0.0000001457958925
 40
2.0
  1
HEA 600 A52
  7
DEYP
100
AcDbText
  0
TEXT
  5
D4
330
2
100
AcDbEntity
  8
KR-TEXTOS
  6
CONTINUOUS
100
AcDbText
 10
111.9427493512082
 20
153.029970047316
 30
-0.0000000814951386
 40
2.0
  1
IPE 550 A52
  7
DEYP
100
AcDbText
  0
TEXT
  5
D5
330
2
100
AcDbEntity
  8
KR-TEXTOS
  6
CONTINUOUS
100
AcDbText
 10
227.7062104937086
 20
145.3570193759299
 30
-0.0000003678715343
 40
2.0
  1
$9
  7
DEYP
 72
     1
 11
229.5633533508514
 21
146.3570193759298
 31
-0.0000003678715343
100
AcDbText
 73
     2
  0
TEXT
  5
D6
330
2
100
AcDbEntity
  8
KR-TEXTOS
  6
CONTINUOUS
100
AcDbText
 10
227.6585914460895
 20
241.36165791395
 30
-0.0000003678715343
 40
2.0
  1
$5
  7
DEYP
 72
     1
 11
229.5633533508514
 21
242.36165791395
 31
-0.0000003678715343
100
AcDbText
 73
     2
  0
TEXT
  5
D7
330
2
100
AcDbEntity
  8
KR-TEXTOS
  6
CONTINUOUS
100
AcDbText
 10
229.5973350263675
 20
228.9424975812392
 30
-0.0000003678715343
 40
2.0
  1
3
  7
DEYP
 72
     1
 11
230.5497159787484
 21
229.9424975812391
 31
-0.0000003678715343
100
AcDbText
 73
     2
  0
TEXT
  5
D8
330
2
100
AcDbEntity
  8
KR-TEXTOS
  6
CONTINUOUS
100
AcDbText
 10
174.7796475639889
 20
312.0007165416984
 30
-0.0000003678715343
 40
2.0
  1
$4
  7
DEYP
 72
     1
 11
176.7320285163699
 21
313.0007165416984
 31
-0.0000003678715343
100
AcDbText
 73
     2
  0
TEXT
  5
D9
330
2
100
AcDbEntity
  8
KR-TEXTOS
  6
CONTINUOUS
100
AcDbText
 10
225.9809791655402
 20
228.6924975812392
 30
-0.0000003678715343
 40
2.5
  1
@
  7
DEYP
 72
     1
 11
227.5881220226831
 21
229.9424975812391
 31
-0.0000003678715343
100
AcDbText
 73
     2
  0
TEXT
  5
DA
330
2
100
AcDbEntity
  8
KR-TEXTOS
  6
CONTINUOUS
100
AcDbText
 10
224.6469879858759
 20
309.6962921469198
 30
-0.0000003678715343
 40
2.5
  1
@
  7
DEYP
 72
     1
 11
226.2541308430188
 21
310.9462921469198
 31
-0.0000003678715343
100
AcDbText
 73
     2
  0
TEXT
  5
DB
330
2
100
AcDbEntity
  8
KR-TEXTOS
  6
CONTINUOUS
100
AcDbText
 10
228.2633438467032
 20
309.9462921469198
 30
-0.0000003678715343
 40
2.0
  1
2
  7
DEYP
 72
     1
 11
229.2157247990842
 21
310.9462921469198
 31
-0.0000003678715343
100
AcDbText
 73
     2
  0
TEXT
  5
DC
330
2
100
AcDbEntity
  8
KR-TEXTOS
  6
CONTINUOUS
100
AcDbText
 10
275.374584436374
 20
117.1032091870165
 30
-0.0000003303419684
 40
2.5
  1
$8
  7
DEYP
 72
     1
 11
277.7555368173263
 21
118.3532091870165
 31
-0.0000003303419684
100
AcDbText
 73
     2
  0
LINE
  5
DD
330
2
100
AcDbEntity
  8
0
100
AcDbLine
 10
237.7675504048673
 20
301.5811974094372
 30
-0.0000002909808641
 11
232.7675504048672
 21
301.5811974094372
 31
-0.0000002909808641
  0
LINE
  5
DE
330
2
100
AcDbEntity
  8
9
100
AcDbLine
 10
282.0596097217407
 20
189.5072677592495
 30
-0.0000001678609918
 11
282.0596097217407
 21
244.8875266370758
 31
-0.0000002179316191
  0
TEXT
  5
DF
330
2
100
AcDbEntity
  8
KR-TEXTOS
  6
CONTINUOUS
100
AcDbText
 10
283.2482132316839
 20
208.5058323665946
 30
-0.0000002063213585
 40
2.0
  1
2.0
  7
DEYP
 72
     1
 11
285.6291656126363
 21
209.5058323665946
 31
-0.0000002063213585
100
AcDbText
 73
     2
  0
INSERT
  5
E0
330
2
100
AcDbEntity
  8
KR-TEXTOS
  6
CONTINUOUS
100
AcDbBlockReference
  2
SIM10
 10
277.2395239894563
 20
174.0049370203662
 30
-0.0000000931422287
 41
2.0
 42
2.0
 43
2.0
 50
90.0
  0
TEXT
  5
E1
330
2
100
AcDbEntity
  8
KR-TEXTOS
  6
CONTINUOUS
100
AcDbText
 10
278.2395239894563
 20
175.4110070841613
 30
-0.0000000931422287
 40
2.0
  1
600.90
 50
90.0
  7
DEYP
 72
     1
 11
277.2395239894563
 21
180.6967213698755
 31
-0.0000000931422287
100
AcDbText
 73
     2
  0
INSERT
  5
E2
330
2
100
AcDbEntity
  8
KR-TEXTOS
  6
CONTINUOUS
100
AcDbBlockReference
  2
SIM10
 10
277.2395239894563
 20
91.16113881595287
 30
-0.0000000931422287
 41
2.0
 42
2.0
 43
2.0
 50
90.0
  0
TEXT
  5
E3
330
2
100
AcDbEntity
  8
KR-TEXTOS
  6
CONTINUOUS
100
AcDbText
 10
278.2395239894563
 20
92.56720887974797
 30
-0.0000000931422287
 40
2.0
  1
600.90
 50
90.0
  7
DEYP
 72
     1
 11
277.2395239894563
 21
97.85292316546225
 31
-0.0000000931422287
100
AcDbText
 73
     2
  0
TEXT
  5
E4
330
2
100
AcDbEntity
  8
KR-TEXTOS
  6
CONTINUOUS
100
AcDbText
 10
238.860218068065
 20
69.64140044747797
 30
-0.0000000814951386
 40
2.0
  1
HEA 800 A52d
  7
DEYP
100
AcDbText
  0
LINE
  5
E5
330
2
100
AcDbEntity
  8
0
 62
     7
100
AcDbLine
 10
239.1994451238656
 20
72.59554778634424
 30
-0.0000000814951386
 11
275.8790027432419
 21
72.59554778634424
 31
-0.0000000814951386
  0
TEXT
  5
E6
330
2
100
AcDbEntity
  8
KR-TEXTOS
  6
CONTINUOUS
100
AcDbText
 10
238.860218068065
 20
73.54969512521051
 30
-0.0000000814951386
 40
2.0
  1
V. TRANSV. MIX. CONT.
  7
DEYP
100
AcDbText
  0
LINE
  5
E7
330
2
100
AcDbEntity
  8
9
100
AcDbLine
 10
282.0596097217407
 20
106.6634695548361
 30
-0.0000001046208571
 11
282.0596097217407
 21
160.1929258703601
 31
-0.0000001514343866
  0
TEXT
  5
E8
330
2
100
AcDbEntity
  8
KR-TEXTOS
  6
CONTINUOUS
100
AcDbText
 10
287.8796954540248
 20
92.56720887974797
 30
-0.0000000931422287
 40
2.0
  1
600.90
 50
90.0
  7
DEYP
 72
     1
 11
286.8796954540248
 21
97.85292316546225
 31
-0.0000000931422287
100
AcDbText
 73
     2
  0
TEXT
  5
E9
330
2
100
AcDbEntity
  8
KR-TEXTOS
  6
CONTINUOUS
100
AcDbText
 10
283.0596097217408
 20
92.614827927367
 30
-0.0000000931422287
 40
2.0
  1
35.840
 50
90.0
  7
DEYP
 72
     1
 11
282.0596097217407
 21
97.85292316546225
 31
-0.0000000931422287
100
AcDbText
 73
     2
  0
INSERT
  5
EA
330
2
100
AcDbEntity
  8
KR-TEXTOS
  6
CONTINUOUS
100
AcDbBlockReference
  2
SIM10
 10
286.8796954540248
 20
91.16113881595287
 30
-0.0000000931422287
 41
2.0
 42
2.0
 43
2.0
 50
90.0
  0
TEXT
  5
EB
330
2
100
AcDbEntity
  8
KR-TEXTOS
  6
CONTINUOUS
100
AcDbText
 10
283.0596097217408
 20
77.9455756249971
 30
-0.0000000931422287
 40
2.0
  1
A52d
 50
90.0
  7
DEYP
 72
     1
 11
282.0596097217407
 21
81.46938514880663
 31
-0.0000000931422287
100
AcDbText
 73
     2
  0
INSERT
  5
EC
330
2
100
AcDbEntity
  8
KR-TEXTOS
  6
CONTINUOUS
100
AcDbBlockReference
  2
SIM10
 10
282.0596097217407
 20
91.16113881595287
 30
-0.0000000931422287
 41
2.0
 42
2.0
 43
2.0
 50
90.0
  0
INSERT
  5
ED
330
2
100
AcDbEntity
  8
KR-TEXTOS
  6
CONTINUOUS
100
AcDbBlockReference
  2
SIM10
 10
286.8796954540248
 20
174.0049370203662
 30
-0.0000000931422287
 41
2.0
 42
2.0
 43
2.0
 50
90.0
  0
INSERT
  5
EE
330
2
100
AcDbEntity
  8
KR-TEXTOS
  6
CONTINUOUS
100
AcDbBlockReference
  2
SIM10
 10
282.0596097217407
 20
174.0049370203662
 30
-0.0000000931422287
 41
2.0
 42
2.0
 43
2.0
 50
90.0
  0
TEXT
  5
EF
330
2
100
AcDbEntity
  8
KR-TEXTOS
  6
CONTINUOUS
100
AcDbText
 10
283.0596097217408
 20
160.7893738294104
 30
-0.0000000931422287
 40
2.0
  1
A52d
 50
90.0
  7
DEYP
 72
     1
 11
282.0596097217407
 21
164.3131833532199
 31
-0.0000000931422287
100
AcDbText
 73
     2
  0
TEXT
  5
F0
330
2
100
AcDbEntity
  8
KR-TEXTOS
  6
CONTINUOUS
100
AcDbText
 10
287.8796954540248
 20
175.4110070841613
 30
-0.0000000931422287
 40
2.0
  1
600.90
 50
90.0
  7
DEYP
 72
     1
 11
286.8796954540248
 21
180.6967213698755
 31
-0.0000000931422287
100
AcDbText
 73
     2
  0
TEXT
  5
F1
330
2
100
AcDbEntity
  8
KR-TEXTOS
  6
CONTINUOUS
100
AcDbText
 10
283.0596097217408
 20
175.4586261317803
 30
-0.0000000931422287
 40
2.0
  1
35.840
 50
90.0
  7
DEYP
 72
     1
 11
282.0596097217407
 21
180.6967213698755
 31
-0.0000000931422287
100
AcDbText
 73
     2
  0
INSERT
  5
F2
330
2
100
AcDbEntity
  8
KR-TEXTOS
  6
CONTINUOUS
100
AcDbBlockReference
  2
SIM10
 10
276.3185492708776
 20
289.9660551203021
 30
-0.0000002063213585
 41
2.0
 42
2.0
 43
2.0
  0
INSERT
  5
F3
330
2
100
AcDbEntity
  8
KR-TEXTOS
  6
CONTINUOUS
100
AcDbBlockReference
  2
SIM10
 10
276.3185492708776
 20
213.6516334517102
 30
-0.0000002063213585
 41
2.0
 42
2.0
 43
2.0
  0
TEXT
  5
F4
330
2
100
AcDbEntity
  8
KR-TEXTOS
  6
CONTINUOUS
100
AcDbText
 10
283.2482132316839
 20
284.8202540351865
 30
-0.0000002063213585
 40
2.0
  1
2.0
  7
DEYP
 72
     1
 11
285.6291656126363
 21
285.8202540351864
 31
-0.0000002063213585
100
AcDbText
 73
     2
  0
TEXT
  5
F5
330
2
100
AcDbEntity
  8
KR-TEXTOS
  6
CONTINUOUS
100
AcDbText
 10
277.8995904042953
 20
212.6516334517102
 30
-0.0000002063213585
 40
2.0
  1
25.1400
  7
DEYP
 72
     1
 11
284.0900665947715
 21
213.6516334517102
 31
-0.0000002063213585
100
AcDbText
 73
     2
  0
CIRCLE
  5
F6
330
2
100
AcDbEntity
  8
0
  6
RAYITAS
 62
     9
100
AcDbCircle
 10
293.8138884138357
 20
248.495646894006
 30
-0.000000168724003
 40
4.54103961029341
  0
TEXT
  5
F7
330
2
100
AcDbEntity
  8
KR-TEXTOS
  6
CONTINUOUS
100
AcDbText
 10
277.7567332614382
 20
288.9660551203021
 30
-0.0000002063213585
 40
2.0
  1
15.1400
  7
DEYP
 72
     1
 11
284.0900665947715
 21
289.9660551203021
 31
-0.0000002063213585
100
AcDbText
 73
     2
  0
TEXT
  5
F8
330
2
100
AcDbEntity
  8
KR-TEXTOS
  6
CONTINUOUS
100
AcDbText
 10
278.2395239894563
 20
260.1619346614667
 30
-0.0000000931422287
 40
2.0
  1
600.40
 50
90.0
  7
DEYP
 72
     1
 11
277.2395239894563
 21
265.447648947181
 31
-0.0000000931422287
100
AcDbText
 73
     2
  0
INSERT
  5
F9
330
2
100
AcDbEntity
  8
KR-TEXTOS
  6
CONTINUOUS
100
AcDbBlockReference
  2
SIM10
 10
277.2395239894563
 20
258.7558645976717
 30
-0.0000000931422287
 41
2.0
 42
2.0
 43
2.0
 50
90.0
  0
TEXT
  5
FA
330
2
100
AcDbEntity
  8
KR-TEXTOS
  6
CONTINUOUS
100
AcDbText
 10
283.0596097217408
 20
245.5403014067158
 30
-0.0000000931422287
 40
2.0
  1
A52d
 50
90.0
  7
DEYP
 72
     1
 11
282.0596097217407
 21
249.0641109305254
 31
-0.0000000931422287
100
AcDbText
 73
     2
  0
LINE
  5
FB
330
2
100
AcDbEntity
  8
0
100
AcDbLine
 10
282.0596097217403
 20
219.2457213020645
 30
-0.0000000914253315
 11
283.1202698935203
 21
218.1850611302848
 31
-0.0000000914253315
  0
LINE
  5
FC
330
2
100
AcDbEntity
  8
7
100
AcDbLine
 10
283.5596097217398
 20
219.2457213020645
 30
-0.0000000914253315
 11
280.5596097217398
 21
219.2457213020645
 31
-0.0000000914253315
  0
LINE
  5
FD
330
2
100
AcDbEntity
  8
7
100
AcDbLine
 10
283.5596097217398
 20
219.2457213020645
 30
-0.0000000914253315
 11
280.5596097217398
 21
219.2457213020645
 31
-0.0000000914253315
  0
LINE
  5
FE
330
2
100
AcDbEntity
  8
9
100
AcDbLine
 10
282.0596097217399
 20
219.2457213020641
 30
-0.0000000914253315
 11
280.9989495499598
 21
218.1850611302845
 31
-0.0000000914253315
  0
LINE
  5
FF
330
2
100
AcDbEntity
  8
9
100
AcDbLine
 10
282.0596097217399
 20
220.2457213020823
 30
-0.000000086589058
 11
280.9989495499594
 21
221.3063814738618
 31
-0.000000086589058
  0
LINE
  5
100
330
2
100
AcDbEntity
  8
7
100
AcDbLine
 10
283.5596097217398
 20
220.2457213020818
 30
-0.000000086589058
 11
280.5596097217398
 21
220.2457213020818
 31
-0.000000086589058
  0
LINE
  5
101
330
2
100
AcDbEntity
  8
7
100
AcDbLine
 10
283.5596097217398
 20
220.2457213020818
 30
-0.000000086589058
 11
280.5596097217398
 21
220.2457213020818
 31
-0.000000086589058
  0
LINE
  5
102
330
2
100
AcDbEntity
  8
0
100
AcDbLine
 10
282.0596097217403
 20
220.2457213020818
 30
-0.000000086589058
 11
283.1202698935198
 21
221.3063814738613
 31
-0.000000086589058
  0
CIRCLE
  5
103
330
2
100
AcDbEntity
  8
0
  6
RAYITAS
 62
     9
100
AcDbCircle
 10
293.8138884138357
 20
219.7457213020811
 30
-0.0000000957504277
 40
4.54103961029341
  0
TEXT
  5
104
330
2
100
AcDbEntity
  8
KR-TEXTOS
  6
CONTINUOUS
100
AcDbText
 10
287.8796954540248
 20
260.1619346614667
 30
-0.0000000931422287
 40
2.0
  1
600.40
 50
90.0
  7
DEYP
 72
     1
 11
286.8796954540248
 21
265.447648947181
 31
-0.0000000931422287
100
AcDbText
 73
     2
  0
TEXT
  5
105
330
2
100
AcDbEntity
  8
KR-TEXTOS
  6
CONTINUOUS
100
AcDbText
 10
283.0596097217408
 20
260.2095537090858
 30
-0.0000000931422287
 40
2.0
  1
20.920
 50
90.0
  7
DEYP
 72
     1
 11
282.0596097217407
 21
265.447648947181
 31
-0.0000000931422287
100
AcDbText
 73
     2
  0
INSERT
  5
106
330
2
100
AcDbEntity
  8
KR-TEXTOS
  6
CONTINUOUS
100
AcDbBlockReference
  2
SIM10
 10
286.8796954540248
 20
258.7558645976717
 30
-0.0000000931422287
 41
2.0
 42
2.0
 43
2.0
 50
90.0
  0
INSERT
  5
107
330
2
100
AcDbEntity
  8
KR-TEXTOS
  6
CONTINUOUS
100
AcDbBlockReference
  2
SIM10
 10
282.0596097217407
 20
258.7558645976717
 30
-0.0000000931422287
 41
2.0
 42
2.0
 43
2.0
 50
90.0
  0
TEXT
  5
108
330
2
100
AcDbEntity
  8
KR-GRUESA
  6
CONTINUOUS
 62
     5
100
AcDbText
 10
166.832305849174
 20
367.0406092198993
 30
-0.0000000814951386
 40
3.5
  1
PÓRTICO 9 . BLOQUE SUR
  7
ROMANS
 72
     1
 11
202.7489725158407
 21
367.0406092198993
 31
-0.0000000814951386
100
AcDbText
  0
LINE
  5
10A
330
2
100
AcDbEntity
  8
0
 62
     7
100
AcDbLine
 10
167.3817556111357
 20
365.7514742439041
 30
-0.0000000814951386
 11
238.2646256474186
 21
365.7514742439041
 31
-0.0000000814951386
  0
TEXT
  5
10B
330
2
100
AcDbEntity
  8
KR-TEXTOS
  6
CONTINUOUS
100
AcDbText
 10
-76.10393948153523
 20
211.0503762840196
 30
-0.0000000712825634
 40
2.0
  1
VER PLANOS DE PLANTA
  7
DEYP
100
AcDbText
  0
TEXT
  5
10C
330
2
100
AcDbEntity
  8
KR-TEXTOS
  6
CONTINUOUS
100
AcDbText
 10
-76.10393948153523
 20
214.9586709617522
 30
-0.0000000712825634
 40
2.0
  1
VARIABLE SEGÚN PÓRTICOS
  7
DEYP
100
AcDbText
  0
LINE
  5
10D
330
2
100
AcDbEntity
  8
0
 62
     7
100
AcDbLine
 10
-75.76471242573416
 20
214.0045236228859
 30
-0.0000000712825634
 11
-29.058126037713
 21
214.0045236228859
 31
-0.0000000712825634
  0
CIRCLE
  5
10E
330
2
100
AcDbEntity
  8
0
  6
RAYITAS
 62
     9
100
AcDbCircle
 10
-77.73854828045933
 20
53.78153187269095
 30
0.0000001108861715
 40
6.054719480391213
  0
LWPOLYLINE
  5
10F
330
2
100
AcDbEntity
  8
0
 62
     5
100
AcDbPolyline
 90
        2
 70
     0
 43
1.0
 38
0.0000001108861715
 10
-77.73854828045933
 20
59.83625135308216
 10
-77.73854828045933
 20
47.72681239229974
  0
LWPOLYLINE
  5
110
330
2
100
AcDbEntity
  8
0
100
AcDbPolyline
 90
        4
 70
     0
 43
0.0
 38
-0.0000000712825634
 10
-95.03040150497577
 20
166.4844441900927
 10
-100.0304015049757
 20
166.4844441900927
 10
-100.0304015049764
 20
226.3095284937053
 10
-95.03040150497623
 20
226.3095284937053
  0
TEXT
  5
111
330
2
100
AcDbEntity
  8
KR-TEXTOS
  6
CONTINUOUS
100
AcDbText
 10
-104.6008026027528
 20
290.18183201542
 30
0.0000000841149835
 40
2.5
  1
$3
  7
DEYP
 72
     1
 11
-102.2198502218004
 21
291.43183201542
 31
0.0000000841149835
100
AcDbText
 73
     2
  0
LWPOLYLINE
  5
112
330
2
100
AcDbEntity
  8
0
100
AcDbPolyline
 90
        4
 70
     0
 43
0.0
 38
0.0000001610056536
 10
-93.66802461601741
 20
277.9921372112337
 10
-98.66802461601743
 20
277.9921372112337
 10
-98.6680246160181
 20
304.8715268196062
 10
-93.66802461601787
 20
304.8715268196062
  0
LINE
  5
113
330
2
100
AcDbEntity
  8
9
100
AcDbLine
 10
282.0596097217403
 20
-11.75427869210966
 30
0.0000000849342025
 11
282.0596097217407
 21
76.82295781484504
 31
-0.000000056506376
  0
LWPOLYLINE
  5
114
330
2
100
AcDbEntity
  8
0
 62
     5
100
AcDbPolyline
 90
        2
 70
     0
 43
1.0
 38
0.0000000407528276
 10
293.8138884138357
 20
296.0601429706819
 10
293.8138884138357
 20
-11.75427869210148
  0
LWPOLYLINE
  5
115
330
2
100
AcDbEntity
  8
0
 62
     5
100
AcDbPolyline
 90
        2
 70
     0
 43
1.0
 38
0.0000001108861715
 10
0.0
 20
296.060142970673
 10
0.0
 20
-11.75427869208533
  0
LINE
  5
116
330
2
100
AcDbEntity
  8
9
100
AcDbLine
 10
-11.75427869209534
 20
-11.75427869209283
 30
0.0000000806091062
 11
-11.75427869209534
 21
84.02881497368253
 31
-0.0000000755435178
  0
TEXT
  5
117
330
2
100
AcDbEntity
  8
KR-TEXTOS
100
AcDbText
 10
107.018422373103
 20
-64.64603026702616
 30
-0.0000000171943847
 40
2.0
  1
VIGA TRANSVERSAL AL PÓRTICO
  7
ROMANS
 11
107.018422373103
 21
-63.64603026702616
 31
-0.0000000171943847
100
AcDbText
 73
     2
  0
TEXT
  5
118
330
2
100
AcDbEntity
  8
KR-TEXTOS
100
AcDbText
 10
107.018422373103
 20
-69.88412550512134
 30
-0.0000000171943847
 40
2.0
  1
VIGA MIXTA CON CONECTADORES DEFINIDOS EN CUADROS APARTE
  7
ROMANS
 11
107.018422373103
 21
-68.88412550512135
 31
-0.0000000171943847
100
AcDbText
 73
     2
  0
TEXT
  5
119
330
2
100
AcDbEntity
  8
KR-TEXTOS
100
AcDbText
 10
107.018422373103
 20
-75.12222074321653
 30
-0.0000000171943847
 40
2.0
  1
VIGA CON PERFIL INTERRUMPIDO PERO CON UNIONES EN CONTINUIDAD DEFINIDAS EN DETALLES APARTE
  7
ROMANS
 11
107.018422373103
 21
-74.12222074321653
 31
-0.0000000171943847
100
AcDbText
 73
     2
  0
LINE
  5
11A
330
2
100
AcDbEntity
  8
9
100
AcDbLine
 10
70.68226588392372
 20
43.27867206069572
 30
0.00000009407646
 11
214.8520052736134
 21
43.27867206069572
 31
0.0000000595456323
  0
LINE
  5
11B
330
2
100
AcDbEntity
  8
7
100
AcDbLine
 10
-10.25427869209579
 20
-11.75427869209306
 30
0.0
 11
-13.25427869209579
 21
-11.75427869209306
 31
0.0
  0
LINE
  5
11C
330
2
100
AcDbEntity
  8
7
100
AcDbLine
 10
-10.25427869209579
 20
-11.75427869209306
 30
0.0
 11
-13.25427869209579
 21
-11.75427869209306
 31
0.0
  0
LINE
  5
11D
330
2
100
AcDbEntity
  8
9
100
AcDbLine
 10
-11.75427869209579
 20
-11.75427869209261
 30
0.0
 11
-12.81493886387579
 21
-10.69361852031306
 31
0.0
  0
LINE
  5
11E
330
2
100
AcDbEntity
  8
0
100
AcDbLine
 10
-11.75427869209534
 20
-11.75427869209306
 30
0.0
 11
-10.69361852031533
 21
-10.69361852031329
 31
0.0
  0
LINE
  5
11F
330
2
100
AcDbEntity
  8
9
100
AcDbLine
 10
133.8723671199081
 20
-11.75427869209283
 30
0.0000000806091062
 11
133.8723671199081
 21
55.76574428439698
 31
-0.0000000294669871
  0
TEXT
  5
120
330
2
100
AcDbEntity
  8
KR-TEXTOS
100
AcDbText
 10
80.72867442819916
 20
-75.12222074321653
 30
-0.0000000171943847
 40
2.0
  1
V. CONT.
  7
ROMANS
 11
80.72867442819916
 21
-74.12222074321653
 31
-0.0000000171943847
100
AcDbText
 73
     2
  0
TEXT
  5
121
330
2
100
AcDbEntity
  8
KR-TEXTOS
100
AcDbText
 10
80.72867442819916
 20
-80.36031598131172
 30
-0.0000000171943847
 40
2.0
  1
SIN INT.
  7
ROMANS
 11
80.72867442819916
 21
-79.36031598131171
 31
-0.0000000171943847
100
AcDbText
 73
     2
  0
TEXT
  5
122
330
2
100
AcDbEntity
  8
KR-TEXTOS
100
AcDbText
 10
80.72867442819916
 20
-64.64603026702616
 30
-0.0000000171943847
 40
2.0
  1
V. TRANSV.
  7
ROMANS
 11
80.72867442819916
 21
-63.64603026702616
 31
-0.0000000171943847
100
AcDbText
 73
     2
  0
TEXT
  5
123
330
2
100
AcDbEntity
  8
KR-TEXTOS
100
AcDbText
 10
80.72867442819916
 20
-59.40793502893098
 30
-0.0000000171943847
 40
2.0
  1
V.B.
  7
ROMANS
 11
80.72867442819916
 21
-58.40793502893098
 31
-0.0000000171943847
100
AcDbText
 73
     2
  0
TEXT
  5
124
330
2
100
AcDbEntity
  8
KR-TEXTOS
100
AcDbText
 10
80.72867442819916
 20
-85.5984112194069
 30
-0.0000000171943847
 40
2.0
  1
A
  7
ROMANS
 11
80.72867442819916
 21
-84.59841121940689
 31
-0.0000000171943847
100
AcDbText
 73
     2
  0
TEXT
  5
125
330
2
100
AcDbEntity
  8
KR-TEXTOS
100
AcDbText
 10
80.72867442819916
 20
-69.88412550512134
 30
-0.0000000171943847
 40
2.0
  1
V. MIX.
  7
ROMANS
 11
80.72867442819916
 21
-68.88412550512135
 31
-0.0000000171943847
100
AcDbText
 73
     2
  0
TEXT
  5
126
330
2
100
AcDbEntity
  8
KR-TEXTOS
100
AcDbText
 10
107.018422373103
 20
-59.40793502893098
 30
-0.0000000171943847
 40
2.0
  1
VIGA DE BORDE
  7
ROMANS
 11
107.018422373103
 21
-58.40793502893098
 31
-0.0000000171943847
100
AcDbText
 73
     2
  0
TEXT
  5
127
330
2
100
AcDbEntity
  8
KR-TEXTOS
100
AcDbText
 10
101.6178127160892
 20
-64.64603026702616
 30
-0.0000000171943847
 40
2.0
  1
:
  7
ROMANS
 11
101.6178127160892
 21
-63.64603026702616
 31
-0.0000000171943847
100
AcDbText
 73
     2
  0
TEXT
  5
128
330
2
100
AcDbEntity
  8
KR-TEXTOS
100
AcDbText
 10
101.6178127160892
 20
-59.40793502893098
 30
-0.0000000171943847
 40
2.0
  1
:
  7
ROMANS
 11
101.6178127160892
 21
-58.40793502893098
 31
-0.0000000171943847
100
AcDbText
 73
     2
  0
TEXT
  5
129
330
2
100
AcDbEntity
  8
KR-TEXTOS
100
AcDbText
 10
101.6178127160892
 20
-69.88412550512134
 30
-0.0000000171943847
 40
2.0
  1
:
  7
ROMANS
 11
101.6178127160892
 21
-68.88412550512135
 31
-0.0000000171943847
100
AcDbText
 73
     2
  0
TEXT
  5
12A
330
2
100
AcDbEntity
  8
KR-TEXTOS
100
AcDbText
 10
101.6178127160892
 20
-85.5984112194069
 30
-0.0000000171943847
 40
2.0
  1
:
  7
ROMANS
 11
101.6178127160892
 21
-84.59841121940689
 31
-0.0000000171943847
100
AcDbText
 73
     2
  0
TEXT
  5
12B
330
2
100
AcDbEntity
  8
KR-TEXTOS
100
AcDbText
 10
101.6178127160892
 20
-80.36031598131172
 30
-0.0000000171943847
 40
2.0
  1
:
  7
ROMANS
 11
101.6178127160892
 21
-79.36031598131171
 31
-0.0000000171943847
100
AcDbText
 73
     2
  0
TEXT
  5
12C
330
2
100
AcDbEntity
  8
KR-TEXTOS
100
AcDbText
 10
101.6178127160892
 20
-75.12222074321653
 30
-0.0000000171943847
 40
2.0
  1
:
  7
ROMANS
 11
101.6178127160892
 21
-74.12222074321653
 31
-0.0000000171943847
100
AcDbText
 73
     2
  0
LINE
  5
12D
330
2
100
AcDbEntity
  8
9
100
AcDbLine
 10
133.8723671199077
 20
-11.75427869209261
 30
0.0
 11
132.8117069481277
 21
-10.69361852031306
 31
0.0
  0
LINE
  5
12E
330
2
100
AcDbEntity
  8
7
100
AcDbLine
 10
135.3723671199077
 20
-11.75427869209306
 30
0.0
 11
132.3723671199077
 21
-11.75427869209306
 31
0.0
  0
LINE
  5
12F
330
2
100
AcDbEntity
  8
7
100
AcDbLine
 10
135.3723671199077
 20
-11.75427869209306
 30
0.0
 11
132.3723671199077
 21
-11.75427869209306
 31
0.0
  0
LINE
  5
130
330
2
100
AcDbEntity
  8
0
100
AcDbLine
 10
133.8723671199081
 20
-11.75427869209306
 30
0.0
 11
134.9330272916881
 21
-10.69361852031329
 31
0.0
  0
LINE
  5
131
330
2
100
AcDbEntity
  8
0
100
AcDbLine
 10
126.9098460714644
 20
43.27867206069572
 30
0.0
 11
125.8491858996844
 21
42.21801188891572
 31
0.0
  0
LINE
  5
132
330
2
100
AcDbEntity
  8
9
100
AcDbLine
 10
126.909846071464
 20
43.27867206069618
 30
0.0
 11
125.8491858996844
 21
44.33933223247618
 31
0.0
  0
LINE
  5
133
330
2
100
AcDbEntity
  8
7
100
AcDbLine
 10
126.9098460714644
 20
41.77867206069618
 30
0.0
 11
126.9098460714644
 21
44.77867206069618
 31
0.0
  0
LINE
  5
134
330
2
100
AcDbEntity
  8
7
100
AcDbLine
 10
126.9098460714644
 20
41.77867206069618
 30
0.0
 11
126.9098460714644
 21
44.77867206069618
 31
0.0
  0
LINE
  5
135
330
2
100
AcDbEntity
  8
9
100
AcDbLine
 10
126.9098460714649
 20
43.27867206069618
 30
0.0
 11
127.9705062432444
 21
44.33933223247618
 31
0.0
  0
LINE
  5
136
330
2
100
AcDbEntity
  8
0
100
AcDbLine
 10
126.9098460714644
 20
43.27867206069572
 30
0.0
 11
127.970506243244
 21
42.21801188891572
 31
0.0
  0
LINE
  5
137
330
2
100
AcDbEntity
  8
9
100
AcDbLine
 10
0.5
 20
43.27867206069572
 30
0.0000001108861715
 11
56.22758018754075
 21
43.27867206069572
 31
0.0000000975385753
  0
CIRCLE
  5
138
330
2
100
AcDbEntity
  8
0
  6
RAYITAS
 62
     9
100
AcDbCircle
 10
0.0
 20
53.78153187269095
 30
0.0000001108861715
 40
6.054719480391213
  0
LINE
  5
139
330
2
100
AcDbEntity
  8
7
100
AcDbLine
 10
0.5
 20
41.77867206069572
 30
0.0000001108861715
 11
0.5
 21
44.77867206069572
 31
0.0000001108861715
  0
LINE
  5
13A
330
2
100
AcDbEntity
  8
0
100
AcDbLine
 10
0.5
 20
43.27867206069527
 30
0.0000001108861715
 11
1.560660171779545
 21
42.21801188891527
 31
0.0000001108861715
  0
LINE
  5
13B
330
2
100
AcDbEntity
  8
9
100
AcDbLine
 10
0.5000000000004548
 20
43.27867206069572
 30
0.0000001108861715
 11
1.56066017178
 21
44.33933223247572
 31
0.0000001108861715
  0
LINE
  5
13C
330
2
100
AcDbEntity
  8
9
100
AcDbLine
 10
229.3066909699964
 20
43.27867206069572
 30
0.000000056083517
 11
293.3138884138356
 21
43.27867206069572
 31
0.0000000407528276
  0
LINE
  5
13D
330
2
100
AcDbEntity
  8
0
100
AcDbLine
 10
166.9098460714644
 20
43.27867206069572
 30
-0.0000000350878274
 11
167.970506243244
 21
42.21801188891572
 31
-0.0000000350878274
  0
LINE
  5
13E
330
2
100
AcDbEntity
  8
9
100
AcDbLine
 10
166.9098460714649
 20
43.27867206069618
 30
-0.0000000350878274
 11
167.9705062432444
 21
44.33933223247618
 31
-0.0000000350878274
  0
LINE
  5
13F
330
2
100
AcDbEntity
  8
7
100
AcDbLine
 10
166.9098460714644
 20
41.77867206069618
 30
-0.0000000350878274
 11
166.9098460714644
 21
44.77867206069618
 31
-0.0000000350878274
  0
LINE
  5
140
330
2
100
AcDbEntity
  8
7
100
AcDbLine
 10
166.9098460714644
 20
41.77867206069618
 30
-0.0000000350878274
 11
166.9098460714644
 21
44.77867206069618
 31
-0.0000000350878274
  0
LINE
  5
141
330
2
100
AcDbEntity
  8
9
100
AcDbLine
 10
166.909846071464
 20
43.27867206069618
 30
-0.0000000350878274
 11
165.8491858996844
 21
44.33933223247618
 31
-0.0000000350878274
  0
LINE
  5
142
330
2
100
AcDbEntity
  8
0
100
AcDbLine
 10
166.9098460714644
 20
43.27867206069572
 30
-0.0000000350878274
 11
165.8491858996844
 21
42.21801188891572
 31
-0.0000000350878274
  0
LINE
  5
143
330
2
100
AcDbEntity
  8
0
100
AcDbLine
 10
287.059609721741
 20
-61.54774243461861
 30
-0.0000000586926471
 11
282.059609721741
 21
-61.54774243461861
 31
-0.0000000586926471
  0
TEXT
  5
144
330
2
100
AcDbEntity
  8
KR-TEXTOS
  6
CONTINUOUS
100
AcDbText
 10
286.8652442491772
 20
-47.79010735022734
 30
-0.0000000171943847
 40
2.0
  1
NOTA:
  7
DEYP
100
AcDbText
  0
LINE
  5
145
330
2
100
AcDbEntity
  8
0
 62
     7
100
AcDbLine
 10
287.2044713049779
 20
-48.74425468909362
 30
-0.0000000171943847
 11
295.5903173668687
 21
-48.74425468909362
 31
-0.0000000171943847
  0
LINE
  5
146
330
2
100
AcDbEntity
  8
9
100
AcDbLine
 10
282.0596097217403
 20
-11.75427869210921
 30
0.0000000043250962
 11
280.9989495499598
 21
-10.69361852032966
 31
0.0000000043250962
  0
LINE
  5
147
330
2
100
AcDbEntity
  8
0
100
AcDbLine
 10
282.0596097217407
 20
-11.75427869210966
 30
0.0000000043250962
 11
283.1202698935203
 21
-10.69361852032989
 31
0.0000000043250962
  0
LINE
  5
148
330
2
100
AcDbEntity
  8
7
100
AcDbLine
 10
283.5596097217403
 20
-11.75427869210966
 30
0.0000000043250962
 11
280.5596097217403
 21
-11.75427869210966
 31
0.0000000043250962
  0
LINE
  5
149
330
2
100
AcDbEntity
  8
7
100
AcDbLine
 10
283.5596097217403
 20
-11.75427869210966
 30
0.0000000043250962
 11
280.5596097217403
 21
-11.75427869210966
 31
0.0000000043250962
  0
LINE
  5
14A
330
2
100
AcDbEntity
  8
0
100
AcDbLine
 10
293.3138884138356
 20
43.27867206069527
 30
0.0000000407528276
 11
292.2532282420556
 21
42.21801188891527
 31
0.0000000407528276
  0
LINE
  5
14B
330
2
100
AcDbEntity
  8
7
100
AcDbLine
 10
293.3138884138356
 20
41.77867206069572
 30
0.0000000407528276
 11
293.3138884138356
 21
44.77867206069572
 31
0.0000000407528276
  0
LINE
  5
14C
330
2
100
AcDbEntity
  8
9
100
AcDbLine
 10
293.3138884138352
 20
43.27867206069572
 30
0.0000000407528276
 11
292.2532282420556
 21
44.33933223247572
 31
0.0000000407528276
  0
CIRCLE
  5
14D
330
2
100
AcDbEntity
  8
0
  6
RAYITAS
 62
     9
100
AcDbCircle
 10
146.9040423423712
 20
53.78153187269095
 30
0.0000001108861715
 40
6.054719480391213
  0
CIRCLE
  5
14E
330
2
100
AcDbEntity
  8
0
  6
RAYITAS
 62
     9
100
AcDbCircle
 10
293.8080846847424
 20
53.78153187269095
 30
0.0000001108861715
 40
6.054719480391213
  0
LINE
  5
14F
330
2
100
AcDbEntity
  8
0
 62
     7
100
AcDbLine
 10
162.5756662142291
 20
243.4490971054392
 30
0.0000001006735963
 11
110.7543738295419
 21
243.4490971054392
 31
0.0000001006735963
  0
TEXT
  5
150
330
2
100
AcDbEntity
  8
KR-TEXTOS
  6
CONTINUOUS
100
AcDbText
 10
111.9427493512062
 20
244.4032444443055
 30
0.0000001006735963
 40
2.0
  1
PERFIL DE FORJADO MIXT. CONT.
  7
DEYP
100
AcDbText
  0
LINE
  5
151
330
2
100
AcDbEntity
  8
0
 62
     7
100
AcDbLine
 10
152.8491190514269
 20
319.7635187740311
 30
0.0000001006735963
 11
110.7543738295403
 21
319.7635187740311
 31
0.0000001006735963
  0
TEXT
  5
152
330
2
100
AcDbEntity
  8
KR-TEXTOS
  6
CONTINUOUS
100
AcDbText
 10
111.9427493512046
 20
320.7176661128974
 30
0.0000001006735963
 40
2.0
  1
PERFIL DE FORJADO CONT.
  7
DEYP
100
AcDbText
  0
TEXT
  5
153
330
2
100
AcDbEntity
  8
KR-TEXTOS
100
AcDbText
 10
134.4422382483247
 20
354.3464656206054
 30
-0.0000000171943847
 40
2.0
  1
VER RESTO DEFINICIÓN DE PERFILES Y ARMADURAS EN PLANOS DE PLANTA Y DETALLES
  7
ROMANS
 72
     1
 11
202.8231906292771
 21
355.3464656206053
 31
-0.0000000171943847
100
AcDbText
 73
     2
  0
LWPOLYLINE
  5
154
330
2
100
AcDbEntity
  8
0
 62
     5
100
AcDbPolyline
 90
        2
 70
     0
 43
1.0
 38
0.0000001108861715
 10
293.8138884138357
 20
296.0601429706796
 10
0.0
 20
296.060142970673
  0
LWPOLYLINE
  5
155
330
2
100
AcDbEntity
  8
0
 62
     5
100
AcDbPolyline
 90
        2
 70
     0
 43
1.0
 38
0.0000001108861715
 10
293.8138884138357
 20
219.7457213020877
 10
0.0
 20
219.7457213020811
  0
LINE
  5
156
330
2
100
AcDbEntity
  8
9
100
AcDbLine
 10
0.5
 20
124.113755091407
 30
0.0000001751869254
 11
139.4553190302203
 21
124.113755091407
 31
0.0000001618393292
  0
TEXT
  5
157
330
2
100
AcDbEntity
  8
KR-TEXTOS
  6
CONTINUOUS
100
AcDbText
 10
114.8117061116795
 20
201.7232137835369
 30
0.0000001108861715
 40
2.0
  1
CONTRAFLECHA DE EJECUCION = L/1000
  7
DEYP
 72
     1
 11
146.9069442069176
 21
202.7232137835369
 31
0.0000001108861715
100
AcDbText
 73
     2
  0
TEXT
  5
158
330
2
100
AcDbEntity
  8
KR-TEXTOS
  6
CONTINUOUS
100
AcDbText
 10
114.8117061116795
 20
278.0376354521288
 30
0.0000001108861715
 40
2.0
  1
CONTRAFLECHA DE EJECUCION = L/1000
  7
DEYP
 72
     1
 11
146.9069442069176
 21
279.0376354521288
 31
0.0000001108861715
100
AcDbText
 73
     2
  0
TEXT
  5
159
330
2
100
AcDbEntity
  8
KR-TEXTOS
  6
CONTINUOUS
100
AcDbText
 10
130.0498013497747
 20
302.001452320376
 30
0.0000001108861715
 40
2.0
  1
V. MIX. SIN INT. A52d
  7
DEYP
 72
     1
 11
146.9069442069176
 21
303.001452320376
 31
0.0000001108861715
100
AcDbText
 73
     2
  0
TEXT
  5
15A
330
2
100
AcDbEntity
  8
KR-TEXTOS
  6
CONTINUOUS
100
AcDbText
 10
130.0498013497747
 20
225.6870306517841
 30
0.0000001108861715
 40
2.0
  1
V. MIX. SIN INT. A52d
  7
DEYP
 72
     1
 11
146.9069442069176
 21
226.6870306517842
 31
0.0000001108861715
100
AcDbText
 73
     2
  0
LWPOLYLINE
  5
15B
330
2
100
AcDbEntity
  8
0
 62
     5
100
AcDbPolyline
 90
        2
 70
     0
 43
1.0
 38
-0.0000000712825634
 10
293.8138884138357
 20
132.2807415828306
 10
0.0
 20
132.2807415828242
  0
TEXT
  5
15C
330
2
100
AcDbEntity
  8
KR-TEXTOS
  6
CONTINUOUS
100
AcDbText
 10
130.0498013497747
 20
138.222050932527
 30
-0.0000000712825634
 40
2.0
  1
V. MIX. SIN INT. A52d
  7
DEYP
 72
     1
 11
146.9069442069176
 21
139.222050932527
 31
-0.0000000712825634
100
AcDbText
 73
     2
  0
TEXT
  5
15D
330
2
100
AcDbEntity
  8
KR-TEXTOS
  6
CONTINUOUS
100
AcDbText
 10
114.8117061116795
 20
114.2582340642798
 30
-0.0000000712825634
 40
2.0
  1
CONTRAFLECHA DE EJECUCION = L/1000
  7
DEYP
 72
     1
 11
146.9069442069176
 21
115.2582340642797
 31
-0.0000000712825634
100
AcDbText
 73
     2
  0
LWPOLYLINE
  5
15E
330
2
100
AcDbEntity
  8
9
100
AcDbPolyline
 90
        7
 70
     0
 43
0.0
 38
-0.0000000712825634
 10
-27.86488334446062
 20
209.7686652979011
 10
-28.46150469108692
 20
210.365286644527
 10
-28.46150469108692
 20
213.40790227626
 10
-29.058126037713
 20
214.0045236228859
 10
-28.46150469108692
 20
214.6011449695122
 10
-28.46150469108692
 20
217.5308062570559
 10
-27.86488334446062
 20
218.1274276036822
  0
LWPOLYLINE
  5
15F
330
2
100
AcDbEntity
  8
0
 62
     5
100
AcDbPolyline
 90
        2
 70
     0
 43
1.0
 38
-0.0000000712825634
 10
0.0
 20
132.2807415828242
 10
-30.0
 20
132.2807415828235
  0
CIRCLE
  5
160
330
2
100
AcDbEntity
  8
0
  6
RAYITAS
 62
     9
100
AcDbCircle
 10
0.0
 20
132.2807415828242
 30
-0.0000000712825634
 40
4.54103961029341
  0
TEXT
  5
161
330
2
100
AcDbEntity
  8
KR-TEXTOS
  6
CONTINUOUS
100
AcDbText
 10
-26.57505208222687
 20
133.6580937278024
 30
-0.0000000712825634
 40
2.0
  1
V. MIX. CONT.
  7
DEYP
100
AcDbText
  0
TEXT
  5
162
330
2
100
AcDbEntity
  8
KR-TEXTOS
  6
CONTINUOUS
100
AcDbText
 10
-26.49035435976998
 20
125.4891954161928
 30
-0.0000000712825634
 40
2.0
  1
HEB 600 A52
  7
DEYP
100
AcDbText
  0
TEXT
  5
163
330
2
100
AcDbEntity
  8
KR-TEXTOS
  6
CONTINUOUS
100
AcDbText
 10
-26.49035435976998
 20
128.6642703660315
 30
-0.0000000712825634
 40
2.0
  1
HEA 600 A52
  7
DEYP
100
AcDbText
  0
LWPOLYLINE
  5
164
330
2
100
AcDbEntity
  8
9
100
AcDbPolyline
 90
        7
 70
     0
 43
0.0
 38
-0.0000000772239772
 10
-4.886595297703479
 20
86.1501353172423
 10
-5.947255469483025
 20
85.08947514546253
 10
-10.69361852031533
 20
85.08947514546253
 10
-11.75427869209488
 20
84.02881497368275
 10
-12.81493886387488
 20
85.08947514546253
 10
-17.53076621215041
 20
85.08947514546253
 10
-18.59142638393041
 20
86.1501353172423
  0
LWPOLYLINE
  5
165
330
2
100
AcDbEntity
  8
9
100
AcDbPolyline
 90
        7
 70
     0
 43
0.0
 38
-0.0000000772239772
 10
-4.886595297703479
 20
102.3963505499791
 10
-5.947255469483025
 20
103.4570107217589
 10
-10.69361852031533
 20
103.4570107217589
 10
-11.75427869209488
 20
104.5176708935389
 10
-12.81493886387488
 20
103.4570107217589
 10
-17.53076621215041
 20
103.4570107217589
 10
-18.59142638393041
 20
102.3963505499791
  0
TEXT
  5
166
330
2
100
AcDbEntity
  8
KR-TEXTOS
  6
CONTINUOUS
100
AcDbText
 10
-15.58016815347264
 20
166.4364075168777
 30
-0.000000033166571
 40
2.0
  1
600.70
 50
90.0
  7
DEYP
 72
     1
 11
-16.58016815347264
 21
171.722121802592
 31
-0.000000033166571
100
AcDbText
 73
     2
  0
TEXT
  5
167
330
2
100
AcDbEntity
  8
KR-TEXTOS
  6
CONTINUOUS
100
AcDbText
 10
-10.76008242118859
 20
166.4840265644967
 30
-0.000000033166571
 40
2.0
  1
30.860
 50
90.0
  7
DEYP
 72
     1
 11
-11.7600824211886
 21
171.722121802592
 31
-0.000000033166571
100
AcDbText
 73
     2
  0
TEXT
  5
168
330
2
100
AcDbEntity
  8
KR-TEXTOS
  6
CONTINUOUS
100
AcDbText
 10
-5.939996688904102
 20
166.4364075168777
 30
-0.000000033166571
 40
2.0
  1
600.70
 50
90.0
  7
DEYP
 72
     1
 11
-6.939996688904102
 21
171.722121802592
 31
-0.000000033166571
100
AcDbText
 73
     2
  0
INSERT
  5
169
330
2
100
AcDbEntity
  8
KR-TEXTOS
  6
CONTINUOUS
100
AcDbBlockReference
  2
SIM10
 10
-16.58016815347264
 20
165.0303374530826
 30
-0.000000033166571
 41
2.0
 42
2.0
 43
2.0
 50
90.0
  0
INSERT
  5
16A
330
2
100
AcDbEntity
  8
KR-TEXTOS
  6
CONTINUOUS
100
AcDbBlockReference
  2
SIM10
 10
-11.7600824211886
 20
165.0303374530826
 30
-0.000000033166571
 41
2.0
 42
2.0
 43
2.0
 50
90.0
  0
INSERT
  5
16B
330
2
100
AcDbEntity
  8
KR-TEXTOS
  6
CONTINUOUS
100
AcDbBlockReference
  2
SIM10
 10
-6.939996688904102
 20
165.0303374530826
 30
-0.000000033166571
 41
2.0
 42
2.0
 43
2.0
 50
90.0
  0
LWPOLYLINE
  5
16C
330
2
100
AcDbEntity
  8
9
100
AcDbPolyline
 90
        7
 70
     0
 43
0.0
 38
-0.0000000129232233
 10
-4.892399026796738
 20
162.1651326156695
 10
-5.953059198576283
 20
161.1044724438895
 10
-10.69942224940859
 20
161.1044724438895
 10
-11.76008242118814
 20
160.0438122721097
 10
-12.82074259296814
 20
161.1044724438895
 10
-17.53656994124367
 20
161.1044724438895
 10
-18.59723011302367
 20
162.1651326156695
  0
LWPOLYLINE
  5
16D
330
2
100
AcDbEntity
  8
9
100
AcDbPolyline
 90
        7
 70
     0
 43
0.0
 38
-0.0000000129232233
 10
-4.892399026796738
 20
178.4113478484061
 10
-5.953059198576283
 20
179.4720080201861
 10
-10.69942224940859
 20
179.4720080201861
 10
-11.76008242118814
 20
180.5326681919659
 10
-12.82074259296814
 20
179.4720080201861
 10
-17.53656994124367
 20
179.4720080201861
 10
-18.59723011302367
 20
178.4113478484061
  0
TEXT
  5
16E
330
2
100
AcDbEntity
  8
KR-TEXTOS
  6
CONTINUOUS
100
AcDbText
 10
5.242664127354558
 20
125.1866537324533
 30
-0.0000000712825634
 40
2.0
  1
25.1400
  7
DEYP
 72
     1
 11
11.43314031783074
 21
126.1866537324533
 31
-0.0000000712825634
100
AcDbText
 73
     2
  0
TEXT
  5
16F
330
2
100
AcDbEntity
  8
KR-TEXTOS
  6
CONTINUOUS
100
AcDbText
 10
7.830062871535487
 20
121.0408526473377
 30
-0.0000000712825634
 40
2.0
  1
2.0
  7
DEYP
 72
     1
 11
10.21101525248786
 21
122.0408526473377
 31
-0.0000000712825634
100
AcDbText
 73
     2
  0
INSERT
  5
170
330
2
100
AcDbEntity
  8
KR-TEXTOS
  6
CONTINUOUS
100
AcDbBlockReference
  2
SIM10
 10
3.661622993936816
 20
126.1866537324533
 30
-0.0000000712825634
 41
2.0
 42
2.0
 43
2.0
  0
CIRCLE
  5
171
330
2
100
AcDbEntity
  8
0
  6
RAYITAS
 62
     9
100
AcDbCircle
 10
-30.0
 20
219.7457213020811
 30
-0.0000000440912779
 40
3.405779707720057
  0
LWPOLYLINE
  5
172
330
2
100
AcDbEntity
  8
9
100
AcDbPolyline
 90
        7
 70
     0
 43
0.0
 38
-0.0000000129232233
 10
-4.892399026796738
 20
249.9215368157372
 10
-5.953059198576283
 20
248.8608766439572
 10
-10.69942224940859
 20
248.8608766439572
 10
-11.76008242118814
 20
247.8002164721774
 10
-12.82074259296814
 20
248.8608766439572
 10
-17.53656994124367
 20
248.8608766439572
 10
-18.59723011302367
 20
249.9215368157372
  0
INSERT
  5
173
330
2
100
AcDbEntity
  8
KR-TEXTOS
  6
CONTINUOUS
100
AcDbBlockReference
  2
SIM10
 10
-16.58016815347264
 20
252.7867416531503
 30
-0.000000033166571
 41
2.0
 42
2.0
 43
2.0
 50
90.0
  0
TEXT
  5
174
330
2
100
AcDbEntity
  8
KR-TEXTOS
  6
CONTINUOUS
100
AcDbText
 10
-15.58016815347264
 20
254.1928117169454
 30
-0.000000033166571
 40
2.0
  1
600.40
 50
90.0
  7
DEYP
 72
     1
 11
-16.58016815347264
 21
259.4785260026597
 31
-0.000000033166571
100
AcDbText
 73
     2
  0
INSERT
  5
175
330
2
100
AcDbEntity
  8
KR-TEXTOS
  6
CONTINUOUS
100
AcDbBlockReference
  2
SIM10
 10
-11.7600824211886
 20
252.7867416531503
 30
-0.000000033166571
 41
2.0
 42
2.0
 43
2.0
 50
90.0
  0
TEXT
  5
176
330
2
100
AcDbEntity
  8
KR-TEXTOS
  6
CONTINUOUS
100
AcDbText
 10
-10.76008242118859
 20
254.2404307645644
 30
-0.000000033166571
 40
2.0
  1
20.920
 50
90.0
  7
DEYP
 72
     1
 11
-11.7600824211886
 21
259.4785260026597
 31
-0.000000033166571
100
AcDbText
 73
     2
  0
INSERT
  5
177
330
2
100
AcDbEntity
  8
KR-TEXTOS
  6
CONTINUOUS
100
AcDbBlockReference
  2
SIM10
 10
-6.939996688904102
 20
252.7867416531503
 30
-0.000000033166571
 41
2.0
 42
2.0
 43
2.0
 50
90.0
  0
TEXT
  5
178
330
2
100
AcDbEntity
  8
KR-TEXTOS
  6
CONTINUOUS
100
AcDbText
 10
-5.939996688904102
 20
254.1928117169454
 30
-0.000000033166571
 40
2.0
  1
600.40
 50
90.0
  7
DEYP
 72
     1
 11
-6.939996688904102
 21
259.4785260026597
 31
-0.000000033166571
100
AcDbText
 73
     2
  0
LWPOLYLINE
  5
179
330
2
100
AcDbEntity
  8
9
100
AcDbPolyline
 90
        7
 70
     0
 43
0.0
 38
-0.0000000129232233
 10
-4.892399026796738
 20
266.1677520484738
 10
-5.953059198576283
 20
267.2284122202538
 10
-10.69942224940859
 20
267.2284122202538
 10
-11.76008242118814
 20
268.2890723920336
 10
-12.82074259296814
 20
267.2284122202538
 10
-17.53656994124367
 20
267.2284122202538
 10
-18.59723011302367
 20
266.1677520484738
  0
CIRCLE
  5
17A
330
2
100
AcDbEntity
  8
0
  6
RAYITAS
 62
     9
100
AcDbCircle
 10
-30.0
 20
296.060142970673
 30
-0.0000000440912779
 40
3.405779707720057
  0
CIRCLE
  5
17B
330
2
100
AcDbEntity
  8
0
  6
RAYITAS
 62
     9
100
AcDbCircle
 10
90.61570971854939
 20
132.2807415828263
 30
-0.0000000712825634
 40
4.54103961029341
  0
LINE
  5
17C
330
2
100
AcDbEntity
  8
0
 62
     7
100
AcDbLine
 10
12.86526737485655
 20
240.8982215475796
 30
0.0000001006735963
 11
48.38108250738651
 21
240.8982215475796
 31
0.0000001006735963
  0
TEXT
  5
17D
330
2
100
AcDbEntity
  8
KR-TEXTOS
  6
CONTINUOUS
100
AcDbText
 10
13.2013374912899
 20
241.8523688864459
 30
0.0000001006735963
 40
2.0
  1
V. TRANSV. MIX. CONT.
  7
DEYP
100
AcDbText
  0
LINE
  5
17E
330
2
100
AcDbEntity
  8
9
100
AcDbLine
 10
0.5
 20
139.222050932527
 30
0.0000001751869254
 11
128.3911501809047
 21
139.222050932527
 31
0.0000001629219138
  0
TEXT
  5
17F
330
2
100
AcDbEntity
  8
KR-TEXTOS
  6
CONTINUOUS
100
AcDbText
 10
-26.49035435976998
 20
209.7791001856116
 30
0.0000001108861715
 40
2.0
  1
HEM 600 A52
  7
DEYP
100
AcDbText
  0
LINE
  5
180
330
2
100
AcDbEntity
  8
0
100
AcDbLine
 10
20.0
 20
124.1137550914072
 30
0.0000001108861715
 11
21.06066017177954
 21
123.0530949196272
 31
0.0000001108861715
  0
LINE
  5
181
330
2
100
AcDbEntity
  8
0
100
AcDbLine
 10
20.0
 20
124.1137550914072
 30
0.0000001108861715
 11
18.93933982822
 21
123.0530949196272
 31
0.0000001108861715
  0
LINE
  5
182
330
2
100
AcDbEntity
  8
9
100
AcDbLine
 10
20.00000000000045
 20
124.1137550914077
 30
0.0000001108861715
 11
21.06066017178
 21
125.1744152631877
 31
0.0000001108861715
  0
LINE
  5
183
330
2
100
AcDbEntity
  8
9
100
AcDbLine
 10
19.99999999999954
 20
124.1137550914077
 30
0.0000001108861715
 11
18.93933982822
 21
125.1744152631877
 31
0.0000001108861715
  0
LINE
  5
184
330
2
100
AcDbEntity
  8
7
100
AcDbLine
 10
20.0
 20
122.6137550914077
 30
0.0000001108861715
 11
20.0
 21
125.6137550914077
 31
0.0000001108861715
  0
LINE
  5
185
330
2
100
AcDbEntity
  8
7
100
AcDbLine
 10
20.0
 20
122.6137550914077
 30
0.0000001108861715
 11
20.0
 21
125.6137550914077
 31
0.0000001108861715
  0
LINE
  5
186
330
2
100
AcDbEntity
  8
0
100
AcDbLine
 10
0.5
 20
124.1137550914065
 30
0.0000001751869254
 11
1.560660171779545
 21
123.0530949196267
 31
0.0000001751869254
  0
LINE
  5
187
330
2
100
AcDbEntity
  8
9
100
AcDbLine
 10
0.5000000000004548
 20
124.113755091407
 30
0.0000001751869254
 11
1.56066017178
 21
125.1744152631872
 31
0.0000001751869254
  0
LINE
  5
188
330
2
100
AcDbEntity
  8
7
100
AcDbLine
 10
0.5
 20
122.613755091407
 30
0.0000001751869254
 11
0.5
 21
125.613755091407
 31
0.0000001751869254
  0
TEXT
  5
189
330
2
100
AcDbEntity
  8
KR-TEXTOS
  6
CONTINUOUS
100
AcDbText
 10
7.830062871535487
 20
208.5058323665946
 30
0.0000001108861715
 40
2.0
  1
2.0
  7
DEYP
 72
     1
 11
10.21101525248786
 21
209.5058323665946
 31
0.0000001108861715
100
AcDbText
 73
     2
  0
LINE
  5
18A
330
2
100
AcDbEntity
  8
7
100
AcDbLine
 10
0.5
 20
137.722050932527
 30
0.0000001751869254
 11
0.5
 21
140.722050932527
 31
0.0000001751869254
  0
LINE
  5
18B
330
2
100
AcDbEntity
  8
0
100
AcDbLine
 10
0.5
 20
139.2220509325265
 30
0.0000001751869254
 11
1.560660171779545
 21
138.1613907607468
 31
0.0000001751869254
  0
LINE
  5
18C
330
2
100
AcDbEntity
  8
9
100
AcDbLine
 10
0.5000000000004548
 20
139.222050932527
 30
0.0000001751869254
 11
1.56066017178
 21
140.2827111043072
 31
0.0000001751869254
  0
LWPOLYLINE
  5
18D
330
2
100
AcDbEntity
  8
0
 62
     5
100
AcDbPolyline
 90
        2
 70
     0
 43
1.0
 38
0.0000001108861715
 10
0.0
 20
296.060142970673
 10
-30.0
 20
296.060142970673
  0
LWPOLYLINE
  5
18E
330
2
100
AcDbEntity
  8
0
 62
     5
100
AcDbPolyline
 90
        2
 70
     0
 43
1.0
 38
0.0000001108861715
 10
0.0
 20
219.7457213020811
 10
-30.0
 20
219.7457213020811
  0
TEXT
  5
18F
330
2
100
AcDbEntity
  8
KR-TEXTOS
  6
CONTINUOUS
100
AcDbText
 10
-26.57505208222687
 20
221.12307344706
 30
0.0000001108861715
 40
2.0
  1
V. MIX. CONT.
  7
DEYP
100
AcDbText
  0
TEXT
  5
190
330
2
100
AcDbEntity
  8
KR-TEXTOS
  6
CONTINUOUS
100
AcDbText
 10
-26.49035435976998
 20
216.1292500852892
 30
0.0000001108861715
 40
2.0
  1
HEA 600 A52
  7
DEYP
100
AcDbText
  0
TEXT
  5
191
330
2
100
AcDbEntity
  8
KR-TEXTOS
  6
CONTINUOUS
100
AcDbText
 10
-26.49035435976998
 20
212.9541751354504
 30
0.0000001108861715
 40
2.0
  1
HEB 600 A52
  7
DEYP
100
AcDbText
  0
TEXT
  5
192
330
2
100
AcDbEntity
  8
KR-TEXTOS
  6
CONTINUOUS
100
AcDbText
 10
-26.49035435976998
 20
292.443671753881
 30
0.0000001108861715
 40
2.0
  1
HEA 600 A52
  7
DEYP
100
AcDbText
  0
TEXT
  5
193
330
2
100
AcDbEntity
  8
KR-TEXTOS
  6
CONTINUOUS
100
AcDbText
 10
-26.57505208222687
 20
297.4374951156519
 30
0.0000001108861715
 40
2.0
  1
V. CONT.
  7
DEYP
100
AcDbText
  0
TEXT
  5
194
330
2
100
AcDbEntity
  8
KR-TEXTOS
  6
CONTINUOUS
100
AcDbText
 10
7.830062871535487
 20
284.8202540351865
 30
0.0000001108861715
 40
2.0
  1
2.0
  7
DEYP
 72
     1
 11
10.21101525248786
 21
285.8202540351864
 31
0.0000001108861715
100
AcDbText
 73
     2
  0
TEXT
  5
195
330
2
100
AcDbEntity
  8
KR-TEXTOS
  6
CONTINUOUS
100
AcDbText
 10
13.2013374912899
 20
237.9440742087133
 30
0.0000001006735963
 40
2.0
  1
HEA 600 A52d
  7
DEYP
100
AcDbText
  0
LINE
  5
196
330
2
100
AcDbEntity
  8
0
100
AcDbLine
 10
2.359738782500414
 20
223.6254988241328
 30
0.0000001090129878
 11
12.86526737485655
 21
240.8982215475796
 31
0.0000001006735963
  0
TEXT
  5
197
330
2
100
AcDbEntity
  8
KR-TEXTOS
  6
CONTINUOUS
100
AcDbText
 10
5.242664127354558
 20
212.6516334517102
 30
0.0000001108861715
 40
2.0
  1
25.1400
  7
DEYP
 72
     1
 11
11.43314031783074
 21
213.6516334517102
 31
0.0000001108861715
100
AcDbText
 73
     2
  0
INSERT
  5
198
330
2
100
AcDbEntity
  8
KR-TEXTOS
  6
CONTINUOUS
100
AcDbBlockReference
  2
SIM10
 10
3.661622993936816
 20
213.6516334517102
 30
0.0000001108861715
 41
2.0
 42
2.0
 43
2.0
  0
TEXT
  5
199
330
2
100
AcDbEntity
  8
KR-TEXTOS
  6
CONTINUOUS
100
AcDbText
 10
5.099806984497416
 20
288.9660551203021
 30
0.0000001108861715
 40
2.0
  1
15.1400
  7
DEYP
 72
     1
 11
11.43314031783074
 21
289.9660551203021
 31
0.0000001108861715
100
AcDbText
 73
     2
  0
INSERT
  5
19A
330
2
100
AcDbEntity
  8
KR-TEXTOS
  6
CONTINUOUS
100
AcDbBlockReference
  2
SIM10
 10
3.661622993936816
 20
289.9660551203021
 30
0.0000001108861715
 41
2.0
 42
2.0
 43
2.0
  0
CIRCLE
  5
19B
330
2
100
AcDbEntity
  8
0
  6
RAYITAS
 62
     9
100
AcDbCircle
 10
90.61570971854758
 20
219.7457213020832
 30
0.0000001108861715
 40
4.54103961029341
  0
CIRCLE
  5
19C
330
2
100
AcDbEntity
  8
0
  6
RAYITAS
 62
     9
100
AcDbCircle
 10
90.61570971854598
 20
296.0601429706751
 30
0.0000001108861715
 40
4.54103961029341
  0
TEXT
  5
19D
330
2
100
AcDbEntity
  8
KR-TEXTOS
  6
CONTINUOUS
100
AcDbText
 10
111.9427493512062
 20
240.4949497665729
 30
0.0000001006735963
 40
2.0
  1
IPE 500 A52
  7
DEYP
100
AcDbText
  0
LINE
  5
19E
330
2
100
AcDbEntity
  8
0
100
AcDbLine
 10
93.28889009452451
 20
223.4165723505111
 30
0.000000108255879
 11
110.7543738295419
 21
243.4490971054392
 31
0.0000001006735963
  0
TEXT
  5
19F
330
2
100
AcDbEntity
  8
KR-TEXTOS
  6
CONTINUOUS
100
AcDbText
 10
111.9427493512046
 20
316.8093714351648
 30
0.0000001006735963
 40
2.0
  1
IPE 450 A52
  7
DEYP
100
AcDbText
  0
LINE
  5
1A0
330
2
100
AcDbEntity
  8
0
100
AcDbLine
 10
93.28889009452291
 20
299.730994019103
 30
0.000000108255879
 11
110.7543738295403
 21
319.7635187740311
 31
0.0000001006735963
  0
LINE
  5
1A1
330
2
100
AcDbEntity
  8
9
100
AcDbLine
 10
282.0596097217407
 20
274.2581953365549
 30
-0.0000000399179423
 11
282.0596097217407
 21
295.5601429706789
 31
0.0000001108861715
  0
LINE
  5
1A2
330
2
100
AcDbEntity
  8
0
100
AcDbLine
 10
289.8500194479165
 20
298.6715309514418
 30
-0.0000000038512561
 11
275.8790027432419
 21
310.9462921469198
 31
0.0000001894422145
  0
TEXT
  5
1A3
330
2
100
AcDbEntity
  8
KR-TEXTOS
  6
CONTINUOUS
100
AcDbText
 10
141.8580156262716
 20
123.113755091407
 30
-0.0000000712825634
 40
2.0
  1
15.1400
  7
DEYP
 72
     1
 11
148.1913489596049
 21
124.113755091407
 31
-0.0000000712825634
100
AcDbText
 73
     2
  0
TEXT
  5
1A4
330
2
100
AcDbEntity
  8
KR-TEXTOS
  6
CONTINUOUS
100
AcDbText
 10
143.0133274441172
 20
127.9338408236913
 30
-0.0000000712825634
 40
2.0
  1
600.55
  7
DEYP
 72
     1
 11
148.2990417298315
 21
128.9338408236913
 31
-0.0000000712825634
100
AcDbText
 73
     2
  0
TEXT
  5
1A5
330
2
100
AcDbEntity
  8
KR-TEXTOS
  6
CONTINUOUS
100
AcDbText
 10
143.0133274441172
 20
118.2936693591227
 30
-0.0000000712825634
 40
2.0
  1
600.60
  7
DEYP
 72
     1
 11
148.2990417298315
 21
119.2936693591227
 31
-0.0000000712825634
100
AcDbText
 73
     2
  0
INSERT
  5
1A6
330
2
100
AcDbEntity
  8
KR-TEXTOS
  6
CONTINUOUS
100
AcDbBlockReference
  2
SIM10
 10
141.6072573803221
 20
128.9338408236913
 30
-0.0000000712825634
 41
2.0
 42
2.0
 43
2.0
  0
INSERT
  5
1A7
330
2
100
AcDbEntity
  8
KR-TEXTOS
  6
CONTINUOUS
100
AcDbBlockReference
  2
SIM10
 10
140.8544268659238
 20
124.113755091407
 30
-0.0000000712825634
 41
2.0
 42
2.0
 43
2.0
  0
INSERT
  5
1A8
330
2
100
AcDbEntity
  8
KR-TEXTOS
  6
CONTINUOUS
100
AcDbBlockReference
  2
SIM10
 10
141.6072573803221
 20
119.2936693591227
 30
-0.0000000712825634
 41
2.0
 42
2.0
 43
2.0
  0
LINE
  5
1A9
330
2
100
AcDbEntity
  8
0
100
AcDbLine
 10
290.088743185348
 20
134.8777270985578
 30
-0.0000000600482391
 11
273.693526106927
 21
145.9973243171864
 31
-0.0000000171943847
  0
INSERT
  5
1AA
330
2
100
AcDbEntity
  8
KR-TEXTOS
  6
CONTINUOUS
100
AcDbBlockReference
  2
SIM10
 10
277.1079133801427
 20
126.1866537324533
 30
-0.0000000712825634
 41
2.0
 42
2.0
 43
2.0
  0
LWPOLYLINE
  5
1AB
330
2
100
AcDbEntity
  8
9
100
AcDbPolyline
 90
        7
 70
     0
 43
0.0
 38
-0.000000072898881
 10
288.9272931161321
 20
187.3859474156899
 10
287.8666329443526
 20
188.4466075874697
 10
283.1202698935203
 20
188.4466075874697
 10
282.0596097217407
 20
189.5072677592495
 10
280.9989495499607
 20
188.4466075874697
 10
276.2831222016852
 20
188.4466075874697
 10
275.2224620299052
 20
187.3859474156899
  0
LWPOLYLINE
  5
1AC
330
2
100
AcDbEntity
  8
9
100
AcDbPolyline
 90
        7
 70
     0
 43
0.0
 38
-0.000000072898881
 10
288.9272931161321
 20
171.1397321829531
 10
287.8666329443526
 20
170.0790720111733
 10
283.1202698935203
 20
170.0790720111733
 10
282.0596097217407
 20
169.0184118393933
 10
280.9989495499607
 20
170.0790720111733
 10
276.2831222016852
 20
170.0790720111733
 10
275.2224620299052
 20
171.1397321829531
  0
LWPOLYLINE
  5
1AD
330
2
100
AcDbEntity
  8
9
100
AcDbPolyline
 90
        7
 70
     0
 43
0.0
 38
-0.000000072898881
 10
288.9272931161321
 20
104.5421492112766
 10
287.8666329443526
 20
105.6028093830564
 10
283.1202698935203
 20
105.6028093830564
 10
282.0596097217407
 20
106.6634695548361
 10
280.9989495499607
 20
105.6028093830564
 10
276.2831222016852
 20
105.6028093830564
 10
275.2224620299052
 20
104.5421492112766
  0
LWPOLYLINE
  5
1AE
330
2
100
AcDbEntity
  8
9
100
AcDbPolyline
 90
        7
 70
     0
 43
0.0
 38
-0.000000072898881
 10
288.9272931161321
 20
88.29593397853978
 10
287.8666329443526
 20
87.23527380676001
 10
283.1202698935203
 20
87.23527380676001
 10
282.0596097217407
 20
86.17461363498
 10
280.9989495499607
 20
87.23527380676001
 10
276.2831222016852
 20
87.23527380676001
 10
275.2224620299052
 20
88.29593397853978
  0
TEXT
  5
1AF
330
2
100
AcDbEntity
  8
KR-TEXTOS
  6
CONTINUOUS
100
AcDbText
 10
236.6747414317501
 20
143.0431769783201
 30
-0.0000000171943847
 40
2.0
  1
HEA 800 A52d
  7
DEYP
100
AcDbText
  0
TEXT
  5
1B0
330
2
100
AcDbEntity
  8
KR-TEXTOS
  6
CONTINUOUS
100
AcDbText
 10
236.6747414317501
 20
146.9514716560527
 30
-0.0000000171943847
 40
2.0
  1
V. TRANSV. MIX. CONT.
  7
DEYP
100
AcDbText
  0
LINE
  5
1B1
330
2
100
AcDbEntity
  8
0
 62
     7
100
AcDbLine
 10
237.0139684875507
 20
145.9973243171864
 30
-0.0000000171943847
 11
273.693526106927
 21
145.9973243171864
 31
-0.0000000171943847
  0
TEXT
  5
1B2
330
2
100
AcDbEntity
  8
KR-TEXTOS
  6
CONTINUOUS
100
AcDbText
 10
277.8995904042953
 20
125.1866537324533
 30
-0.0000000712825634
 40
2.0
  1
25.1400
  7
DEYP
 72
     1
 11
284.0900665947715
 21
126.1866537324533
 31
-0.0000000712825634
100
AcDbText
 73
     2
  0
LINE
  5
1B3
330
2
100
AcDbEntity
  8
0
100
AcDbLine
 10
282.0596097217407
 20
132.7807415828074
 30
-0.0000000669574672
 11
283.1202698935203
 21
133.8414017545874
 31
-0.0000000669574672
  0
LINE
  5
1B4
330
2
100
AcDbEntity
  8
9
100
AcDbLine
 10
282.0596097217403
 20
132.7807415828078
 30
-0.0000000669574672
 11
280.9989495499598
 21
133.8414017545874
 31
-0.0000000669574672
  0
LINE
  5
1B5
330
2
100
AcDbEntity
  8
7
100
AcDbLine
 10
283.5596097217403
 20
131.7807415828074
 30
-0.0000000669574672
 11
280.5596097217403
 21
131.7807415828074
 31
-0.0000000669574672
  0
LINE
  5
1B6
330
2
100
AcDbEntity
  8
7
100
AcDbLine
 10
283.5596097217403
 20
131.7807415828074
 30
-0.0000000669574672
 11
280.5596097217403
 21
131.7807415828074
 31
-0.0000000669574672
  0
LINE
  5
1B7
330
2
100
AcDbEntity
  8
0
100
AcDbLine
 10
282.0596097217407
 20
131.7807415828074
 30
-0.0000000669574672
 11
283.1202698935203
 21
130.7200814110278
 31
-0.0000000669574672
  0
LINE
  5
1B8
330
2
100
AcDbEntity
  8
9
100
AcDbLine
 10
282.0596097217403
 20
131.7807415828069
 30
-0.0000000669574672
 11
280.9989495499598
 21
130.7200814110274
 31
-0.0000000669574672
  0
LINE
  5
1B9
330
2
100
AcDbEntity
  8
7
100
AcDbLine
 10
283.5596097217403
 20
132.7807415828074
 30
-0.0000000669574672
 11
280.5596097217403
 21
132.7807415828074
 31
-0.0000000669574672
  0
LINE
  5
1BA
330
2
100
AcDbEntity
  8
7
100
AcDbLine
 10
283.5596097217403
 20
132.7807415828074
 30
-0.0000000669574672
 11
280.5596097217403
 21
132.7807415828074
 31
-0.0000000669574672
  0
TEXT
  5
1BB
330
2
100
AcDbEntity
  8
KR-TEXTOS
  6
CONTINUOUS
100
AcDbText
 10
283.2482132316839
 20
121.0408526473377
 30
-0.0000000712825634
 40
2.0
  1
2.0
  7
DEYP
 72
     1
 11
285.6291656126363
 21
122.0408526473377
 31
-0.0000000712825634
100
AcDbText
 73
     2
  0
CIRCLE
  5
1BC
330
2
100
AcDbEntity
  8
0
  6
RAYITAS
 62
     9
100
AcDbCircle
 10
293.8138884138357
 20
132.2807415828242
 30
-0.0000000712825634
 40
4.54103961029341
  0
LINE
  5
1BD
330
2
100
AcDbEntity
  8
0
100
AcDbLine
 10
273.8138884138361
 20
124.1137550914065
 30
0.0000000407528276
 11
274.8745485856161
 21
123.0530949196267
 31
0.0000000407528276
  0
LINE
  5
1BE
330
2
100
AcDbEntity
  8
9
100
AcDbLine
 10
273.8138884138365
 20
124.113755091407
 30
0.0000000407528276
 11
274.8745485856161
 21
125.1744152631872
 31
0.0000000407528276
  0
LINE
  5
1BF
330
2
100
AcDbEntity
  8
9
100
AcDbLine
 10
273.8138884138356
 20
124.113755091407
 30
0.0000000407528276
 11
272.7532282420561
 21
125.1744152631872
 31
0.0000000407528276
  0
LINE
  5
1C0
330
2
100
AcDbEntity
  8
0
100
AcDbLine
 10
273.8138884138361
 20
124.1137550914065
 30
0.0000000407528276
 11
272.7532282420566
 21
123.0530949196267
 31
0.0000000407528276
  0
LINE
  5
1C1
330
2
100
AcDbEntity
  8
7
100
AcDbLine
 10
273.8138884138361
 20
122.613755091407
 30
0.0000000407528276
 11
273.8138884138361
 21
125.613755091407
 31
0.0000000407528276
  0
LINE
  5
1C2
330
2
100
AcDbEntity
  8
7
100
AcDbLine
 10
273.8138884138361
 20
122.613755091407
 30
0.0000000407528276
 11
273.8138884138361
 21
125.613755091407
 31
0.0000000407528276
  0
LWPOLYLINE
  5
1C3
330
2
100
AcDbEntity
  8
9
100
AcDbPolyline
 90
        7
 70
     0
 43
0.0
 38
-0.000000072898881
 10
288.9272931161321
 20
255.8906597602585
 10
287.8666329443526
 20
254.8299995884788
 10
283.1202698935203
 20
254.8299995884788
 10
282.0596097217407
 20
253.7693394166988
 10
280.9989495499607
 20
254.8299995884788
 10
276.2831222016852
 20
254.8299995884788
 10
275.2224620299052
 20
255.8906597602585
  0
LWPOLYLINE
  5
1C4
330
2
100
AcDbEntity
  8
9
100
AcDbPolyline
 90
        7
 70
     0
 43
0.0
 38
-0.000000072898881
 10
288.9272931161321
 20
272.1368749929954
 10
287.8666329443526
 20
273.1975351647752
 10
283.1202698935203
 20
273.1975351647752
 10
282.0596097217407
 20
274.2581953365549
 10
280.9989495499607
 20
273.1975351647752
 10
276.2831222016852
 20
273.1975351647752
 10
275.2224620299052
 20
272.1368749929954
  0
LINE
  5
1C5
330
2
100
AcDbEntity
  8
0
 62
     7
100
AcDbLine
 10
239.1994451238656
 20
240.1904311063629
 30
-0.0000000171943847
 11
275.8790027432419
 21
240.1904311063629
 31
-0.0000000171943847
  0
TEXT
  5
1C6
330
2
100
AcDbEntity
  8
KR-TEXTOS
  6
CONTINUOUS
100
AcDbText
 10
238.860218068065
 20
241.1445784452291
 30
-0.0000000171943847
 40
2.0
  1
V. TRANSV. MIX. CONT.
  7
DEYP
100
AcDbText
  0
TEXT
  5
1C7
330
2
100
AcDbEntity
  8
KR-TEXTOS
  6
CONTINUOUS
100
AcDbText
 10
238.860218068065
 20
237.2362837674966
 30
-0.0000000171943847
 40
2.0
  1
HEA 600 A52d
  7
DEYP
100
AcDbText
  0
TEXT
  5
1C8
330
2
100
AcDbEntity
  8
KR-TEXTOS
  6
CONTINUOUS
100
AcDbText
 10
238.860218068065
 20
232.4736827215758
 30
-0.0000000171943847
 40
2.0
  1
V. TRANSV. MIX. CONT.
  7
DEYP
100
AcDbText
  0
LINE
  5
1C9
330
2
100
AcDbEntity
  8
0
 62
     7
100
AcDbLine
 10
239.1994451238656
 20
231.5195353827096
 30
-0.0000000171943847
 11
275.8790027432419
 21
231.5195353827096
 31
-0.0000000171943847
  0
TEXT
  5
1CA
330
2
100
AcDbEntity
  8
KR-TEXTOS
  6
CONTINUOUS
100
AcDbText
 10
238.860218068065
 20
228.5653880438433
 30
-0.0000000171943847
 40
2.0
  1
HEB 900
  7
DEYP
100
AcDbText
  0
CIRCLE
  5
1CB
330
2
100
AcDbEntity
  8
0
  6
RAYITAS
 62
     9
100
AcDbCircle
 10
293.8138884138357
 20
296.4559534729328
 30
-0.0000000586926471
 40
4.54103961029341
  0
LINE
  5
1CC
330
2
100
AcDbEntity
  8
9
100
AcDbLine
 10
165.4227382329309
 20
139.222050932527
 30
0.0000001540522898
 11
293.3138884138356
 21
139.222050932527
 31
0.0000001050535815
  0
LINE
  5
1CD
330
2
100
AcDbEntity
  8
9
100
AcDbLine
 10
154.9552031214839
 20
124.113755091407
 30
0.0000001583772139
 11
293.3138884138356
 21
124.113755091407
 31
0.0000001050535815
  0
TEXT
  5
1CE
330
2
100
AcDbEntity
  8
KR-TEXTOS
  6
CONTINUOUS
100
AcDbText
 10
142.0008727691287
 20
210.5787348106639
 30
0.0000001108861715
 40
2.0
  1
20.1400
  7
DEYP
 72
     1
 11
148.1913489596049
 21
211.5787348106639
 31
0.0000001108861715
100
AcDbText
 73
     2
  0
INSERT
  5
1CF
330
2
100
AcDbEntity
  8
KR-TEXTOS
  6
CONTINUOUS
100
AcDbBlockReference
  2
SIM10
 10
140.6866899724459
 20
211.5787348106639
 30
0.0000001108861715
 41
2.0
 42
2.0
 43
2.0
  0
TEXT
  5
1D0
330
2
100
AcDbEntity
  8
KR-TEXTOS
  6
CONTINUOUS
100
AcDbText
 10
143.0133274441172
 20
205.7586490783799
 30
0.0000001108861715
 40
2.0
  1
600.50
  7
DEYP
 72
     1
 11
148.2990417298315
 21
206.7586490783798
 31
0.0000001108861715
100
AcDbText
 73
     2
  0
INSERT
  5
1D1
330
2
100
AcDbEntity
  8
KR-TEXTOS
  6
CONTINUOUS
100
AcDbBlockReference
  2
SIM10
 10
141.6072573803221
 20
206.7586490783798
 30
0.0000001108861715
 41
2.0
 42
2.0
 43
2.0
  0
TEXT
  5
1D2
330
2
100
AcDbEntity
  8
KR-TEXTOS
  6
CONTINUOUS
100
AcDbText
 10
143.0133274441172
 20
215.3988205429484
 30
0.0000001108861715
 40
2.0
  1
600.50
  7
DEYP
 72
     1
 11
148.2990417298315
 21
216.3988205429484
 31
0.0000001108861715
100
AcDbText
 73
     2
  0
INSERT
  5
1D3
330
2
100
AcDbEntity
  8
KR-TEXTOS
  6
CONTINUOUS
100
AcDbBlockReference
  2
SIM10
 10
141.6072573803221
 20
216.3988205429484
 30
0.0000001108861715
 41
2.0
 42
2.0
 43
2.0
  0
TEXT
  5
1D4
330
2
100
AcDbEntity
  8
KR-TEXTOS
  6
CONTINUOUS
100
AcDbText
 10
143.0133274441172
 20
282.0730707469717
 30
0.0000001108861715
 40
2.0
  1
600.25
  7
DEYP
 72
     1
 11
148.2990417298315
 21
283.0730707469717
 31
0.0000001108861715
100
AcDbText
 73
     2
  0
INSERT
  5
1D5
330
2
100
AcDbEntity
  8
KR-TEXTOS
  6
CONTINUOUS
100
AcDbBlockReference
  2
SIM10
 10
141.6072573803221
 20
283.0730707469717
 30
0.0000001108861715
 41
2.0
 42
2.0
 43
2.0
  0
TEXT
  5
1D6
330
2
100
AcDbEntity
  8
KR-TEXTOS
  6
CONTINUOUS
100
AcDbText
 10
141.8580156262716
 20
286.8931564792558
 30
0.0000001108861715
 40
2.0
  1
10.1400
  7
DEYP
 72
     1
 11
148.1913489596049
 21
287.8931564792558
 31
0.0000001108861715
100
AcDbText
 73
     2
  0
TEXT
  5
1D7
330
2
100
AcDbEntity
  8
KR-TEXTOS
  6
CONTINUOUS
100
AcDbText
 10
143.0133274441172
 20
291.7132422115403
 30
0.0000001108861715
 40
2.0
  1
600.25
  7
DEYP
 72
     1
 11
148.2990417298315
 21
292.7132422115403
 31
0.0000001108861715
100
AcDbText
 73
     2
  0
INSERT
  5
1D8
330
2
100
AcDbEntity
  8
KR-TEXTOS
  6
CONTINUOUS
100
AcDbBlockReference
  2
SIM10
 10
140.6866899724459
 20
287.8931564792558
 30
0.0000001108861715
 41
2.0
 42
2.0
 43
2.0
  0
INSERT
  5
1D9
330
2
100
AcDbEntity
  8
KR-TEXTOS
  6
CONTINUOUS
100
AcDbBlockReference
  2
SIM10
 10
141.6072573803221
 20
292.7132422115403
 30
0.0000001108861715
 41
2.0
 42
2.0
 43
2.0
  0
LINE
  5
1DA
330
2
100
AcDbEntity
  8
9
100
AcDbLine
 10
273.8138884138356
 20
211.5787348106639
 30
0.0000002229215624
 11
272.7532282420561
 21
212.6393949824439
 31
0.0000002229215624
  0
LINE
  5
1DB
330
2
100
AcDbEntity
  8
7
100
AcDbLine
 10
273.8138884138361
 20
210.0787348106639
 30
0.0000002229215624
 11
273.8138884138361
 21
213.0787348106639
 31
0.0000002229215624
  0
LINE
  5
1DC
330
2
100
AcDbEntity
  8
7
100
AcDbLine
 10
273.8138884138361
 20
210.0787348106639
 30
0.0000002229215624
 11
273.8138884138361
 21
213.0787348106639
 31
0.0000002229215624
  0
LINE
  5
1DD
330
2
100
AcDbEntity
  8
9
100
AcDbLine
 10
273.8138884138365
 20
211.5787348106639
 30
0.0000002229215624
 11
274.8745485856161
 21
212.6393949824439
 31
0.0000002229215624
  0
LINE
  5
1DE
330
2
100
AcDbEntity
  8
0
100
AcDbLine
 10
293.3138884138356
 20
124.1137550914065
 30
0.0000001050535815
 11
292.2532282420556
 21
123.0530949196267
 31
0.0000001050535815
  0
LINE
  5
1DF
330
2
100
AcDbEntity
  8
9
100
AcDbLine
 10
293.3138884138352
 20
124.113755091407
 30
0.0000001050535815
 11
292.2532282420556
 21
125.1744152631872
 31
0.0000001050535815
  0
LINE
  5
1E0
330
2
100
AcDbEntity
  8
7
100
AcDbLine
 10
293.3138884138356
 20
122.613755091407
 30
0.0000001050535815
 11
293.3138884138356
 21
125.613755091407
 31
0.0000001050535815
  0
LINE
  5
1E1
330
2
100
AcDbEntity
  8
0
100
AcDbLine
 10
293.3138884138356
 20
139.2220509325265
 30
0.0000001050535815
 11
292.2532282420556
 21
138.1613907607468
 31
0.0000001050535815
  0
LINE
  5
1E2
330
2
100
AcDbEntity
  8
9
100
AcDbLine
 10
293.3138884138352
 20
139.222050932527
 30
0.0000001050535815
 11
292.2532282420556
 21
140.2827111043072
 31
0.0000001050535815
  0
LINE
  5
1E3
330
2
100
AcDbEntity
  8
7
100
AcDbLine
 10
293.3138884138356
 20
137.722050932527
 30
0.0000001050535815
 11
293.3138884138356
 21
140.722050932527
 31
0.0000001050535815
  0
LINE
  5
1E4
330
2
100
AcDbEntity
  8
0
100
AcDbLine
 10
273.8138884138361
 20
211.5787348106635
 30
0.0000002229215624
 11
272.7532282420566
 21
210.5180746388835
 31
0.0000002229215624
  0
LINE
  5
1E5
330
2
100
AcDbEntity
  8
0
100
AcDbLine
 10
273.8138884138361
 20
211.5787348106635
 30
0.0000002229215624
 11
274.8745485856161
 21
210.5180746388835
 31
0.0000002229215624
  0
LINE
  5
1E6
330
2
100
AcDbEntity
  8
9
100
AcDbLine
 10
282.0596097217407
 20
295.5601429706789
 30
0.0000001108861715
 11
280.9989495499607
 21
294.4994827988994
 31
0.0000001108861715
  0
LINE
  5
1E7
330
2
100
AcDbEntity
  8
7
100
AcDbLine
 10
283.5596097217408
 20
295.5601429706794
 30
0.0000001108861715
 11
280.5596097217407
 21
295.5601429706794
 31
0.0000001108861715
  0
LINE
  5
1E8
330
2
100
AcDbEntity
  8
7
100
AcDbLine
 10
283.5596097217408
 20
295.5601429706794
 30
0.0000001108861715
 11
280.5596097217407
 21
295.5601429706794
 31
0.0000001108861715
  0
LINE
  5
1E9
330
2
100
AcDbEntity
  8
0
100
AcDbLine
 10
282.0596097217412
 20
295.5601429706794
 30
0.0000001108861715
 11
283.1202698935212
 21
294.4994827988996
 31
0.0000001108861715
  0
LINE
  5
1EA
330
2
100
AcDbEntity
  8
7
100
AcDbLine
 10
273.8138884138361
 20
286.3931564792558
 30
0.0000002229215624
 11
273.8138884138361
 21
289.3931564792558
 31
0.0000002229215624
  0
LINE
  5
1EB
330
2
100
AcDbEntity
  8
7
100
AcDbLine
 10
273.8138884138361
 20
286.3931564792558
 30
0.0000002229215624
 11
273.8138884138361
 21
289.3931564792558
 31
0.0000002229215624
  0
LINE
  5
1EC
330
2
100
AcDbEntity
  8
0
 62
     7
100
AcDbLine
 10
239.1994451238656
 20
310.9462921469198
 30
0.0000001894422145
 11
275.8790027432419
 21
310.9462921469198
 31
0.0000001894422145
  0
TEXT
  5
1ED
330
2
100
AcDbEntity
  8
KR-TEXTOS
  6
CONTINUOUS
100
AcDbText
 10
238.860218068065
 20
311.9004394857861
 30
0.0000001894422145
 40
2.0
  1
V. TRANSV. CONT.
  7
DEYP
100
AcDbText
  0
TEXT
  5
1EE
330
2
100
AcDbEntity
  8
KR-TEXTOS
  6
CONTINUOUS
100
AcDbText
 10
238.860218068065
 20
307.9921448080535
 30
0.0000001894422145
 40
2.0
  1
HEA 800
  7
DEYP
100
AcDbText
  0
LINE
  5
1EF
330
2
100
AcDbEntity
  8
0
100
AcDbLine
 10
273.8138884138361
 20
287.8931564792553
 30
0.0000002229215624
 11
274.8745485856161
 21
286.8324963074753
 31
0.0000002229215624
  0
LINE
  5
1F0
330
2
100
AcDbEntity
  8
9
100
AcDbLine
 10
273.8138884138365
 20
287.8931564792558
 30
0.0000002229215624
 11
274.8745485856161
 21
288.9538166510358
 31
0.0000002229215624
  0
LINE
  5
1F1
330
2
100
AcDbEntity
  8
9
100
AcDbLine
 10
273.8138884138356
 20
287.8931564792558
 30
0.0000002229215624
 11
272.7532282420561
 21
288.9538166510358
 31
0.0000002229215624
  0
LINE
  5
1F2
330
2
100
AcDbEntity
  8
0
100
AcDbLine
 10
273.8138884138361
 20
287.8931564792553
 30
0.0000002229215624
 11
272.7532282420566
 21
286.8324963074753
 31
0.0000002229215624
  0
LINE
  5
1F3
330
2
100
AcDbEntity
  8
9
100
AcDbLine
 10
0.5
 20
287.8931564792558
 30
0.0000003573556603
 11
138.4755913534013
 21
287.8931564792558
 31
0.0000003440080641
  0
LINE
  5
1F4
330
2
100
AcDbEntity
  8
9
100
AcDbLine
 10
0.5
 20
211.5787348106639
 30
0.0000003573556603
 11
138.4755913534013
 21
211.5787348106639
 31
0.0000003440080641
  0
LINE
  5
1F5
330
2
100
AcDbEntity
  8
9
100
AcDbLine
 10
0.5
 20
303.001452320376
 30
0.0000003573556603
 11
128.3911501809047
 21
303.001452320376
 31
0.0000003450906487
  0
LINE
  5
1F6
330
2
100
AcDbEntity
  8
9
100
AcDbLine
 10
0.5
 20
226.6870306517842
 30
0.0000003573556603
 11
128.3911501809047
 21
226.6870306517842
 31
0.0000003450906487
  0
LINE
  5
1F7
330
2
100
AcDbEntity
  8
9
100
AcDbLine
 10
0.5000000000004548
 20
211.5787348106639
 30
0.0000003573556603
 11
1.56066017178
 21
212.6393949824439
 31
0.0000003573556603
  0
LINE
  5
1F8
330
2
100
AcDbEntity
  8
7
100
AcDbLine
 10
0.5
 20
210.0787348106639
 30
0.0000003573556603
 11
0.5
 21
213.0787348106639
 31
0.0000003573556603
  0
LINE
  5
1F9
330
2
100
AcDbEntity
  8
7
100
AcDbLine
 10
20.0
 20
210.0787348106643
 30
0.0000002930549064
 11
20.0
 21
213.0787348106644
 31
0.0000002930549064
  0
LINE
  5
1FA
330
2
100
AcDbEntity
  8
7
100
AcDbLine
 10
20.0
 20
210.0787348106643
 30
0.0000002930549064
 11
20.0
 21
213.0787348106644
 31
0.0000002930549064
  0
LINE
  5
1FB
330
2
100
AcDbEntity
  8
9
100
AcDbLine
 10
20.00000000000045
 20
211.5787348106644
 30
0.0000002930549064
 11
21.06066017178
 21
212.6393949824444
 31
0.0000002930549064
  0
LINE
  5
1FC
330
2
100
AcDbEntity
  8
9
100
AcDbLine
 10
19.99999999999954
 20
211.5787348106644
 30
0.0000002930549064
 11
18.93933982822
 21
212.6393949824444
 31
0.0000002930549064
  0
LINE
  5
1FD
330
2
100
AcDbEntity
  8
0
100
AcDbLine
 10
20.0
 20
211.5787348106639
 30
0.0000002930549064
 11
21.06066017177954
 21
210.5180746388839
 31
0.0000002930549064
  0
LINE
  5
1FE
330
2
100
AcDbEntity
  8
0
100
AcDbLine
 10
20.0
 20
211.5787348106639
 30
0.0000002930549064
 11
18.93933982822
 21
210.5180746388839
 31
0.0000002930549064
  0
LINE
  5
1FF
330
2
100
AcDbEntity
  8
0
100
AcDbLine
 10
0.5
 20
211.5787348106635
 30
0.0000003573556603
 11
1.560660171779545
 21
210.5180746388835
 31
0.0000003573556603
  0
LINE
  5
200
330
2
100
AcDbEntity
  8
7
100
AcDbLine
 10
20.0
 20
286.3931564792562
 30
0.0000002930549064
 11
20.0
 21
289.3931564792562
 31
0.0000002930549064
  0
LINE
  5
201
330
2
100
AcDbEntity
  8
7
100
AcDbLine
 10
20.0
 20
286.3931564792562
 30
0.0000002930549064
 11
20.0
 21
289.3931564792562
 31
0.0000002930549064
  0
LINE
  5
202
330
2
100
AcDbEntity
  8
9
100
AcDbLine
 10
19.99999999999954
 20
287.8931564792562
 30
0.0000002930549064
 11
18.93933982822
 21
288.9538166510362
 31
0.0000002930549064
  0
LINE
  5
203
330
2
100
AcDbEntity
  8
0
100
AcDbLine
 10
20.0
 20
287.8931564792558
 30
0.0000002930549064
 11
18.93933982822
 21
286.8324963074758
 31
0.0000002930549064
  0
LINE
  5
204
330
2
100
AcDbEntity
  8
0
100
AcDbLine
 10
20.0
 20
287.8931564792558
 30
0.0000002930549064
 11
21.06066017177954
 21
286.8324963074758
 31
0.0000002930549064
  0
LINE
  5
205
330
2
100
AcDbEntity
  8
9
100
AcDbLine
 10
20.00000000000045
 20
287.8931564792562
 30
0.0000002930549064
 11
21.06066017178
 21
288.9538166510362
 31
0.0000002930549064
  0
LINE
  5
206
330
2
100
AcDbEntity
  8
7
100
AcDbLine
 10
0.5
 20
286.3931564792558
 30
0.0000003573556603
 11
0.5
 21
289.3931564792558
 31
0.0000003573556603
  0
LINE
  5
207
330
2
100
AcDbEntity
  8
9
100
AcDbLine
 10
0.5000000000004548
 20
226.6870306517842
 30
0.0000003573556603
 11
1.56066017178
 21
227.7476908235641
 31
0.0000003573556603
  0
LINE
  5
208
330
2
100
AcDbEntity
  8
0
100
AcDbLine
 10
0.5
 20
226.6870306517837
 30
0.0000003573556603
 11
1.560660171779545
 21
225.6263704800037
 31
0.0000003573556603
  0
LINE
  5
209
330
2
100
AcDbEntity
  8
7
100
AcDbLine
 10
0.5
 20
225.1870306517842
 30
0.0000003573556603
 11
0.5
 21
228.1870306517841
 31
0.0000003573556603
  0
LINE
  5
20A
330
2
100
AcDbEntity
  8
7
100
AcDbLine
 10
0.5
 20
301.501452320376
 30
0.0000003573556603
 11
0.5
 21
304.501452320376
 31
0.0000003573556603
  0
LINE
  5
20B
330
2
100
AcDbEntity
  8
0
100
AcDbLine
 10
0.5
 20
303.0014523203756
 30
0.0000003573556603
 11
1.560660171779545
 21
301.9407921485956
 31
0.0000003573556603
  0
LINE
  5
20C
330
2
100
AcDbEntity
  8
9
100
AcDbLine
 10
0.5000000000004548
 20
303.001452320376
 30
0.0000003573556603
 11
1.56066017178
 21
304.062112492156
 31
0.0000003573556603
  0
LINE
  5
20D
330
2
100
AcDbEntity
  8
0
100
AcDbLine
 10
0.5
 20
287.8931564792553
 30
0.0000003573556603
 11
1.560660171779545
 21
286.8324963074753
 31
0.0000003573556603
  0
LINE
  5
20E
330
2
100
AcDbEntity
  8
9
100
AcDbLine
 10
0.5000000000004548
 20
287.8931564792558
 30
0.0000003573556603
 11
1.56066017178
 21
288.9538166510358
 31
0.0000003573556603
  0
LINE
  5
20F
330
2
100
AcDbEntity
  8
9
100
AcDbLine
 10
155.1193876869069
 20
287.8931564792558
 30
0.0000003405459488
 11
293.3138884138356
 21
287.8931564792558
 31
0.0000002872223164
  0
LINE
  5
210
330
2
100
AcDbEntity
  8
9
100
AcDbLine
 10
165.4227382329309
 20
303.001452320376
 30
0.0000003362210247
 11
293.3138884138356
 21
303.001452320376
 31
0.0000002872223164
  0
LINE
  5
211
330
2
100
AcDbEntity
  8
9
100
AcDbLine
 10
165.4227382329309
 20
226.6870306517842
 30
0.0000003362210247
 11
293.3138884138356
 21
226.6870306517842
 31
0.0000002872223164
  0
LINE
  5
212
330
2
100
AcDbEntity
  8
9
100
AcDbLine
 10
155.1193876869069
 20
211.5787348106639
 30
0.0000003405459488
 11
293.3138884138356
 21
211.5787348106639
 31
0.0000002872223164
  0
LINE
  5
213
330
2
100
AcDbEntity
  8
7
100
AcDbLine
 10
293.3138884138356
 20
210.0787348106639
 30
0.0000002872223164
 11
293.3138884138356
 21
213.0787348106639
 31
0.0000002872223164
  0
LINE
  5
214
330
2
100
AcDbEntity
  8
9
100
AcDbLine
 10
293.3138884138352
 20
211.5787348106639
 30
0.0000002872223164
 11
292.2532282420556
 21
212.6393949824439
 31
0.0000002872223164
  0
LINE
  5
215
330
2
100
AcDbEntity
  8
0
100
AcDbLine
 10
293.3138884138356
 20
211.5787348106635
 30
0.0000002872223164
 11
292.2532282420556
 21
210.5180746388835
 31
0.0000002872223164
  0
LINE
  5
216
330
2
100
AcDbEntity
  8
7
100
AcDbLine
 10
293.3138884138356
 20
286.3931564792558
 30
0.0000002872223164
 11
293.3138884138356
 21
289.3931564792558
 31
0.0000002872223164
  0
LINE
  5
217
330
2
100
AcDbEntity
  8
9
100
AcDbLine
 10
293.3138884138352
 20
226.6870306517842
 30
0.0000002872223164
 11
292.2532282420556
 21
227.7476908235641
 31
0.0000002872223164
  0
LINE
  5
218
330
2
100
AcDbEntity
  8
0
100
AcDbLine
 10
293.3138884138356
 20
226.6870306517837
 30
0.0000002872223164
 11
292.2532282420556
 21
225.6263704800037
 31
0.0000002872223164
  0
LINE
  5
219
330
2
100
AcDbEntity
  8
7
100
AcDbLine
 10
293.3138884138356
 20
225.1870306517842
 30
0.0000002872223164
 11
293.3138884138356
 21
228.1870306517841
 31
0.0000002872223164
  0
LINE
  5
21A
330
2
100
AcDbEntity
  8
7
100
AcDbLine
 10
293.3138884138356
 20
301.501452320376
 30
0.0000002872223164
 11
293.3138884138356
 21
304.501452320376
 31
0.0000002872223164
  0
LINE
  5
21B
330
2
100
AcDbEntity
  8
0
100
AcDbLine
 10
293.3138884138356
 20
303.0014523203756
 30
0.0000002872223164
 11
292.2532282420556
 21
301.9407921485956
 31
0.0000002872223164
  0
LINE
  5
21C
330
2
100
AcDbEntity
  8
9
100
AcDbLine
 10
293.3138884138352
 20
303.001452320376
 30
0.0000002872223164
 11
292.2532282420556
 21
304.062112492156
 31
0.0000002872223164
  0
LINE
  5
21D
330
2
100
AcDbEntity
  8
0
100
AcDbLine
 10
293.3138884138356
 20
287.8931564792553
 30
0.0000002872223164
 11
292.2532282420556
 21
286.8324963074753
 31
0.0000002872223164
  0
LINE
  5
21E
330
2
100
AcDbEntity
  8
9
100
AcDbLine
 10
293.3138884138352
 20
287.8931564792558
 30
0.0000002872223164
 11
292.2532282420556
 21
288.9538166510358
 31
0.0000002872223164
  0
LINE
  5
21F
330
2
100
AcDbEntity
  8
0
100
AcDbLine
 10
394.8138884138356
 20
-11.75427869210125
 30
-0.0000003397498989
 11
404.8138884138356
 21
-11.75427869210193
 31
-0.0000003396026936
  0
CIRCLE
  5
220
330
2
100
AcDbEntity
  8
0
  6
RAYITAS
 62
     9
100
AcDbCircle
 10
397.8138884138352
 20
56.26574428440585
 30
-0.0000002754881025
 40
6.054719480391213
  0
CIRCLE
  5
221
330
2
100
AcDbEntity
  8
0
  6
RAYITAS
 62
     9
100
AcDbCircle
 10
397.8138884138352
 20
22.2557327961606
 30
-0.0000002754881025
 40
6.054719480391213
  0
LINE
  5
222
330
2
100
AcDbEntity
  8
0
 62
     5
100
AcDbLine
 10
397.8138884138352
 20
26.2557327961606
 30
-0.0000002754881025
 11
397.8138884138357
 21
18.2557327961606
 31
-0.0000002754881025
  0
LINE
  5
223
330
2
100
AcDbEntity
  8
0
  6
TRAZOS
100
AcDbLine
 10
399.8138884138356
 20
56.26574428440585
 30
-0.0000002754881025
 11
399.8138884138356
 21
-11.75427869210148
 31
-0.0000002754881025
  0
LINE
  5
224
330
2
100
AcDbEntity
  8
0
100
AcDbLine
 10
408.8686078942264
 20
56.26574428440585
 30
-0.0000002754881025
 11
408.8686078942268
 21
22.2557327961606
 31
-0.0000002674027257
  0
LINE
  5
225
330
2
100
AcDbEntity
  8
0
100
AcDbLine
 10
403.8686078942268
 20
22.2557327961606
 30
-0.0000002674027257
 11
408.8686078942268
 21
22.2557327961606
 31
-0.0000002674027257
  0
LINE
  5
226
330
2
100
AcDbEntity
  8
0
100
AcDbLine
 10
403.8686078942264
 20
56.26574428440585
 30
-0.0000002754881025
 11
408.8686078942264
 21
56.26574428440585
 31
-0.0000002754881025
  0
LINE
  5
227
330
2
100
AcDbEntity
  8
0
 62
     5
100
AcDbLine
 10
397.8138884138352
 20
60.26574428440586
 30
-0.0000002754881025
 11
397.8138884138352
 21
52.26574428440585
 31
-0.0000002754881025
  0
CIRCLE
  5
228
330
2
100
AcDbEntity
  8
0
  6
RAYITAS
 62
     9
100
AcDbCircle
 10
447.5245205934834
 20
51.43015845814739
 30
-0.0000002754881025
 40
6.054719480391213
  0
LINE
  5
229
330
2
100
AcDbEntity
  8
0
 62
     5
100
AcDbLine
 10
447.5245205934834
 20
55.43015845814739
 30
-0.0000002754881025
 11
447.5245205934834
 21
47.43015845814738
 31
-0.0000002754881025
  0
LINE
  5
22A
330
2
100
AcDbEntity
  8
0
  6
TRAZOS
100
AcDbLine
 10
449.5245205934838
 20
57.1450187351993
 30
-0.0000002754881025
 11
449.5245205934838
 21
45.71529818109524
 31
-0.0000002754881025
  0
TEXT
  5
22B
330
2
100
AcDbEntity
  8
KR-TEXTOS
  6
CONTINUOUS
100
AcDbText
 10
415.4309591746855
 20
57.21989162327213
 30
-0.00000023398984
 40
2.0
  1
P.B.
  7
DEYP
100
AcDbText
  0
LINE
  5
22C
330
2
100
AcDbEntity
  8
0
 62
     7
100
AcDbLine
 10
411.7486113228201
 20
56.26574428440585
 30
-0.00000023398984
 11
421.0814465614716
 21
56.26574428440585
 31
-0.00000023398984
  0
TEXT
  5
22D
330
2
100
AcDbEntity
  8
KR-TEXTOS
  6
CONTINUOUS
100
AcDbText
 10
415.4309591746855
 20
19.30158545729432
 30
-0.0000002259044633
 40
2.0
  1
1%%D) TERMINACION DE P.B.
  7
DEYP
100
AcDbText
  0
TEXT
  5
22E
330
2
100
AcDbEntity
  8
KR-TEXTOS
  6
CONTINUOUS
100
AcDbText
 10
415.4309591746855
 20
23.20988013502688
 30
-0.0000002259044633
 40
2.0
  1
M%%C : APUNTALADA HASTA:
  7
DEYP
100
AcDbText
  0
LINE
  5
22F
330
2
100
AcDbEntity
  8
0
 62
     7
100
AcDbLine
 10
411.7486113228205
 20
22.2557327961606
 30
-0.00000023398984
 11
454.5291534582843
 21
22.2557327961606
 31
-0.00000023398984
  0
LINE
  5
230
330
2
100
AcDbEntity
  8
0
 62
     7
100
AcDbLine
 10
408.8686078942259
 20
39.26073854028322
 30
-0.00000023398984
 11
476.8660393402278
 21
39.26073854028322
 31
-0.00000023398984
  0
TEXT
  5
231
330
2
100
AcDbEntity
  8
KR-TEXTOS
  6
CONTINUOUS
100
AcDbText
 10
415.4309591746855
 20
15.49953655425429
 30
-0.0000002259044633
 40
2.0
  1
2%%D) UNION DE TIRANTES
  7
DEYP
100
AcDbText
  0
LINE
  5
232
330
2
100
AcDbEntity
  8
0
 62
     7
100
AcDbLine
 10
408.8686078942259
 20
-11.75427869210193
 30
-0.00000023398984
 11
468.727575542579
 21
-11.75427869210193
 31
-0.00000023398984
  0
TEXT
  5
233
330
2
100
AcDbEntity
  8
KR-TEXTOS
  6
CONTINUOUS
100
AcDbText
 10
343.6234122233595
 20
-31.88500816122268
 30
-0.0000001355833173
 40
2.0
  1
@50
  7
DEYP
 72
     1
 11
346.8138884138356
 21
-30.88500816122268
 31
-0.0000001355833173
100
AcDbText
 73
     2
  0
TEXT
  5
234
330
2
100
AcDbEntity
  8
KR-TEXTOS
  6
CONTINUOUS
100
AcDbText
 10
331.0043646043118
 20
-35.45745660085913
 30
-0.0000001355833173
 40
2.0
  1
ZONA PENDIENTE DE
  7
DEYP
 72
     1
 11
346.8138884138356
 21
-34.45745660085913
 31
-0.0000001355833173
100
AcDbText
 73
     2
  0
LINE
  5
235
330
2
100
AcDbEntity
  8
0
 62
     5
100
AcDbLine
 10
328.8138884138356
 20
-11.75427869210125
 30
-0.0000001171505519
 11
338.8138884138356
 21
-11.75427869210193
 31
-0.0000001170033466
  0
TEXT
  5
236
330
2
100
AcDbEntity
  8
KR-TEXTOS
  6
CONTINUOUS
100
AcDbText
 10
419.7389638516506
 20
36.30659120141695
 30
-0.00000023398984
 40
2.0
  1
DE HORMIGON ARMADO DE SOTANOS
  7
DEYP
100
AcDbText
  0
TEXT
  5
237
330
2
100
AcDbEntity
  8
KR-TEXTOS
  6
CONTINUOUS
100
AcDbText
 10
419.7389638516506
 20
40.21488587914951
 30
-0.00000023398984
 40
2.0
  1
APOYOS EN DILATACION EN SOPORTE
  7
DEYP
100
AcDbText
  0
TEXT
  5
238
330
2
100
AcDbEntity
  8
KR-TEXTOS
  6
CONTINUOUS
100
AcDbText
 10
419.7389638516506
 20
-10.80013135323565
 30
-0.00000023398984
 40
2.0
  1
CARA SUPERIOR DE ENCEPADOS
  7
DEYP
100
AcDbText
  0
LWPOLYLINE
  5
239
330
2
100
AcDbEntity
  8
0
 62
     5
100
AcDbPolyline
 90
        2
 70
     0
 43
1.0
 38
-0.0000001355833173
 10
447.5245205934834
 20
51.43015845814739
 10
441.4698011130922
 20
51.43015845814739
  0
LINE
  5
23A
330
2
100
AcDbEntity
  8
0
  6
TRAZOS
100
AcDbLine
 10
399.8138884138352
 20
295.7078192972635
 30
-0.0000002754881025
 11
399.8138884138356
 21
94.27324293361948
 31
-0.0000002754881025
  0
LINE
  5
23B
330
2
100
AcDbEntity
  8
0
100
AcDbLine
 10
408.8686078942264
 20
219.7457213020904
 30
-0.0000002761883019
 11
408.8686078942268
 21
94.27324293361948
 31
-0.0000002674027257
  0
CIRCLE
  5
23C
330
2
100
AcDbEntity
  8
0
  6
RAYITAS
 62
     9
100
AcDbCircle
 10
397.8138884138352
 20
132.2807415828328
 30
-0.0000002961633954
 40
6.054719480391213
  0
CIRCLE
  5
23D
330
2
100
AcDbEntity
  8
0
  6
RAYITAS
 62
     9
100
AcDbCircle
 10
397.8138884138352
 20
94.27324293361948
 30
-0.0000003283137721
 40
6.054719480391213
  0
LINE
  5
23E
330
2
100
AcDbEntity
  8
0
 62
     5
100
AcDbLine
 10
397.8138884138357
 20
98.27324293361948
 30
-0.0000002754881025
 11
397.8138884138352
 21
90.27324293361948
 31
-0.0000002754881025
  0
LINE
  5
23F
330
2
100
AcDbEntity
  8
0
100
AcDbLine
 10
403.8686078942268
 20
94.27324293361948
 30
-0.0000002674027257
 11
408.8686078942268
 21
94.27324293361948
 31
-0.0000002674027257
  0
LINE
  5
240
330
2
100
AcDbEntity
  8
0
 62
     5
100
AcDbLine
 10
397.8138884138357
 20
136.2807415828328
 30
-0.0000002754881025
 11
397.8138884138357
 21
128.2807415828328
 31
-0.0000002754881025
  0
CIRCLE
  5
241
330
2
100
AcDbEntity
  8
0
  6
RAYITAS
 62
     9
100
AcDbCircle
 10
397.8138884138357
 20
181.0132314424615
 30
-0.0000003083973274
 40
6.054719480391213
  0
LINE
  5
242
330
2
100
AcDbEntity
  8
0
 62
     5
100
AcDbLine
 10
397.8138884138352
 20
185.0132314424615
 30
-0.0000002754881025
 11
397.8138884138352
 21
177.0132314424615
 31
-0.0000002754881025
  0
LINE
  5
243
330
2
100
AcDbEntity
  8
0
100
AcDbLine
 10
408.8686078942264
 20
295.7078192972635
 30
-0.0000002818183627
 11
408.8686078942264
 21
248.4956468940149
 31
-0.0000002754881025
  0
CIRCLE
  5
244
330
2
100
AcDbEntity
  8
0
  6
RAYITAS
 62
     9
100
AcDbCircle
 10
397.8138884138352
 20
248.4956468940149
 30
-0.0000002754881025
 40
6.054719480391213
  0
CIRCLE
  5
245
330
2
100
AcDbEntity
  8
0
  6
RAYITAS
 62
     9
100
AcDbCircle
 10
397.8138884138352
 20
219.74572130209
 30
-0.0000002754881025
 40
6.054719480391213
  0
LINE
  5
246
330
2
100
AcDbEntity
  8
0
 62
     5
100
AcDbLine
 10
397.8138884138352
 20
252.4956468940149
 30
-0.0000002754881025
 11
397.8138884138352
 21
244.4956468940149
 31
-0.0000002754881025
  0
LINE
  5
247
330
2
100
AcDbEntity
  8
0
100
AcDbLine
 10
403.8686078942264
 20
248.4956468940149
 30
-0.0000002754881025
 11
408.8686078942264
 21
248.4956468940149
 31
-0.0000002754881025
  0
LINE
  5
248
330
2
100
AcDbEntity
  8
0
100
AcDbLine
 10
403.8686078942264
 20
219.74572130209
 30
-0.0000002754881025
 11
408.8686078942264
 21
219.7457213020902
 31
-0.0000002754881025
  0
LINE
  5
249
330
2
100
AcDbEntity
  8
0
 62
     5
100
AcDbLine
 10
397.8138884138352
 20
223.74572130209
 30
-0.0000002754881025
 11
397.8138884138352
 21
215.74572130209
 31
-0.0000002754881025
  0
LINE
  5
24A
330
2
100
AcDbEntity
  8
0
 62
     7
100
AcDbLine
 10
411.7486113228201
 20
248.4956468940149
 30
-0.00000023398984
 11
419.5753243342673
 21
248.4956468940149
 31
-0.00000023398984
  0
TEXT
  5
24B
330
2
100
AcDbEntity
  8
KR-TEXTOS
  6
CONTINUOUS
100
AcDbText
 10
415.4309591746855
 20
249.4497942328812
 30
-0.00000023398984
 40
2.0
  1
M3
  7
DEYP
100
AcDbText
  0
TEXT
  5
24C
330
2
100
AcDbEntity
  8
KR-TEXTOS
  6
CONTINUOUS
100
AcDbText
 10
415.4309591746855
 20
220.6998686409565
 30
-0.00000023398984
 40
2.0
  1
P2
  7
DEYP
100
AcDbText
  0
LINE
  5
24D
330
2
100
AcDbEntity
  8
0
 62
     7
100
AcDbLine
 10
411.7486113228201
 20
219.7457213020902
 30
-0.00000023398984
 11
419.5753243342673
 21
219.7457213020902
 31
-0.00000023398984
  0
LINE
  5
24E
330
2
100
AcDbEntity
  8
0
 62
     7
100
AcDbLine
 10
408.8686078942259
 20
272.1017330956392
 30
-0.0000002420752168
 11
476.7794346128803
 21
272.1017330956392
 31
-0.0000002420752168
  0
TEXT
  5
24F
330
2
100
AcDbEntity
  8
KR-TEXTOS
  6
CONTINUOUS
100
AcDbText
 10
415.4309591746855
 20
133.2348889216991
 30
-0.00000023398984
 40
2.0
  1
P1
  7
DEYP
100
AcDbText
  0
LINE
  5
250
330
2
100
AcDbEntity
  8
0
 62
     7
100
AcDbLine
 10
411.7486113228201
 20
132.2807415828328
 30
-0.00000023398984
 11
419.5753243342673
 21
132.2807415828328
 31
-0.00000023398984
  0
TEXT
  5
251
330
2
100
AcDbEntity
  8
KR-TEXTOS
  6
CONTINUOUS
100
AcDbText
 10
415.4309591746851
 20
178.0590841035952
 30
-0.00000023398984
 40
2.0
  1
1%%D) TERMINACION DE P2
  7
DEYP
100
AcDbText
  0
TEXT
  5
252
330
2
100
AcDbEntity
  8
KR-TEXTOS
  6
CONTINUOUS
100
AcDbText
 10
415.4309591746851
 20
174.2570352005552
 30
-0.00000023398984
 40
2.0
  1
2%%D) UNION DE TIRANTES
  7
DEYP
100
AcDbText
  0
TEXT
  5
253
330
2
100
AcDbEntity
  8
KR-TEXTOS
  6
CONTINUOUS
100
AcDbText
 10
415.4309591746855
 20
181.9673787813278
 30
-0.00000023398984
 40
2.0
  1
M2 : APUNTALADA HASTA:
  7
DEYP
100
AcDbText
  0
LINE
  5
254
330
2
100
AcDbEntity
  8
0
 62
     7
100
AcDbLine
 10
411.7486113228201
 20
181.0132314424615
 30
-0.00000023398984
 11
454.5291534582839
 21
181.0132314424615
 31
-0.00000023398984
  0
LINE
  5
255
330
2
100
AcDbEntity
  8
0
 62
     7
100
AcDbLine
 10
408.8686078942259
 20
152.0094821178547
 30
-0.00000023398984
 11
488.9898100801137
 21
152.0094821178547
 31
-0.00000023398984
  0
LINE
  5
256
330
2
100
AcDbEntity
  8
0
 62
     7
100
AcDbLine
 10
411.7486113228201
 20
94.27324293361948
 30
-0.0000002259044633
 11
454.5291534582843
 21
94.27324293361948
 31
-0.0000002259044633
  0
TEXT
  5
257
330
2
100
AcDbEntity
  8
KR-TEXTOS
  6
CONTINUOUS
100
AcDbText
 10
415.4309591746855
 20
95.22739027248576
 30
-0.0000002259044633
 40
2.0
  1
M1 : APUNTALADA HASTA:
  7
DEYP
100
AcDbText
  0
TEXT
  5
258
330
2
100
AcDbEntity
  8
KR-TEXTOS
  6
CONTINUOUS
100
AcDbText
 10
415.4309591746855
 20
91.31909559475321
 30
-0.0000002259044633
 40
2.0
  1
1%%D) TERMINACION DE P1
  7
DEYP
100
AcDbText
  0
TEXT
  5
259
330
2
100
AcDbEntity
  8
KR-TEXTOS
  6
CONTINUOUS
100
AcDbText
 10
415.4309591746855
 20
87.51704669171317
 30
-0.0000002259044633
 40
2.0
  1
2%%D) UNION DE TIRANTES
  7
DEYP
100
AcDbText
  0
LWPOLYLINE
  5
25A
330
2
100
AcDbEntity
  8
0
  6
TRAZOS
 62
     5
100
AcDbPolyline
 90
        2
 70
     0
 43
1.0
 38
-0.0000001832459573
 10
333.8138884138361
 20
132.2807415828244
 10
333.8138884138357
 20
94.27324293361062
  0
LWPOLYLINE
  5
25B
330
2
100
AcDbEntity
  8
0
  6
TRAZOS
 62
     5
100
AcDbPolyline
 90
        2
 70
     0
 43
1.0
 38
-0.0000001034329401
 10
333.8138884138357
 20
94.27324293361222
 10
397.8138884138357
 20
94.27324293361948
  0
TEXT
  5
25C
330
2
100
AcDbEntity
  8
KR-TEXTOS
  6
CONTINUOUS
100
AcDbText
 10
400.539268625343
 20
320.9881843043517
 30
-0.0000002426495155
 40
2.0
  1
J.D.
  7
DEYP
100
AcDbText
  0
LINE
  5
25D
330
2
100
AcDbEntity
  8
0
 62
     7
100
AcDbLine
 10
398.8138884138352
 20
320.0340369654854
 30
-0.0000002426495155
 11
406.1897560121292
 21
320.0340369654854
 31
-0.0000002426495155
  0
LINE
  5
25E
330
2
100
AcDbEntity
  8
0
100
AcDbLine
 10
398.8138884138352
 20
314.2108666815579
 30
-0.0000002426495155
 11
398.8138884138352
 21
320.0340369654854
 31
-0.0000002426495155
  0
LINE
  5
25F
330
2
100
AcDbEntity
  8
9
100
AcDbLine
 10
398.8138884138352
 20
314.2108666815583
 30
-0.0000002426495155
 11
399.8745485856156
 21
315.2715268533379
 31
-0.0000002426495155
  0
LINE
  5
260
330
2
100
AcDbEntity
  8
0
100
AcDbLine
 10
398.8138884138347
 20
314.2108666815579
 30
-0.0000002426495155
 11
397.7532282420547
 21
315.2715268533374
 31
-0.0000002426495155
  0
TEXT
  5
261
330
2
100
AcDbEntity
  8
KR-TEXTOS
  6
CONTINUOUS
100
AcDbText
 10
419.7389638516506
 20
152.963629456721
 30
-0.00000023398984
 40
2.0
  1
APOYOS EN DILATACION SOBRE ENCAVALLADA
  7
DEYP
100
AcDbText
  0
TEXT
  5
262
330
2
100
AcDbEntity
  8
KR-TEXTOS
  6
CONTINUOUS
100
AcDbText
 10
419.7389638516506
 20
273.0558804345055
 30
-0.0000002420752168
 40
2.0
  1
APOYOS EN DILATACION EN SOPORTE
  7
DEYP
100
AcDbText
  0
TEXT
  5
263
330
2
100
AcDbEntity
  8
KR-TEXTOS
  6
CONTINUOUS
100
AcDbText
 10
419.7389638516506
 20
269.1475857567729
 30
-0.0000002420752168
 40
2.0
  1
METALICO DE CUBIERTA
  7
DEYP
100
AcDbText
  0
LINE
  5
264
330
2
100
AcDbEntity
  8
0
100
AcDbLine
 10
399.8138884138356
 20
-23.50514631353348
 30
-0.0000000586926471
 11
399.8138884138356
 21
-28.50514631353348
 31
-0.0000000586926471
  0
LWPOLYLINE
  5
265
330
2
100
AcDbEntity
  8
0
100
AcDbPolyline
 90
        2
 70
     1
 43
0.5
 38
-0.000000046564582
 10
408.6186078942264
 20
39.26073854028322
 42
1.0
 10
409.1186078942264
 20
39.26073854028322
 42
1.0
  0
LWPOLYLINE
  5
266
330
2
100
AcDbEntity
  8
0
  6
TRAZOS
 62
     5
100
AcDbPolyline
 90
        2
 70
     0
 43
1.0
 38
0.0000000407528276
 10
333.8138884138357
 20
56.26574428440449
 10
333.8138884138357
 20
-11.75427869210148
  0
TEXT
  5
267
330
2
100
AcDbEntity
  8
KR-TEXTOS
  6
CONTINUOUS
100
AcDbText
 10
415.4309591746851
 20
296.6619666361298
 30
-0.0000000171943847
 40
2.0
  1
P.C.
  7
DEYP
100
AcDbText
  0
LINE
  5
268
330
2
100
AcDbEntity
  8
0
 62
     7
100
AcDbLine
 10
411.7486113228201
 20
295.7078192972635
 30
-0.0000000171943847
 11
421.0814465614712
 21
295.7078192972635
 31
-0.0000000171943847
  0
LWPOLYLINE
  5
269
330
2
100
AcDbEntity
  8
0
100
AcDbPolyline
 90
        2
 70
     1
 43
0.5
 38
-0.000000046564582
 10
408.6186078942264
 20
152.0094821178547
 42
1.0
 10
409.1186078942264
 20
152.0094821178547
 42
1.0
  0
LWPOLYLINE
  5
26A
330
2
100
AcDbEntity
  8
0
100
AcDbPolyline
 90
        2
 70
     1
 43
0.5
 38
-0.0000000546499588
 10
408.6186078942264
 20
272.1017330956392
 42
1.0
 10
409.1186078942264
 20
272.1017330956392
 42
1.0
  0
CIRCLE
  5
26B
330
2
100
AcDbEntity
  8
0
  6
RAYITAS
 62
     9
100
AcDbCircle
 10
397.8138884138347
 20
295.7078192972635
 30
-0.0000000586926471
 40
6.054719480391213
  0
LINE
  5
26C
330
2
100
AcDbEntity
  8
0
100
AcDbLine
 10
403.868607894226
 20
295.7078192972635
 30
-0.0000000586926471
 11
408.8686078942259
 21
295.7078192972635
 31
-0.0000000586926471
  0
LINE
  5
26D
330
2
100
AcDbEntity
  8
0
100
AcDbLine
 10
399.8138884138352
 20
311.6980632029381
 30
-0.0000000506072704
 11
399.8138884138347
 21
307.9480632029381
 31
-0.0000000506072704
  0
LINE
  5
26E
330
2
100
AcDbEntity
  8
0
100
AcDbLine
 10
397.8138884138347
 20
311.6980632029381
 30
-0.0000000506072704
 11
397.8138884138347
 21
307.9480632029381
 31
-0.0000000506072704
  0
LINE
  5
26F
330
2
100
AcDbEntity
  8
0
 62
     5
100
AcDbLine
 10
397.8138884138347
 20
299.7078192972635
 30
-0.0000000506072704
 11
397.8138884138347
 21
291.7078192972635
 31
-0.0000000506072704
  0
ENDSEC
  0
SECTION
  2
OBJECTS
  0
DICTIONARY
  5
7
330
0
100
AcDbDictionary
  3
ACAD_GROUP
350
1F
  3
ACAD_LAYOUT
350
B
  3
ACAD_MLINESTYLE
350
20
  3
ACAD_PLOTSETTINGS
350
21
  3
ACAD_PLOTSTYLENAME
350
6
  3
ACDBVARIABLEDICTIONARY
350
272
  3
ACDBHEADERROUNDTRIPXREC
350
288
  0
DICTIONARY
  5
2A9
330
2
100
AcDbDictionary
280
     1
  3
ACAD_LAYOUTSELFREF
360
2AA
  0
DICTIONARY
  5
2AB
330
C
100
AcDbDictionary
280
     1
  3
ACAD_LAYOUTSELFREF
360
2AC
  0
DICTIONARY
  5
1F
102
{ACAD_REACTORS
330
7
102
}
330
7
100
AcDbDictionary
  0
DICTIONARY
  5
B
102
{ACAD_REACTORS
330
7
102
}
330
7
100
AcDbDictionary
  0
DICTIONARY
  5
20
102
{ACAD_REACTORS
330
7
102
}
330
7
100
AcDbDictionary
  3
STANDARD
350
29
  0
DICTIONARY
  5
21
102
{ACAD_REACTORS
330
7
102
}
330
7
100
AcDbDictionary
  0
ACDBDICTIONARYWDFLT
  5
6
102
{ACAD_REACTORS
330
7
102
}
330
7
100
AcDbDictionary
281
     1
  3
Normal
350
5
100
AcDbDictionaryWithDefault
340
5
  0
DICTIONARY
  5
272
102
{ACAD_REACTORS
330
7
102
}
330
7
100
AcDbDictionary
  3
DIMASSOC
350
274
  3
HIDETEXT
350
273
  0
DICTIONARY
  5
288
102
{ACAD_REACTORS
330
7
102
}
330
7
100
AcDbDictionary
  3
TSTACKALIGN
350
289
  3
TSTACKSIZE
350
28A
  3
HYPERLINKBASE
350
28B
  3
STYLESHEET
350
28C
  3
LAYOUTDICT
350
28D
  3
PLOTSETDICT
350
28E
  3
PLOTSTYLNAMDICT
350
28F
  3
LWETCUNION
350
290
  3
INSUNITS
350
291
  3
CEPSNTYPE
350
292
  3
FINGERPRINTGUID
350
293
  3
VERSIONGUID
350
294
  3
PSVPSCALE
350
295
  3
DIMSTYLEDATA
350
296
  3
PUCSORTHOREF
350
297
  3
PUCSORTHOVIEW
350
298
  3
PUCSBASE
350
299
  3
PUCSORGTOP
350
29A
  3
PUCSORGBOTTOM
350
29B
  3
PUCSORGLEFT
350
29C
  3
PUCSORGRIGHT
350
29D
  3
PUCSORGFRONT
350
29E
  3
PUCSORGBACK
350
29F
  3
UCSORTHOREF
350
2A0
  3
UCSORTHOVIEW
350
2A1
  3
UCSBASE
350
2A2
  3
UCSORGTOP
350
2A3
  3
UCSORGBOTTOM
350
2A4
  3
UCSORGLEFT
350
2A5
  3
UCSORGRIGHT
350
2A6
  3
UCSORGFRONT
350
2A7
  3
UCSORGBACK
350
2A8
  0
XRECORD
  5
2AA
102
{ACAD_REACTORS
330
2A9
102
}
330
2A9
100
AcDbXrecord
340
2
  0
XRECORD
  5
2AC
102
{ACAD_REACTORS
330
2AB
102
}
330
2AB
100
AcDbXrecord
340
C
  0
MLINESTYLE
  5
29
102
{ACAD_REACTORS
330
20
102
}
330
20
100
AcDbMlineStyle
  2
STANDARD
 70
     0
  3

 62
   256
 51
90.0
 52
90.0
 71
     2
 49
0.5
 62
   256
  6
BYLAYER
 49
-0.5
 62
   256
  6
BYLAYER
  0
ACDBPLACEHOLDER
  5
5
102
{ACAD_REACTORS
330
6
102
}
330
6
100
AcDbPlaceHolder
280
     0
  0
DICTIONARYVAR
  5
274
102
{ACAD_REACTORS
330
272
102
}
330
272
100
DictionaryVariables
280
     0
  1
1
  0
DICTIONARYVAR
  5
273
102
{ACAD_REACTORS
330
272
102
}
330
272
100
DictionaryVariables
280
     0
  1
1
  0
XRECORD
  5
289
102
{ACAD_REACTORS
330
288
102
}
330
288
100
AcDbXrecord
 90
        1
  0
XRECORD
  5
28A
102
{ACAD_REACTORS
330
288
102
}
330
288
100
AcDbXrecord
 90
       70
  0
XRECORD
  5
28B
102
{ACAD_REACTORS
330
288
102
}
330
288
100
AcDbXrecord
  1

  0
XRECORD
  5
28C
102
{ACAD_REACTORS
330
288
102
}
330
288
100
AcDbXrecord
  1

  0
XRECORD
  5
28D
102
{ACAD_REACTORS
330
288
102
}
330
288
100
AcDbXrecord
340
B
  0
XRECORD
  5
28E
102
{ACAD_REACTORS
330
288
102
}
330
288
100
AcDbXrecord
340
21
  0
XRECORD
  5
28F
102
{ACAD_REACTORS
330
288
102
}
330
288
100
AcDbXrecord
340
6
  0
XRECORD
  5
290
102
{ACAD_REACTORS
330
288
102
}
330
288
100
AcDbXrecord
 90
    10781
  0
XRECORD
  5
291
102
{ACAD_REACTORS
330
288
102
}
330
288
100
AcDbXrecord
 90
        0
  0
XRECORD
  5
292
102
{ACAD_REACTORS
330
288
102
}
330
288
100
AcDbXrecord
 90
        0
  0
XRECORD
  5
293
102
{ACAD_REACTORS
330
288
102
}
330
288
100
AcDbXrecord
  1
{F5BB846D-4703-11D7-B009-93383F344F2B}
  0
XRECORD
  5
294
102
{ACAD_REACTORS
330
288
102
}
330
288
100
AcDbXrecord
  1
{F5BB84A3-4703-11D7-B009-93383F344F2B}
  0
XRECORD
  5
295
102
{ACAD_REACTORS
330
288
102
}
330
288
100
AcDbXrecord
 40
0.0
  0
XRECORD
  5
296
102
{ACAD_REACTORS
330
288
102
}
330
288
100
AcDbXrecord
1000
DSTYLE
1002
{
1070
   279
 70
     2
1070
   341
340
22
1070
   342
340
22
1070
   343
340
22
1070
   344
340
22
1002
}
  0
XRECORD
  5
297
102
{ACAD_REACTORS
330
288
102
}
330
288
100
AcDbXrecord
340
0
  0
XRECORD
  5
298
102
{ACAD_REACTORS
330
288
102
}
330
288
100
AcDbXrecord
 70
     0
  0
XRECORD
  5
299
102
{ACAD_REACTORS
330
288
102
}
330
288
100
AcDbXrecord
340
0
  0
XRECORD
  5
29A
102
{ACAD_REACTORS
330
288
102
}
330
288
100
AcDbXrecord
 10
0.0
 20
0.0
 30
0.0
  0
XRECORD
  5
29B
102
{ACAD_REACTORS
330
288
102
}
330
288
100
AcDbXrecord
 10
0.0
 20
0.0
 30
0.0
  0
XRECORD
  5
29C
102
{ACAD_REACTORS
330
288
102
}
330
288
100
AcDbXrecord
 10
0.0
 20
0.0
 30
0.0
  0
XRECORD
  5
29D
102
{ACAD_REACTORS
330
288
102
}
330
288
100
AcDbXrecord
 10
0.0
 20
0.0
 30
0.0
  0
XRECORD
  5
29E
102
{ACAD_REACTORS
330
288
102
}
330
288
100
AcDbXrecord
 10
0.0
 20
0.0
 30
0.0
  0
XRECORD
  5
29F
102
{ACAD_REACTORS
330
288
102
}
330
288
100
AcDbXrecord
 10
0.0
 20
0.0
 30
0.0
  0
XRECORD
  5
2A0
102
{ACAD_REACTORS
330
288
102
}
330
288
100
AcDbXrecord
340
0
  0
XRECORD
  5
2A1
102
{ACAD_REACTORS
330
288
102
}
330
288
100
AcDbXrecord
 70
     0
  0
XRECORD
  5
2A2
102
{ACAD_REACTORS
330
288
102
}
330
288
100
AcDbXrecord
340
0
  0
XRECORD
  5
2A3
102
{ACAD_REACTORS
330
288
102
}
330
288
100
AcDbXrecord
 10
0.0
 20
0.0
 30
0.0
  0
XRECORD
  5
2A4
102
{ACAD_REACTORS
330
288
102
}
330
288
100
AcDbXrecord
 10
0.0
 20
0.0
 30
0.0
  0
XRECORD
  5
2A5
102
{ACAD_REACTORS
330
288
102
}
330
288
100
AcDbXrecord
 10
0.0
 20
0.0
 30
0.0
  0
XRECORD
  5
2A6
102
{ACAD_REACTORS
330
288
102
}
330
288
100
AcDbXrecord
 10
0.0
 20
0.0
 30
0.0
  0
XRECORD
  5
2A7
102
{ACAD_REACTORS
330
288
102
}
330
288
100
AcDbXrecord
 10
0.0
 20
0.0
 30
0.0
  0
XRECORD
  5
2A8
102
{ACAD_REACTORS
330
288
102
}
330
288
100
AcDbXrecord
 10
0.0
 20
0.0
 30
0.0
  0
ENDSEC
  0
EOF
