  0
SECTION
  2
HEADER
  9
$ACADVER
  1
AC1014
  9
$ACADMAINTVER
 70
     9
  9
$DWGCODEPAGE
  3
ANSI_1252
  9
$INSBASE
 10
1207.342317284609
 20
1340.368903499949
 30
0.0000001280805562
  9
$EXTMIN
 10
-104.24365974561
 20
-87.34777198675244
 30
-0.0000007303237758
  9
$EXTMAX
 10
506.0453894794047
 20
382.9615545786513
 30
0.0000002464694888
  9
$LIMMIN
 10
0.0
 20
0.0
  9
$LIMMAX
 10
420.0
 20
297.0
  9
$ORTHOMODE
 70
     0
  9
$REGENMODE
 70
     1
  9
$FILLMODE
 70
     1
  9
$QTEXTMODE
 70
     0
  9
$MIRRTEXT
 70
     0
  9
$DRAGMODE
 70
     2
  9
$LTSCALE
 40
10.0
  9
$OSMODE
 70
    37
  9
$ATTMODE
 70
     1
  9
$TEXTSIZE
 40
2.0
  9
$TRACEWID
 40
1.0
  9
$TEXTSTYLE
  7
DEYP
  9
$CLAYER
  8
0
  9
$CELTYPE
  6
BYLAYER
  9
$CECOLOR
 62
   256
  9
$CELTSCALE
 40
1.0
  9
$DELOBJ
 70
     1
  9
$DISPSILH
 70
     0
  9
$DIMSCALE
 40
1.0
  9
$DIMASZ
 40
0.12
  9
$DIMEXO
 40
0.25
  9
$DIMDLI
 40
0.75
  9
$DIMRND
 40
0.05
  9
$DIMDLE
 40
0.0
  9
$DIMEXE
 40
0.12
  9
$DIMTP
 40
0.0
  9
$DIMTM
 40
0.0
  9
$DIMTXT
 40
0.18
  9
$DIMCEN
 40
0.3
  9
$DIMTSZ
 40
0.0
  9
$DIMTOL
 70
     0
  9
$DIMLIM
 70
     0
  9
$DIMTIH
 70
     0
  9
$DIMTOH
 70
     1
  9
$DIMSE1
 70
     0
  9
$DIMSE2
 70
     0
  9
$DIMTAD
 70
     2
  9
$DIMZIN
 70
     1
  9
$DIMBLK
  1
TICK
  9
$DIMASO
 70
     1
  9
$DIMSHO
 70
     1
  9
$DIMPOST
  1

  9
$DIMAPOST
  1

  9
$DIMALT
 70
     0
  9
$DIMALTD
 70
     2
  9
$DIMALTF
 40
25.4
  9
$DIMLFAC
 40
1.0
  9
$DIMTOFL
 70
     0
  9
$DIMTVP
 40
0.0
  9
$DIMTIX
 70
     1
  9
$DIMSOXD
 70
     0
  9
$DIMSAH
 70
     1
  9
$DIMBLK1
  1
TICK
  9
$DIMBLK2
  1
TICK
  9
$DIMSTYLE
  2
COTA1
  9
$DIMCLRD
 70
     7
  9
$DIMCLRE
 70
     7
  9
$DIMCLRT
 70
     2
  9
$DIMTFAC
 40
1.0
  9
$DIMGAP
 40
0.09
  9
$DIMJUST
 70
     4
  9
$DIMSD1
 70
     0
  9
$DIMSD2
 70
     0
  9
$DIMTOLJ
 70
     1
  9
$DIMTZIN
 70
     1
  9
$DIMALTZ
 70
     1
  9
$DIMALTTZ
 70
     1
  9
$DIMFIT
 70
     5
  9
$DIMUPT
 70
     0
  9
$DIMUNIT
 70
     2
  9
$DIMDEC
 70
     2
  9
$DIMTDEC
 70
     2
  9
$DIMALTU
 70
     2
  9
$DIMALTTD
 70
     2
  9
$DIMTXSTY
  7
STANDARD
  9
$DIMAUNIT
 70
     0
  9
$LUNITS
 70
     2
  9
$LUPREC
 70
     4
  9
$SKETCHINC
 40
1.0
  9
$FILLETRAD
 40
0.72
  9
$AUNITS
 70
     0
  9
$AUPREC
 70
     0
  9
$MENU
  1
.
  9
$ELEVATION
 40
0.0
  9
$PELEVATION
 40
0.0
  9
$THICKNESS
 40
0.0
  9
$LIMCHECK
 70
     0
  9
$BLIPMODE
 70
     0
  9
$CHAMFERA
 40
10.0
  9
$CHAMFERB
 40
10.0
  9
$CHAMFERC
 40
20.0
  9
$CHAMFERD
 40
0.0
  9
$SKPOLY
 70
     0
  9
$TDCREATE
 40
2452237.366010300
  9
$TDUPDATE
 40
2452695.530386956
  9
$TDINDWG
 40
0.6670959375
  9
$TDUSRTIMER
 40
0.6670959375
  9
$USRTIMER
 70
     1
  9
$ANGBASE
 50
0.0
  9
$ANGDIR
 70
     0
  9
$PDMODE
 70
     0
  9
$PDSIZE
 40
0.0
  9
$PLINEWID
 40
0.0
  9
$COORDS
 70
     1
  9
$SPLFRAME
 70
     0
  9
$SPLINETYPE
 70
     6
  9
$SPLINESEGS
 70
     8
  9
$ATTDIA
 70
     0
  9
$ATTREQ
 70
     1
  9
$HANDLING
 70
  4097
  9
$HANDSEED
  5
2E5
  9
$SURFTAB1
 70
     6
  9
$SURFTAB2
 70
     6
  9
$SURFTYPE
 70
     6
  9
$SURFU
 70
     6
  9
$SURFV
 70
     6
  9
$UCSNAME
  2

  9
$UCSORG
 10
0.0
 20
0.0
 30
0.0
  9
$UCSXDIR
 10
1.0
 20
0.0
 30
0.0
  9
$UCSYDIR
 10
0.0
 20
1.0
 30
0.0
  9
$PUCSNAME
  2

  9
$PUCSORG
 10
0.0
 20
0.0
 30
0.0
  9
$PUCSXDIR
 10
1.0
 20
0.0
 30
0.0
  9
$PUCSYDIR
 10
0.0
 20
1.0
 30
0.0
  9
$USERI1
 70
     0
  9
$USERI2
 70
     0
  9
$USERI3
 70
     0
  9
$USERI4
 70
     0
  9
$USERI5
 70
     0
  9
$USERR1
 40
1.0
  9
$USERR2
 40
1.0
  9
$USERR3
 40
0.0
  9
$USERR4
 40
0.0
  9
$USERR5
 40
0.0
  9
$WORLDVIEW
 70
     1
  9
$SHADEDGE
 70
     3
  9
$SHADEDIF
 70
    70
  9
$TILEMODE
 70
     1
  9
$MAXACTVP
 70
    48
  9
$PINSBASE
 10
0.0
 20
0.0
 30
0.0
  9
$PLIMCHECK
 70
     0
  9
$PEXTMIN
 10
1.000000000000000E+20
 20
1.000000000000000E+20
 30
1.000000000000000E+20
  9
$PEXTMAX
 10
-1.000000000000000E+20
 20
-1.000000000000000E+20
 30
-1.000000000000000E+20
  9
$PLIMMIN
 10
0.0
 20
0.0
  9
$PLIMMAX
 10
420.0
 20
297.0
  9
$UNITMODE
 70
     0
  9
$VISRETAIN
 70
     1
  9
$PLINEGEN
 70
     0
  9
$PSLTSCALE
 70
     1
  9
$TREEDEPTH
 70
  3020
  9
$PICKSTYLE
 70
     1
  9
$CMLSTYLE
  2
STANDARD
  9
$CMLJUST
 70
     0
  9
$CMLSCALE
 40
20.0
  9
$PROXYGRAPHICS
 70
     1
  9
$MEASUREMENT
 70
     0
  0
ENDSEC
  0
SECTION
  2
CLASSES
  0
CLASS
  1
LWPOLYLINE
  2
AcDbPolyline
  3
AutoCAD 2000
 90
        0
280
     0
281
     1
  0
CLASS
  1
HATCH
  2
AcDbHatch
  3
AutoCAD 2000
 90
        0
280
     0
281
     1
  0
CLASS
  1
XRECORD
  2
AcDbXrecord
  3
AutoCAD 2000
 90
        0
280
     0
281
     0
  0
CLASS
  1
DICTIONARYVAR
  2
AcDbDictionaryVar
  3
AutoCAD 2000
 90
        0
280
     0
281
     0
  0
CLASS
  1
ACDBDICTIONARYWDFLT
  2
AcDbDictionaryWithDefault
  3
AutoCAD 2000
 90
        0
280
     0
281
     0
  0
CLASS
  1
ACDBPLACEHOLDER
  2
AcDbPlaceHolder
  3
AutoCAD 2000
 90
        0
280
     0
281
     0
  0
CLASS
  1
LAYOUT
  2
AcDbLayout
  3
AutoCAD 2000
 90
        0
280
     0
281
     0
  0
CLASS
  1
LONG_TRANSACTION
  2
AcDbLongTransaction
  3
AutoCAD 2000
 90
        0
280
     0
281
     0
  0
CLASS
  1
LWPOLYLINE
  2
AcDbPolyline
  3
AutoCAD 2000
 90
        0
280
     0
281
     1
  0
CLASS
  1
HATCH
  2
AcDbHatch
  3
AutoCAD 2000
 90
        0
280
     0
281
     1
  0
CLASS
  1
XRECORD
  2
AcDbXrecord
  3
AutoCAD 2000
 90
        0
280
     0
281
     0
  0
ENDSEC
  0
SECTION
  2
TABLES
  0
TABLE
  2
VPORT
  5
19
330
0
100
AcDbSymbolTable
 70
     2
  0
VPORT
  5
2BF
330
19
100
AcDbSymbolTableRecord
100
AcDbViewportTableRecord
  2
*ACTIVE
 70
     0
 10
0.0
 20
0.0
 11
1.0
 21
1.0
 12
200.9008648668973
 22
155.8306089824353
 13
0.0
 23
0.0
 14
10.0
 24
10.0
 15
10.0
 25
10.0
 16
0.0
 26
0.0
 36
1.0
 17
0.0
 27
0.0
 37
0.0
 40
492.0574810482593
 41
1.676282051282051
 42
50.0
 43
0.0
 44
0.0
 50
0.0
 51
0.0
 71
     0
 72
 20000
 73
     1
 74
     1
 75
     0
 76
     0
 77
     0
 78
     0
  0
ENDTAB
  0
TABLE
  2
LTYPE
  5
14
330
0
100
AcDbSymbolTable
 70
     6
  0
LTYPE
  5
15
330
14
100
AcDbSymbolTableRecord
100
AcDbLinetypeTableRecord
  2
BYBLOCK
 70
     0
  3

 72
    65
 73
     0
 40
0.0
  0
LTYPE
  5
16
330
14
100
AcDbSymbolTableRecord
100
AcDbLinetypeTableRecord
  2
BYLAYER
 70
     0
  3

 72
    65
 73
     0
 40
0.0
  0
LTYPE
  5
8
330
14
100
AcDbSymbolTableRecord
100
AcDbLinetypeTableRecord
  2
CONTINUOUS
 70
     0
  3
Solid line
 72
    65
 73
     0
 40
0.0
  0
LTYPE
  5
35
330
14
100
AcDbSymbolTableRecord
100
AcDbLinetypeTableRecord
  2
CONTINUA
 70
     0
  3
Linea ininterrumpida
 72
    65
 73
     0
 40
0.0
  0
LTYPE
  5
4A
330
14
100
AcDbSymbolTableRecord
100
AcDbLinetypeTableRecord
  2
CENTRO
 70
     0
  3
____ _ ____ _ ____ _ ____ _ ____ _ ____ _ __
 72
    65
 73
     4
 40
2.0
 49
1.25
 74
     0
 49
-0.25
 74
     0
 49
0.25
 74
     0
 49
-0.25
 74
     0
  0
LTYPE
  5
67
330
14
100
AcDbSymbolTableRecord
100
AcDbLinetypeTableRecord
  2
RAYITAS
 70
     0
  3
_ _ _ _ _ _ _ _ _ _ _ _ _ _ _ _ _ _ _ _ _ _
 72
    65
 73
     2
 40
0.375
 49
0.25
 74
     0
 49
-0.125
 74
     0
  0
LTYPE
  5
47
330
14
100
AcDbSymbolTableRecord
100
AcDbLinetypeTableRecord
  2
TRAZOS
 70
     0
  3
__ __ __ __ __ __ __ __ __ __ __ __ __ __ __ __
 72
    65
 73
     2
 40
0.75
 49
0.5
 74
     0
 49
-0.25
 74
     0
  0
LTYPE
  5
41
330
14
100
AcDbSymbolTableRecord
100
AcDbLinetypeTableRecord
  2
TRAZO_Y_PUNTO
 70
     0
  3
__ . __ . __ . __ . __ . __ . __ . __ . __ . __
 72
    65
 73
     4
 40
1.0
 49
0.5
 74
     0
 49
-0.25
 74
     0
 49
0.0
 74
     0
 49
-0.25
 74
     0
  0
ENDTAB
  0
TABLE
  2
LAYER
  5
10
330
0
100
AcDbSymbolTable
 70
     6
  0
LAYER
  5
4
330
10
100
AcDbSymbolTableRecord
100
AcDbLayerTableRecord
  2
0
 70
     0
 62
     7
  6
CONTINUOUS
  0
LAYER
  5
24
330
10
100
AcDbSymbolTableRecord
100
AcDbLayerTableRecord
  2
05C
 70
     0
 62
     5
  6
CONTINUOUS
  0
LAYER
  5
49
330
10
100
AcDbSymbolTableRecord
100
AcDbLayerTableRecord
  2
7
 70
     0
 62
     7
  6
CENTRO
  0
LAYER
  5
34
330
10
100
AcDbSymbolTableRecord
100
AcDbLayerTableRecord
  2
9
 70
     0
 62
     7
  6
CONTINUA
  0
LAYER
  5
215
330
10
100
AcDbSymbolTableRecord
100
AcDbLayerTableRecord
  2
KR-GRUESA
 70
     0
 62
     6
  6
CONTINUOUS
  0
LAYER
  5
4F
330
10
100
AcDbSymbolTableRecord
100
AcDbLayerTableRecord
  2
KR-TEXTOS
 70
     0
 62
     2
  6
CONTINUOUS
  0
ENDTAB
  0
TABLE
  2
STYLE
  5
11
330
0
100
AcDbSymbolTable
 70
     4
  0
STYLE
  5
12
330
11
100
AcDbSymbolTableRecord
100
AcDbTextStyleTableRecord
  2
STANDARD
 70
     0
 40
0.0
 41
1.0
 50
0.0
 71
     0
 42
2.5
  3
txt
  4

  0
STYLE
  5
2B
330
11
100
AcDbSymbolTableRecord
100
AcDbTextStyleTableRecord
  2
ROMANS
 70
     0
 40
2.0
 41
1.0
 50
0.0
 71
     0
 42
2.0
  3
romans.shx
  4

  0
STYLE
  5
28
330
11
100
AcDbSymbolTableRecord
100
AcDbTextStyleTableRecord
  2
DEYP
 70
     0
 40
0.0
 41
1.0
 50
0.0
 71
     0
 42
2.0
  3
romans.shx
  4

  0
STYLE
  5
76
330
11
100
AcDbSymbolTableRecord
100
AcDbTextStyleTableRecord
  2
SYMATH
 70
     0
 40
1.0
 41
1.0
 50
0.0
 71
     0
 42
1.0
  3
SYMATH
  4

  0
ENDTAB
  0
TABLE
  2
VIEW
  5
17
330
0
100
AcDbSymbolTable
 70
     0
  0
ENDTAB
  0
TABLE
  2
UCS
  5
18
330
0
100
AcDbSymbolTable
 70
     0
  0
ENDTAB
  0
TABLE
  2
APPID
  5
1B
330
0
100
AcDbSymbolTable
 70
     1
  0
APPID
  5
1C
330
1B
100
AcDbSymbolTableRecord
100
AcDbRegAppTableRecord
  2
ACAD
 70
     0
  0
ENDTAB
  0
TABLE
  2
DIMSTYLE
  5
1D
330
0
100
AcDbSymbolTable
 70
     1
  0
DIMSTYLE
105
2A
330
1D
100
AcDbSymbolTableRecord
100
AcDbDimStyleTableRecord
  2
COTA1
 70
     0
  3

  4

  5
COTA
  6
COTA
  7
COTA
 40
1.0
 41
0.75
 42
5.0
 43
6.0
 44
1.8
 45
0.0
 46
2.0
 47
0.0
 48
0.0
140
2.0
141
1.5
142
0.0
143
25.4
144
1.0
145
1.0
146
1.0
147
0.09
 71
     0
 72
     0
 73
     0
 74
     0
 75
     0
 76
     0
 77
     0
 78
     0
170
     0
171
     2
172
     0
173
     1
174
     1
175
     0
176
     1
177
     1
178
     1
270
     2
271
     3
272
     3
273
     2
274
     2
340
2B
275
     0
280
     0
281
     0
282
     0
283
     1
284
     0
285
     0
286
     0
287
     5
288
     0
  0
ENDTAB
  0
TABLE
  2
BLOCK_RECORD
  5
1
330
0
100
AcDbSymbolTable
 70
     3
  0
BLOCK_RECORD
  5
2
102
{ACAD_XDICTIONARY
360
2E1
102
}
330
1
100
AcDbSymbolTableRecord
100
AcDbBlockTableRecord
  2
*MODEL_SPACE
  0
BLOCK_RECORD
  5
C
102
{ACAD_XDICTIONARY
360
2E3
102
}
330
1
100
AcDbSymbolTableRecord
100
AcDbBlockTableRecord
  2
*PAPER_SPACE
  0
BLOCK_RECORD
  5
22
330
1
100
AcDbSymbolTableRecord
100
AcDbBlockTableRecord
  2
TICK
  0
BLOCK_RECORD
  5
2C
330
1
100
AcDbSymbolTableRecord
100
AcDbBlockTableRecord
  2
COTA
  0
BLOCK_RECORD
  5
74
330
1
100
AcDbSymbolTableRecord
100
AcDbBlockTableRecord
  2
SIM10
  0
ENDTAB
  0
ENDSEC
  0
SECTION
  2
BLOCKS
  0
BLOCK
  5
3
330
2
100
AcDbEntity
  8
0
100
AcDbBlockBegin
  2
*MODEL_SPACE
 70
     0
 10
0.0
 20
0.0
 30
0.0
  3
*MODEL_SPACE
  1

  0
ENDBLK
  5
9
330
2
100
AcDbEntity
  8
0
100
AcDbBlockEnd
  0
BLOCK
  5
D
330
C
100
AcDbEntity
 67
     1
  8
0
100
AcDbBlockBegin
  2
*PAPER_SPACE
 70
     0
 10
0.0
 20
0.0
 30
0.0
  3
*PAPER_SPACE
  1

  0
ENDBLK
  5
E
330
C
100
AcDbEntity
 67
     1
  8
0
100
AcDbBlockEnd
  0
BLOCK
  5
26
330
22
100
AcDbEntity
  8
0
100
AcDbBlockBegin
  2
TICK
 70
     0
 10
0.0
 20
0.0
 30
0.0
  3
TICK
  1

  0
LINE
  5
23
330
22
100
AcDbEntity
  8
05C
100
AcDbLine
 10
-0.7071067811865462
 20
-0.7071067811865462
 30
0.0
 11
0.7071067811865533
 21
0.7071067811865533
 31
0.0
  0
LINE
  5
25
330
22
100
AcDbEntity
  8
0
100
AcDbLine
 10
-1.0
 20
0.0
 30
0.0
 11
1.000000000000056
 21
0.0
 31
0.0
  0
ENDBLK
  5
27
330
22
100
AcDbEntity
  8
0
100
AcDbBlockEnd
  0
BLOCK
  5
31
330
2C
100
AcDbEntity
  8
0
100
AcDbBlockBegin
  2
COTA
 70
     0
 10
0.0
 20
0.0
 30
0.0
  3
COTA
  1

  0
LINE
  5
2D
330
2C
100
AcDbEntity
  8
0
  6
CONTINUOUS
 62
     4
100
AcDbLine
 10
-0.707106781186667
 20
-0.707106781186667
 30
0.0
 11
0.0
 21
0.0
 31
0.0
  0
LINE
  5
2E
330
2C
100
AcDbEntity
  8
0
  6
CONTINUOUS
 62
     4
100
AcDbLine
 10
0.0
 20
0.0
 30
0.0
 11
0.707106781186667
 21
0.707106781186667
 31
0.0
  0
LINE
  5
2F
330
2C
100
AcDbEntity
  8
0
  6
CONTINUOUS
 62
     7
100
AcDbLine
 10
-1.0
 20
0.0
 30
0.0
 11
0.0
 21
0.0
 31
0.0
  0
LINE
  5
30
330
2C
100
AcDbEntity
  8
0
  6
CONTINUOUS
 62
     7
100
AcDbLine
 10
0.0
 20
0.0
 30
0.0
 11
1.5
 21
0.0
 31
0.0
  0
ENDBLK
  5
32
330
2C
100
AcDbEntity
  8
0
100
AcDbBlockEnd
  0
BLOCK
  5
77
330
74
100
AcDbEntity
  8
0
100
AcDbBlockBegin
  2
SIM10
 70
     0
 10
0.0
 20
0.0
 30
0.0
  3
SIM10
  1

  0
TEXT
  5
75
330
74
100
AcDbEntity
  8
0
  6
CONTINUOUS
 62
     0
100
AcDbText
 10
-0.6190476190476188
 20
-0.4285714285714286
 30
0.0
 40
1.0
  1
K
  7
SYMATH
 72
     4
 11
0.0
 21
0.0
 31
0.0
100
AcDbText
  0
ENDBLK
  5
78
330
74
100
AcDbEntity
  8
0
100
AcDbBlockEnd
  0
ENDSEC
  0
SECTION
  2
ENTITIES
  0
LINE
  5
33
330
2
100
AcDbEntity
  8
9
100
AcDbLine
 10
328.729674904732
 20
325.7015282499756
 30
-0.000000243913165
 11
293.8546878626791
 21
332.0660708518355
 31
-0.0000001685024332
  0
LINE
  5
36
330
2
100
AcDbEntity
  8
9
100
AcDbLine
 10
294.3138884138359
 20
82.00395548859479
 30
0.0000000104757623
 11
397.8138884138354
 21
82.00395548860319
 31
-0.0000006242074457
  0
LINE
  5
37
330
2
100
AcDbEntity
  8
9
100
AcDbLine
 10
308.8138884138357
 20
120.0114541378081
 30
0.0000000306236679
 11
397.8138884138354
 21
120.0114541378168
 31
-0.0000004521522833
  0
LINE
  5
38
330
2
100
AcDbEntity
  8
9
100
AcDbLine
 10
294.3138884138359
 20
152.8867767877975
 30
-0.0000000987193973
 11
397.8138884138352
 21
152.8867767878061
 31
-0.0000005814953485
  0
LINE
  5
39
330
2
100
AcDbEntity
  8
9
100
AcDbLine
 10
294.3138884138361
 20
191.6192666474262
 30
0.0000000505401127
 11
397.8138884138354
 21
191.6192666474346
 31
-0.0000004322358385
  0
LINE
  5
3A
330
2
100
AcDbEntity
  8
9
100
AcDbLine
 10
294.3138884138359
 20
230.3517565070549
 30
0.0000000834493376
 11
397.8138884138352
 21
230.3517565070633
 31
-0.0000003993266136
  0
LINE
  5
3B
330
2
100
AcDbEntity
  8
9
100
AcDbLine
 10
294.3138884138359
 20
269.1016820989798
 30
0.0000000104757623
 11
397.8138884138352
 21
269.1016820989882
 31
-0.0000004723001889
  0
LINE
  5
3C
330
2
100
AcDbEntity
  8
0
100
AcDbLine
 10
289.8500194479165
 20
331.239546092504
 30
-0.0000003213740269
 11
275.8790027432419
 21
339.0485504336886
 31
-0.0000001280805562
  0
LINE
  5
3D
330
2
100
AcDbEntity
  8
0
100
AcDbLine
 10
292.494700629951
 20
29.66480903805109
 30
-0.0000003290706225
 11
286.1945786500287
 21
8.913172464359149
 31
-0.0000001923813101
  0
LINE
  5
3E
330
2
100
AcDbEntity
  8
9
100
AcDbLine
 10
282.0596097217407
 20
123.0576990853253
 30
-0.0000002155070287
 11
282.059609721741
 21
259.7499255860914
 31
-0.0000003288177906
  0
LINE
  5
3F
330
2
100
AcDbEntity
  8
9
100
AcDbLine
 10
-11.75427869209488
 20
116.2719495856242
 30
-0.0000002198321249
 11
-11.75427869209465
 21
171.8038946932886
 31
-0.0000003103643745
  0
LINE
  5
40
330
2
100
AcDbEntity
  8
0
  6
TRAZO_Y_PUNTO
100
AcDbLine
 10
397.8138884138352
 20
310.0443936597373
 30
-0.0000003944596507
 11
293.8138884138357
 21
329.0239686139952
 31
-0.0000001695788186
  0
LINE
  5
42
330
2
100
AcDbEntity
  8
0
100
AcDbLine
 10
308.5248589842021
 20
94.76078674651217
 30
-0.0000001280805562
 11
308.7265475087292
 21
102.6228620268748
 31
-0.0000002468937738
  0
LINE
  5
43
330
2
100
AcDbEntity
  8
9
100
AcDbLine
 10
294.3138884138359
 20
43.88120391636493
 30
-0.0000001414314945
 11
397.8138884138354
 21
43.88120391637335
 31
-0.0000006242074457
  0
LINE
  5
44
330
2
100
AcDbEntity
  8
0
100
AcDbLine
 10
-18.33403506153467
 20
144.0350202749096
 30
-0.0000001821687349
 11
-36.73038804239627
 21
118.9589315642429
 31
-0.0000003990179094
  0
LINE
  5
45
330
2
100
AcDbEntity
  8
0
100
AcDbLine
 10
408.8686078942266
 20
221.4999999941753
 30
-0.000000386374274
 11
408.8686078942268
 21
106.0275216257048
 31
-0.0000003782888973
  0
LINE
  5
46
330
2
100
AcDbEntity
  8
0
  6
TRAZOS
100
AcDbLine
 10
399.8138884138354
 20
309.7943936597373
 30
-0.000000386374274
 11
399.8138884138356
 21
106.0275216257048
 31
-0.000000386374274
  0
LINE
  5
48
330
2
100
AcDbEntity
  8
7
100
AcDbLine
 10
397.8138884138357
 20
190.1192666474351
 30
-0.0000005383521686
 11
397.8138884138357
 21
193.119266647435
 31
-0.0000005383521686
  0
LINE
  5
4B
330
2
100
AcDbEntity
  8
7
100
AcDbLine
 10
397.8138884138357
 20
190.1192666474351
 30
-0.0000005383521686
 11
397.8138884138357
 21
193.119266647435
 31
-0.0000005383521686
  0
LINE
  5
4C
330
2
100
AcDbEntity
  8
0
100
AcDbLine
 10
497.567684203271
 20
-0.0000000000186446
 30
-0.0000003386163555
 11
497.5676842032712
 21
221.4999999941756
 31
-0.0000003319598808
  0
LWPOLYLINE
  5
4D
330
2
100
AcDbEntity
  8
0
 62
     5
100
AcDbPolyline
 90
        2
 70
     0
 43
1.0
 38
-0.0000002464694888
 10
397.8138884138354
 20
68.02002297649119
 10
0.0058037290932589
 20
68.02002297648255
  0
TEXT
  5
4E
330
2
100
AcDbEntity
  8
KR-TEXTOS
  6
CONTINUOUS
100
AcDbText
 10
-12.82717733314143
 20
27.18858291680872
 30
-0.0000002464694888
 40
2.0
  1
(A1, B1)
 50
90.0
  7
DEYP
 72
     1
 11
-13.82717733314143
 21
33.76001148823729
 31
-0.0000002464694888
100
AcDbText
 73
     2
  0
LINE
  5
50
330
2
100
AcDbEntity
  8
0
100
AcDbLine
 10
-32.38155889652216
 20
141.6003719142804
 30
-0.0000003590395962
 11
-36.73038804239786
 21
137.1545991197786
 31
-0.0000003990179094
  0
LINE
  5
51
330
2
100
AcDbEntity
  8
0
 62
     7
100
AcDbLine
 10
-86.63608564795458
 20
137.1545991197786
 30
-0.0000003990179094
 11
-36.73038804239786
 21
137.1545991197786
 31
-0.0000003990179094
  0
LINE
  5
52
330
2
100
AcDbEntity
  8
0
 62
     7
100
AcDbLine
 10
-86.636085647953
 20
118.9589315642429
 30
-0.0000003990179094
 11
-36.73038804239627
 21
118.9589315642429
 31
-0.0000003990179094
  0
TEXT
  5
53
330
2
100
AcDbEntity
  8
KR-TEXTOS
  6
CONTINUOUS
100
AcDbText
 10
-86.97531270375407
 20
119.9130789031091
 30
-0.0000003990179094
 40
2.0
  1
PORT. 4: HEA 600 A52
  7
DEYP
100
AcDbText
  0
TEXT
  5
54
330
2
100
AcDbEntity
  8
KR-TEXTOS
  6
CONTINUOUS
100
AcDbText
 10
-86.97531270375407
 20
116.0047842253766
 30
-0.0000003990179094
 40
2.0
  1
PORT. 3 Y 5: HEB 600 A52
  7
DEYP
100
AcDbText
  0
TEXT
  5
55
330
2
100
AcDbEntity
  8
KR-TEXTOS
  6
CONTINUOUS
100
AcDbText
 10
-104.6008026027528
 20
135.9091326623472
 30
-0.00000044122814
 40
2.5
  1
$2
  7
DEYP
 72
     1
 11
-102.2198502218004
 21
137.1591326623472
 31
-0.00000044122814
100
AcDbText
 73
     2
  0
TEXT
  5
56
330
2
100
AcDbEntity
  8
KR-TEXTOS
  6
CONTINUOUS
100
AcDbText
 10
-86.97531270375566
 20
130.8418187064698
 30
-0.0000003990179094
 40
2.0
  1
ó HEA 500 A52
  7
DEYP
100
AcDbText
  0
TEXT
  5
57
330
2
100
AcDbEntity
  8
KR-TEXTOS
  6
CONTINUOUS
100
AcDbText
 10
-86.97531270375566
 20
134.2004517809123
 30
-0.0000003990179094
 40
2.0
  1
IPE 500 A52
  7
DEYP
100
AcDbText
  0
TEXT
  5
58
330
2
100
AcDbEntity
  8
KR-TEXTOS
  6
CONTINUOUS
100
AcDbText
 10
-86.97531270375566
 20
138.1087464586448
 30
-0.0000003990179094
 40
2.0
  1
V.B. MIX. CONT.
  7
DEYP
100
AcDbText
  0
TEXT
  5
59
330
2
100
AcDbEntity
  8
KR-TEXTOS
  6
CONTINUOUS
100
AcDbText
 10
-86.97531270375566
 20
127.4831856320274
 30
-0.0000003990179094
 40
2.0
  1
+ UPN 120 A52
  7
DEYP
100
AcDbText
  0
TEXT
  5
5A
330
2
100
AcDbEntity
  8
KR-TEXTOS
  6
CONTINUOUS
100
AcDbText
 10
-59.03404642114576
 20
132.5178912173078
 30
-0.0000003059781297
 40
2.0
  1
SEGUN VANOS
  7
DEYP
 72
     1
 11
-48.31976070686005
 21
133.5178912173078
 31
-0.0000003059781297
100
AcDbText
 73
     2
  0
LWPOLYLINE
  5
5B
330
2
100
AcDbEntity
  8
0
100
AcDbPolyline
 90
        4
 70
     0
 43
0.0
 38
-0.0000003643374698
 10
-93.66802461601741
 20
112.0573627392466
 10
-98.66802461601743
 20
112.0573627392466
 10
-98.6680246160181
 20
150.5988274665335
 10
-93.66802461601787
 20
150.5988274665337
  0
LINE
  5
5C
330
2
100
AcDbEntity
  8
0
 62
     5
100
AcDbLine
 10
-80.73854828045956
 20
63.02002297649119
 30
-0.0000002486762412
 11
-74.73854828045955
 21
63.02002297649074
 31
-0.000000248587918
  0
LWPOLYLINE
  5
5D
330
2
100
AcDbEntity
  8
0
 62
     5
100
AcDbPolyline
 90
        2
 70
     0
 43
1.0
 38
-0.0000002464694888
 10
-72.2169256312959
 20
68.02002297648255
 10
-77.73274455136607
 20
68.02002297648255
  0
LWPOLYLINE
  5
5E
330
2
100
AcDbEntity
  8
9
100
AcDbPolyline
 90
        7
 70
     0
 43
0.0
 38
-0.0000003059781297
 10
-61.27615933023003
 20
130.8585717804126
 10
-60.67953798360372
 20
131.4551931270384
 10
-60.67953798360372
 20
132.9212698706814
 10
-60.08291663697765
 20
133.5178912173078
 10
-60.67953798360372
 20
134.1145125639341
 10
-60.67953798360372
 20
135.5805893075762
 10
-61.27615933023003
 20
136.1772106542025
  0
LINE
  5
5F
330
2
100
AcDbEntity
  8
0
100
AcDbLine
 10
-11.75427869209511
 20
67.52002297648255
 30
-0.0000002464694888
 11
-10.69361852031511
 21
68.58068314826209
 31
-0.0000002464694888
  0
LINE
  5
60
330
2
100
AcDbEntity
  8
0
100
AcDbLine
 10
-11.75427869209511
 20
67.52002297648255
 30
-0.0000002464694888
 11
-10.69361852031511
 21
66.45936280470255
 31
-0.0000002464694888
  0
LINE
  5
61
330
2
100
AcDbEntity
  8
0
 62
     5
100
AcDbLine
 10
-3.000000000000227
 20
63.02002297649119
 30
-0.0000002486762412
 11
2.999999999999772
 21
63.02002297649074
 31
-0.000000248587918
  0
LINE
  5
62
330
2
100
AcDbEntity
  8
9
100
AcDbLine
 10
-11.75427869209556
 20
67.520022976483
 30
-0.0000002464694888
 11
-12.81493886387556
 21
68.58068314826255
 31
-0.0000002464694888
  0
LINE
  5
63
330
2
100
AcDbEntity
  8
7
100
AcDbLine
 10
-10.25427869209556
 20
67.52002297648255
 30
-0.0000002464694888
 11
-13.25427869209556
 21
67.52002297648255
 31
-0.0000002464694888
  0
LINE
  5
64
330
2
100
AcDbEntity
  8
7
100
AcDbLine
 10
-10.25427869209556
 20
67.52002297648255
 30
-0.0000002464694888
 11
-13.25427869209556
 21
67.52002297648255
 31
-0.0000002464694888
  0
LINE
  5
65
330
2
100
AcDbEntity
  8
9
100
AcDbLine
 10
-11.75427869209556
 20
67.5200229764821
 30
-0.0000002464694888
 11
-12.81493886387556
 21
66.45936280470255
 31
-0.0000002464694888
  0
CIRCLE
  5
66
330
2
100
AcDbEntity
  8
0
  6
RAYITAS
 62
     9
100
AcDbCircle
 10
-30.0
 20
144.0350202749096
 30
-0.0000003371461843
 40
3.405779707720057
  0
TEXT
  5
68
330
2
100
AcDbEntity
  8
KR-TEXTOS
  6
CONTINUOUS
100
AcDbText
 10
-8.68138005104879
 20
124.009524918116
 30
-0.0000002464694888
 40
2.0
  1
SIN INT.
 50
90.0
  7
DEYP
 72
     1
 11
-9.68138005104879
 21
130.009524918116
 31
-0.0000002464694888
100
AcDbText
 73
     2
  0
TEXT
  5
69
330
2
100
AcDbEntity
  8
KR-TEXTOS
  6
CONTINUOUS
100
AcDbText
 10
-12.82717733314143
 20
126.4857153943065
 30
-0.0000002464694888
 40
2.0
  1
A52d
 50
90.0
  7
DEYP
 72
     1
 11
-13.82717733314143
 21
130.009524918116
 31
-0.0000002464694888
100
AcDbText
 73
     2
  0
LWPOLYLINE
  5
6A
330
2
100
AcDbEntity
  8
0
 62
     5
100
AcDbPolyline
 90
        2
 70
     0
 43
1.0
 38
-0.0000003576921113
 10
146.9098460714647
 20
-0.0000000000079581
 10
146.9098460714644
 20
68.02002297648255
  0
TEXT
  5
6B
330
2
100
AcDbEntity
  8
KR-TEXTOS
  6
CONTINUOUS
100
AcDbText
 10
132.799468478862
 20
18.42863460398312
 30
-0.0000002464694888
 40
2.0
  1
(A2, B2)
 50
90.0
  7
DEYP
 72
     1
 11
131.799468478862
 21
25.00006317541169
 31
-0.0000002464694888
100
AcDbText
 73
     2
  0
TEXT
  5
6C
330
2
100
AcDbEntity
  8
KR-TEXTOS
  6
CONTINUOUS
100
AcDbText
 10
107.405203788136
 20
83.56478672657067
 30
-0.0000002547121814
 40
2.0
  1
HEA 600 A52
  7
DEYP
100
AcDbText
  0
TEXT
  5
6D
330
2
100
AcDbEntity
  8
KR-TEXTOS
  6
CONTINUOUS
100
AcDbText
 10
107.405203788136
 20
87.47308140430323
 30
-0.0000002547121814
 40
2.0
  1
PERFIL DE FORJADO MIXT. CONT.
  7
DEYP
100
AcDbText
  0
LINE
  5
6E
330
2
100
AcDbEntity
  8
0
 62
     7
100
AcDbLine
 10
158.0381206511588
 20
86.51893406543695
 30
-0.0000002547121814
 11
106.216828266472
 21
86.51893406543695
 31
-0.0000002547121814
  0
TEXT
  5
6F
330
2
100
AcDbEntity
  8
KR-TEXTOS
  6
CONTINUOUS
100
AcDbText
 10
59.56130627293163
 20
54.03295075278106
 30
-0.0000002464694888
 40
2.0
  1
600.25
  7
DEYP
 72
     1
 11
64.84702055864591
 21
55.03295075278106
 31
-0.0000002464694888
100
AcDbText
 73
     2
  0
TEXT
  5
70
330
2
100
AcDbEntity
  8
KR-TEXTOS
  6
CONTINUOUS
100
AcDbText
 10
59.56130627293163
 20
63.6731222173496
 30
-0.0000002464694888
 40
2.0
  1
600.25
  7
DEYP
 72
     1
 11
64.84702055864591
 21
64.6731222173496
 31
-0.0000002464694888
100
AcDbText
 73
     2
  0
TEXT
  5
71
330
2
100
AcDbEntity
  8
KR-TEXTOS
  6
CONTINUOUS
100
AcDbText
 10
58.54885159794339
 20
58.85303648506511
 30
-0.0000002464694888
 40
2.0
  1
20.1030
  7
DEYP
 72
     1
 11
64.73932778841959
 21
59.8530364850651
 31
-0.0000002464694888
100
AcDbText
 73
     2
  0
TEXT
  5
72
330
2
100
AcDbEntity
  8
KR-TEXTOS
  6
CONTINUOUS
100
AcDbText
 10
46.59778017858939
 20
69.83625216857922
 30
-0.0000002464694888
 40
2.0
  1
V. MIX. SIN INT. A52d
  7
DEYP
 72
     1
 11
63.45492303573223
 21
70.83625216857922
 31
-0.0000002464694888
100
AcDbText
 73
     2
  0
INSERT
  5
73
330
2
100
AcDbEntity
  8
KR-TEXTOS
  6
CONTINUOUS
100
AcDbBlockReference
  2
SIM10
 10
58.15523620913655
 20
55.03295075278106
 30
-0.0000002464694888
 41
2.0
 42
2.0
 43
2.0
  0
INSERT
  5
79
330
2
100
AcDbEntity
  8
KR-TEXTOS
  6
CONTINUOUS
100
AcDbBlockReference
  2
SIM10
 10
57.23466880126057
 20
59.8530364850651
 30
-0.0000002464694888
 41
2.0
 42
2.0
 43
2.0
  0
INSERT
  5
7A
330
2
100
AcDbEntity
  8
KR-TEXTOS
  6
CONTINUOUS
100
AcDbBlockReference
  2
SIM10
 10
58.15523620913655
 20
64.6731222173496
 30
-0.0000002464694888
 41
2.0
 42
2.0
 43
2.0
  0
LINE
  5
7B
330
2
100
AcDbEntity
  8
0
100
AcDbLine
 10
93.28889009452813
 20
71.69087402491254
 30
-0.0000002490997813
 11
106.216828266472
 21
86.51893406543695
 31
-0.0000002547121814
  0
CIRCLE
  5
7C
330
2
100
AcDbEntity
  8
0
  6
RAYITAS
 62
     9
100
AcDbCircle
 10
90.61570971855099
 20
68.0200229764846
 30
-0.0000002464694888
 40
4.54103961029341
  0
TEXT
  5
7D
330
2
100
AcDbEntity
  8
KR-TEXTOS
  6
CONTINUOUS
100
AcDbText
 10
123.6241317857502
 20
76.9945974991499
 30
-0.0000002464694888
 40
2.0
  1
3.0-   12%%C12/0.200   -3.0
  7
DEYP
 72
     1
 11
146.9098460714644
 21
77.99459749914991
 31
-0.0000002464694888
100
AcDbText
 73
     2
  0
LINE
  5
7E
330
2
100
AcDbEntity
  8
0
 62
     4
100
AcDbLine
 10
176.9098460714644
 20
76.02002297648255
 30
-0.0000002464694888
 11
116.9098460714644
 21
76.02002297648255
 31
-0.0000002464694888
  0
TEXT
  5
7F
330
2
100
AcDbEntity
  8
KR-TEXTOS
  6
CONTINUOUS
100
AcDbText
 10
138.6786826462175
 20
56.10584939382738
 30
-0.0000002464694888
 40
2.0
  1
600.  40
  7
DEYP
 72
     1
 11
145.9643969319317
 21
57.10584939382738
 31
-0.0000002464694888
100
AcDbText
 73
     2
  0
LINE
  5
80
330
2
100
AcDbEntity
  8
0
 62
     5
100
AcDbLine
 10
143.9098460714644
 20
63.02002297648255
 30
-0.0000002465136504
 11
149.9098460714644
 21
63.02002297648209
 31
-0.0000002464253272
  0
LINE
  5
81
330
2
100
AcDbEntity
  8
0
100
AcDbLine
 10
133.8723671199083
 20
67.52002297648255
 30
-0.0000002464694888
 11
134.9330272916884
 21
66.45936280470255
 31
-0.0000002464694888
  0
TEXT
  5
82
330
2
100
AcDbEntity
  8
KR-TEXTOS
  6
CONTINUOUS
100
AcDbText
 10
136.759753038826
 20
51.96004830871174
 30
-0.0000002464694888
 40
2.0
  1
2.0
  7
DEYP
 72
     1
 11
139.1407054197784
 21
52.96004830871175
 31
-0.0000002464694888
100
AcDbText
 73
     2
  0
INSERT
  5
83
330
2
100
AcDbEntity
  8
KR-TEXTOS
  6
CONTINUOUS
100
AcDbBlockReference
  2
SIM10
 10
137.0890286968146
 20
57.10584939382738
 30
-0.0000002464694888
 41
2.0
 42
2.0
 43
2.0
  0
LINE
  5
84
330
2
100
AcDbEntity
  8
9
100
AcDbLine
 10
133.8723671199079
 20
67.5200229764821
 30
-0.0000002464694888
 11
132.8117069481279
 21
66.45936280470255
 31
-0.0000002464694888
  0
LINE
  5
85
330
2
100
AcDbEntity
  8
7
100
AcDbLine
 10
135.3723671199079
 20
67.52002297648255
 30
-0.0000002464694888
 11
132.3723671199079
 21
67.52002297648255
 31
-0.0000002464694888
  0
LINE
  5
86
330
2
100
AcDbEntity
  8
7
100
AcDbLine
 10
135.3723671199079
 20
67.52002297648255
 30
-0.0000002464694888
 11
132.3723671199079
 21
67.52002297648255
 31
-0.0000002464694888
  0
TEXT
  5
87
330
2
100
AcDbEntity
  8
KR-TEXTOS
  6
CONTINUOUS
100
AcDbText
 10
152.8694629136265
 20
51.96004830871174
 30
-0.0000002464694888
 40
2.0
  1
2.0
  7
DEYP
 72
     1
 11
155.2504152945789
 21
52.96004830871175
 31
-0.0000002464694888
100
AcDbText
 73
     2
  0
TEXT
  5
88
330
2
100
AcDbEntity
  8
KR-TEXTOS
  6
CONTINUOUS
100
AcDbText
 10
338.2307932816483
 20
83.0768541296411
 30
-0.0000005054429438
 40
2.0
  1
V. MIX. CONT.
  7
DEYP
 72
     1
 11
348.7069837578387
 21
84.07685412964111
 31
-0.0000005054429438
100
AcDbText
 73
     2
  0
TEXT
  5
89
330
2
100
AcDbEntity
  8
KR-TEXTOS
  6
CONTINUOUS
100
AcDbText
 10
353.0250457892895
 20
44.72900496497913
 30
-0.0000005054429438
 40
2.0
  1
V. MIX.
  7
DEYP
 72
     1
 11
358.1679029321467
 21
45.72900496497914
 31
-0.0000005054429438
100
AcDbText
 73
     2
  0
LINE
  5
8A
330
2
100
AcDbEntity
  8
7
100
AcDbLine
 10
397.8138884138357
 20
42.3812039163738
 30
-0.0000007303237758
 11
397.8138884138357
 21
45.3812039163738
 31
-0.0000007303237758
  0
LINE
  5
8B
330
2
100
AcDbEntity
  8
7
100
AcDbLine
 10
397.8138884138357
 20
42.3812039163738
 30
-0.0000007303237758
 11
397.8138884138357
 21
45.3812039163738
 31
-0.0000007303237758
  0
LINE
  5
8C
330
2
100
AcDbEntity
  8
0
100
AcDbLine
 10
397.8138884138357
 20
43.88120391637335
 30
-0.0000007303237758
 11
396.7532282420559
 21
42.82054374459358
 31
-0.0000007303237758
  0
LINE
  5
8D
330
2
100
AcDbEntity
  8
9
100
AcDbLine
 10
397.8138884138352
 20
43.8812039163738
 30
-0.0000007303237758
 11
396.7532282420556
 21
44.94186408815403
 31
-0.0000007303237758
  0
LINE
  5
8E
330
2
100
AcDbEntity
  8
9
100
AcDbLine
 10
397.8138884138352
 20
82.00395548860365
 30
-0.0000007303237758
 11
396.7532282420556
 21
83.06461566038388
 31
-0.0000007303237758
  0
LINE
  5
8F
330
2
100
AcDbEntity
  8
0
100
AcDbLine
 10
397.8138884138357
 20
82.00395548860319
 30
-0.0000007303237758
 11
396.7532282420559
 21
80.94329531682342
 31
-0.0000007303237758
  0
LINE
  5
90
330
2
100
AcDbEntity
  8
7
100
AcDbLine
 10
397.8138884138357
 20
80.50395548860365
 30
-0.0000007303237758
 11
397.8138884138357
 21
83.50395548860365
 31
-0.0000007303237758
  0
LINE
  5
91
330
2
100
AcDbEntity
  8
7
100
AcDbLine
 10
397.8138884138357
 20
80.50395548860365
 30
-0.0000007303237758
 11
397.8138884138357
 21
83.50395548860365
 31
-0.0000007303237758
  0
LINE
  5
92
330
2
100
AcDbEntity
  8
7
100
AcDbLine
 10
397.8138884138354
 20
151.3867767878066
 30
-0.0000006876116786
 11
397.8138884138354
 21
154.3867767878066
 31
-0.0000006876116786
  0
LINE
  5
93
330
2
100
AcDbEntity
  8
7
100
AcDbLine
 10
397.8138884138354
 20
151.3867767878066
 30
-0.0000006876116786
 11
397.8138884138354
 21
154.3867767878066
 31
-0.0000006876116786
  0
LINE
  5
94
330
2
100
AcDbEntity
  8
9
100
AcDbLine
 10
397.8138884138349
 20
152.8867767878066
 30
-0.0000006876116786
 11
396.7532282420554
 21
153.9474369595866
 31
-0.0000006876116786
  0
LINE
  5
95
330
2
100
AcDbEntity
  8
0
100
AcDbLine
 10
397.8138884138354
 20
152.8867767878061
 30
-0.0000006876116786
 11
396.7532282420556
 21
151.8261166160261
 31
-0.0000006876116786
  0
LINE
  5
96
330
2
100
AcDbEntity
  8
9
100
AcDbLine
 10
397.8138884138352
 20
120.0114541378172
 30
-0.0000005582686134
 11
396.7532282420556
 21
121.0721143095972
 31
-0.0000005582686134
  0
LINE
  5
97
330
2
100
AcDbEntity
  8
0
100
AcDbLine
 10
397.8138884138357
 20
120.0114541378168
 30
-0.0000005582686134
 11
396.7532282420559
 21
118.9507939660368
 31
-0.0000005582686134
  0
LINE
  5
98
330
2
100
AcDbEntity
  8
7
100
AcDbLine
 10
397.8138884138357
 20
118.5114541378172
 30
-0.0000005582686134
 11
397.8138884138357
 21
121.5114541378172
 31
-0.0000005582686134
  0
LINE
  5
99
330
2
100
AcDbEntity
  8
7
100
AcDbLine
 10
397.8138884138357
 20
118.5114541378172
 30
-0.0000005582686134
 11
397.8138884138357
 21
121.5114541378172
 31
-0.0000005582686134
  0
TEXT
  5
9A
330
2
100
AcDbEntity
  8
KR-TEXTOS
  6
CONTINUOUS
100
AcDbText
 10
305.2900788900261
 20
-14.03620669765337
 30
-0.0000003529613883
 40
2.0
  1
ZONA PENDIENTE DE MODIFICACIÓN DE ARQUITECTURA
  7
DEYP
 72
     1
 11
346.8138884138356
 21
-14.03620669765337
 31
-0.0000003529613883
100
AcDbText
  0
TEXT
  5
9B
330
2
100
AcDbEntity
  8
KR-TEXTOS
  6
CONTINUOUS
100
AcDbText
 10
348.2300257037636
 20
121.5345479637182
 30
-0.0000003333877814
 40
2.0
  1
V. MIX. SIN INT.
  7
DEYP
 72
     1
 11
360.4205018942398
 21
122.5345479637182
 31
-0.0000003333877814
100
AcDbText
 73
     2
  0
TEXT
  5
9C
330
2
100
AcDbEntity
  8
KR-TEXTOS
  6
CONTINUOUS
100
AcDbText
 10
339.5823561924204
 20
184.3452410896634
 30
-0.0000004294665565
 40
2.0
  1
HEA 550 A52
  7
DEYP
 72
     1
 11
350.0585466686109
 21
185.3452410896634
 31
-0.0000004294665565
100
AcDbText
 73
     2
  0
TEXT
  5
9D
330
2
100
AcDbEntity
  8
KR-TEXTOS
  6
CONTINUOUS
100
AcDbText
 10
337.8680669446182
 20
153.9596754288438
 30
-0.0000004627308466
 40
2.0
  1
V. MIX. SIN INT.
  7
DEYP
 72
     1
 11
350.0585431350943
 21
154.9596754288438
 31
-0.0000004627308466
100
AcDbText
 73
     2
  0
TEXT
  5
9E
330
2
100
AcDbEntity
  8
KR-TEXTOS
  6
CONTINUOUS
100
AcDbText
 10
338.5823526589039
 20
145.6127512300347
 30
-0.0000004172326246
 40
2.0
  1
HEB 650 A52d
  7
DEYP
 72
     1
 11
350.0585431350943
 21
146.6127512300347
 31
-0.0000004172326246
100
AcDbText
 73
     2
  0
TEXT
  5
9F
330
2
100
AcDbEntity
  8
KR-TEXTOS
  6
CONTINUOUS
100
AcDbText
 10
324.4329360328833
 20
-18.78949956692099
 30
-0.0000003529613883
 40
2.0
  1
ZONA CUYA REPRESENTACIÓN
  7
DEYP
 72
     1
 11
346.8138884138356
 21
-18.78949956692099
 31
-0.0000003529613883
100
AcDbText
  0
TEXT
  5
A0
330
2
100
AcDbEntity
  8
KR-TEXTOS
  6
CONTINUOUS
100
AcDbText
 10
324.0996026995499
 20
-22.59154846996102
 30
-0.0000003529613883
 40
2.0
  1
CORRESPONDE AL PÓRTICO 5
  7
DEYP
 72
     1
 11
346.8138884138356
 21
-22.59154846996102
 31
-0.0000003529613883
100
AcDbText
  0
TEXT
  5
A1
330
2
100
AcDbEntity
  8
KR-TEXTOS
  6
CONTINUOUS
100
AcDbText
 10
308.147221747169
 20
-26.39359737300106
 30
-0.0000003529613883
 40
2.0
  1
(PARA PÓRTICOS 3 Y 4 VER PLANOS DE PLANTA)
  7
DEYP
 72
     1
 11
346.8138884138356
 21
-26.39359737300106
 31
-0.0000003529613883
100
AcDbText
  0
LWPOLYLINE
  5
A2
330
2
100
AcDbEntity
  8
0
 62
     5
100
AcDbPolyline
 90
        2
 70
     0
 43
1.0
 38
-0.0000003576921113
 10
293.8138884138357
 20
34.01001148823729
 10
397.8138884138354
 20
34.01001148824593
  0
LINE
  5
A3
330
2
100
AcDbEntity
  8
0
100
AcDbLine
 10
404.8138884138356
 20
-9.857176278337192
 30
-0.0000003570040767
 11
288.8138884138356
 21
-9.857176278335373
 31
-0.0000003495075211
  0
LWPOLYLINE
  5
A4
330
2
100
AcDbEntity
  8
0
 62
     5
100
AcDbPolyline
 90
        2
 70
     0
 43
1.0
 38
-0.000000386374274
 10
333.8138884138359
 20
68.02002297648255
 10
333.8138884138357
 20
-0.0000000000161435
  0
LINE
  5
A5
330
2
100
AcDbEntity
  8
0
100
AcDbLine
 10
282.0596097217405
 20
-63.29710320196295
 30
-0.0000002928219696
 11
282.0596097217403
 21
-44.56691372699765
 31
-0.0000002861654949
  0
LINE
  5
A6
330
2
100
AcDbEntity
  8
0
100
AcDbLine
 10
287.0596097217405
 20
-44.56691372699765
 30
-0.0000002864917094
 11
282.0596097217405
 21
-44.56691372699765
 31
-0.0000002864917094
  0
LINE
  5
A7
330
2
100
AcDbEntity
  8
0
100
AcDbLine
 10
288.8138884138356
 20
-4.857176278335373
 30
-0.0000003495075211
 11
288.8138884138356
 21
-9.857176278335373
 31
-0.0000003495075211
  0
CIRCLE
  5
A8
330
2
100
AcDbEntity
  8
0
  6
RAYITAS
 62
     9
100
AcDbCircle
 10
293.8138884138357
 20
34.01001148823729
 30
-0.0000003576921113
 40
4.54103961029341
  0
TEXT
  5
A9
330
2
100
AcDbEntity
  8
KR-TEXTOS
  6
CONTINUOUS
100
AcDbText
 10
280.9867110806942
 20
27.18858291679235
 30
-0.0000002421443926
 40
2.0
  1
(A3, B3)
 50
90.0
  7
DEYP
 72
     1
 11
279.9867110806942
 21
33.76001148822092
 31
-0.0000002421443926
100
AcDbText
 73
     2
  0
TEXT
  5
AA
330
2
100
AcDbEntity
  8
KR-TEXTOS
  6
CONTINUOUS
100
AcDbText
 10
338.5798069566214
 20
12.28732111927421
 30
-0.0000002421443926
 40
2.0
  1
40x40 H35
 50
90.0
  7
DEYP
 72
     1
 11
337.5798069566215
 21
20.85874969070278
 31
-0.0000002421443926
100
AcDbText
 73
     2
  0
TEXT
  5
AB
330
2
100
AcDbEntity
  8
KR-TEXTOS
  6
CONTINUOUS
100
AcDbText
 10
345.9756042387141
 20
13.95398778594087
 30
-0.0000002421443926
 40
2.0
  1
1C%%C8/30
 50
90.0
  7
DEYP
 72
     1
 11
344.9756042387141
 21
20.85874969070278
 31
-0.0000002421443926
100
AcDbText
 73
     2
  0
TEXT
  5
AC
330
2
100
AcDbEntity
  8
KR-TEXTOS
  6
CONTINUOUS
100
AcDbText
 10
341.8298069566215
 20
17.09684492879802
 30
-0.0000002421443926
 40
2.0
  1
4%%C25
 50
90.0
  7
DEYP
 72
     1
 11
340.8298069566214
 21
20.85874969070278
 31
-0.0000002421443926
100
AcDbText
 73
     2
  0
TEXT
  5
AD
330
2
100
AcDbEntity
  8
KR-TEXTOS
  6
CONTINUOUS
100
AcDbText
 10
304.1106678612209
 20
64.44229202135762
 30
-0.0000004493830018
 40
2.0
  1
IPE 300 A52
  7
DEYP
 72
     1
 11
314.0630488136018
 21
65.44229202135761
 31
-0.0000004493830018
100
AcDbText
 73
     2
  0
LINE
  5
AE
330
2
100
AcDbEntity
  8
0
 62
     5
100
AcDbLine
 10
330.8138884138354
 20
63.02002297647232
 30
-0.0000004027622982
 11
336.8138884138354
 21
63.02002297647186
 31
-0.000000402673975
  0
TEXT
  5
AF
330
2
100
AcDbEntity
  8
KR-TEXTOS
  6
CONTINUOUS
100
AcDbText
 10
205.2222052646621
 20
69.83625216857922
 30
-0.0000002464694888
 40
2.0
  1
V. MIX. SIN INT. A52d
  7
DEYP
 72
     1
 11
222.0793481218049
 21
70.83625216857922
 31
-0.0000002464694888
100
AcDbText
 73
     2
  0
TEXT
  5
B0
330
2
100
AcDbEntity
  8
KR-TEXTOS
  6
CONTINUOUS
100
AcDbText
 10
218.1857313590043
 20
54.03295075278106
 30
-0.0000002464694888
 40
2.0
  1
600.25
  7
DEYP
 72
     1
 11
223.4714456447186
 21
55.03295075278106
 31
-0.0000002464694888
100
AcDbText
 73
     2
  0
TEXT
  5
B1
330
2
100
AcDbEntity
  8
KR-TEXTOS
  6
CONTINUOUS
100
AcDbText
 10
218.1857313590043
 20
63.6731222173496
 30
-0.0000002464694888
 40
2.0
  1
600.25
  7
DEYP
 72
     1
 11
223.4714456447186
 21
64.6731222173496
 31
-0.0000002464694888
100
AcDbText
 73
     2
  0
TEXT
  5
B2
330
2
100
AcDbEntity
  8
KR-TEXTOS
  6
CONTINUOUS
100
AcDbText
 10
217.1732766840161
 20
58.85303648506511
 30
-0.0000002464694888
 40
2.0
  1
20.1030
  7
DEYP
 72
     1
 11
223.3637528744923
 21
59.8530364850651
 31
-0.0000002464694888
100
AcDbText
 73
     2
  0
INSERT
  5
B3
330
2
100
AcDbEntity
  8
KR-TEXTOS
  6
CONTINUOUS
100
AcDbBlockReference
  2
SIM10
 10
216.7796612952092
 20
55.03295075278106
 30
-0.0000002464694888
 41
2.0
 42
2.0
 43
2.0
  0
INSERT
  5
B4
330
2
100
AcDbEntity
  8
KR-TEXTOS
  6
CONTINUOUS
100
AcDbBlockReference
  2
SIM10
 10
216.7796612952092
 20
64.6731222173496
 30
-0.0000002464694888
 41
2.0
 42
2.0
 43
2.0
  0
INSERT
  5
B5
330
2
100
AcDbEntity
  8
KR-TEXTOS
  6
CONTINUOUS
100
AcDbBlockReference
  2
SIM10
 10
215.8590938873333
 20
59.8530364850651
 30
-0.0000002464694888
 41
2.0
 42
2.0
 43
2.0
  0
LWPOLYLINE
  5
B6
330
2
100
AcDbEntity
  8
0
 62
     5
100
AcDbPolyline
 90
        2
 70
     0
 43
1.0
 38
-0.0000002941321288
 10
333.8138884138359
 20
144.0350202749098
 10
333.8138884138357
 20
106.0275216256959
  0
LINE
  5
B7
330
2
100
AcDbEntity
  8
0
 62
     4
100
AcDbLine
 10
348.8138884138359
 20
76.92581442835399
 30
-0.0000003644364725
 11
315.8138884138359
 21
76.92581442835399
 31
-0.0000003644364725
  0
LINE
  5
B8
330
2
100
AcDbEntity
  8
0
 62
     4
100
AcDbLine
 10
355.8138884138358
 20
72.12646380710203
 30
-0.0000003644364725
 11
309.8138884138359
 21
72.12646380710203
 31
-0.0000003644364725
  0
TEXT
  5
B9
330
2
100
AcDbEntity
  8
KR-TEXTOS
  6
CONTINUOUS
100
AcDbText
 10
318.6710312709787
 20
77.90038895102134
 30
-0.0000003644364725
 40
2.0
  1
1.8-  2%%C16  -1.5
  7
DEYP
 72
     1
 11
333.8138884138359
 21
78.90038895102134
 31
-0.0000003644364725
100
AcDbText
 73
     2
  0
TEXT
  5
BA
330
2
100
AcDbEntity
  8
KR-TEXTOS
  6
CONTINUOUS
100
AcDbText
 10
318.8138884138359
 20
73.10103832976938
 30
-0.0000003644364725
 40
2.0
  1
2.4-  2%%C16  -2.2
  7
DEYP
 72
     1
 11
333.8138884138359
 21
74.10103832976938
 31
-0.0000003644364725
100
AcDbText
 73
     2
  0
LINE
  5
BB
330
2
100
AcDbEntity
  8
0
 62
     5
100
AcDbLine
 10
290.8138884138354
 20
63.02002297647437
 30
-0.000000244351145
 11
296.8138884138354
 21
63.02002297647391
 31
-0.0000002442628218
  0
LINE
  5
BC
330
2
100
AcDbEntity
  8
7
100
AcDbLine
 10
283.5596097217403
 20
68.52002297646572
 30
-0.0000002421443926
 11
280.5596097217403
 21
68.52002297646572
 31
-0.0000002421443926
  0
LINE
  5
BD
330
2
100
AcDbEntity
  8
7
100
AcDbLine
 10
283.5596097217403
 20
68.52002297646572
 30
-0.0000002421443926
 11
280.5596097217403
 21
68.52002297646572
 31
-0.0000002421443926
  0
LINE
  5
BE
330
2
100
AcDbEntity
  8
9
100
AcDbLine
 10
282.0596097217403
 20
68.52002297646618
 30
-0.0000002421443926
 11
280.9989495499601
 21
69.58068314824572
 31
-0.0000002421443926
  0
LINE
  5
BF
330
2
100
AcDbEntity
  8
9
100
AcDbLine
 10
282.0596097217403
 20
67.52002297646527
 30
-0.0000002421443926
 11
280.9989495499601
 21
66.45936280468572
 31
-0.0000002421443926
  0
LINE
  5
C0
330
2
100
AcDbEntity
  8
0
100
AcDbLine
 10
282.0596097217407
 20
68.52002297646572
 30
-0.0000002421443926
 11
283.1202698935205
 21
69.58068314824572
 31
-0.0000002421443926
  0
LINE
  5
C1
330
2
100
AcDbEntity
  8
0
100
AcDbLine
 10
282.0596097217407
 20
67.52002297646573
 30
-0.0000002421443926
 11
283.1202698935205
 21
66.45936280468617
 31
-0.0000002421443926
  0
LINE
  5
C2
330
2
100
AcDbEntity
  8
7
100
AcDbLine
 10
283.5596097217403
 20
67.52002297646573
 30
-0.0000002421443926
 11
280.5596097217403
 21
67.52002297646573
 31
-0.0000002421443926
  0
LINE
  5
C3
330
2
100
AcDbEntity
  8
7
100
AcDbLine
 10
283.5596097217403
 20
67.52002297646573
 30
-0.0000002421443926
 11
280.5596097217403
 21
67.52002297646573
 31
-0.0000002421443926
  0
CIRCLE
  5
C4
330
2
100
AcDbEntity
  8
0
  6
RAYITAS
 62
     9
100
AcDbCircle
 10
308.8138884138357
 20
106.0275216256911
 30
-0.0000002983456548
 40
3.405779707720057
  0
LINE
  5
C5
330
2
100
AcDbEntity
  8
7
100
AcDbLine
 10
344.4027055976675
 20
67.52002297646573
 30
-0.0000002421443926
 11
341.4027055976676
 21
67.52002297646573
 31
-0.0000002421443926
  0
LINE
  5
C6
330
2
100
AcDbEntity
  8
7
100
AcDbLine
 10
344.4027055976675
 20
67.52002297646573
 30
-0.0000002421443926
 11
341.4027055976676
 21
67.52002297646573
 31
-0.0000002421443926
  0
LINE
  5
C7
330
2
100
AcDbEntity
  8
0
100
AcDbLine
 10
342.902705597668
 20
67.52002297646573
 30
-0.0000002421443926
 11
343.9633657694478
 21
66.45936280468617
 31
-0.0000002421443926
  0
LINE
  5
C8
330
2
100
AcDbEntity
  8
9
100
AcDbLine
 10
342.9027055976675
 20
67.52002297646527
 30
-0.0000002421443926
 11
341.8420454258873
 21
66.45936280468572
 31
-0.0000002421443926
  0
TEXT
  5
C9
330
2
100
AcDbEntity
  8
KR-TEXTOS
  6
CONTINUOUS
100
AcDbText
 10
280.9867110806942
 20
167.5559385480503
 30
-0.0000002421443926
 40
2.0
  1
SIN INT.
 50
90.0
  7
DEYP
 72
     1
 11
279.9867110806942
 21
173.5559385480503
 31
-0.0000002421443926
100
AcDbText
 73
     2
  0
LINE
  5
CA
330
2
100
AcDbEntity
  8
0
100
AcDbLine
 10
408.8686078942266
 20
68.02002297649119
 30
-0.000000386374274
 11
408.8686078942268
 21
34.01001148824593
 31
-0.0000003782888973
  0
LINE
  5
CB
330
2
100
AcDbEntity
  8
0
  6
TRAZOS
100
AcDbLine
 10
399.8138884138356
 20
68.02002297649119
 30
-0.000000386374274
 11
399.8138884138356
 21
-0.0000000000161435
 31
-0.000000386374274
  0
LINE
  5
CC
330
2
100
AcDbEntity
  8
0
100
AcDbLine
 10
394.8138884138356
 20
-0.0000000000159162
 30
-0.0000004506360704
 11
404.8138884138356
 21
-0.0000000000165983
 31
-0.0000004504888651
  0
CIRCLE
  5
CD
330
2
100
AcDbEntity
  8
0
  6
RAYITAS
 62
     9
100
AcDbCircle
 10
397.8138884138354
 20
34.01001148824593
 30
-0.000000386374274
 40
6.054719480391213
  0
LINE
  5
CE
330
2
100
AcDbEntity
  8
0
 62
     5
100
AcDbLine
 10
397.8138884138354
 20
38.01001148824593
 30
-0.000000386374274
 11
397.8138884138357
 21
30.01001148824594
 31
-0.000000386374274
  0
LINE
  5
CF
330
2
100
AcDbEntity
  8
0
100
AcDbLine
 10
403.8686078942268
 20
34.01001148824593
 30
-0.0000003782888973
 11
408.8686078942268
 21
34.01001148824593
 31
-0.0000003782888973
  0
LINE
  5
D0
330
2
100
AcDbEntity
  8
0
 62
     7
100
AcDbLine
 10
411.7486113228208
 20
34.01001148824593
 30
-0.0000003448760116
 11
454.5291534582845
 21
34.01001148824593
 31
-0.0000003448760116
  0
TEXT
  5
D1
330
2
100
AcDbEntity
  8
KR-TEXTOS
  6
CONTINUOUS
100
AcDbText
 10
415.4309591746857
 20
34.96415882711221
 30
-0.0000003367906348
 40
2.0
  1
M%%C : APUNTALADA HASTA:
  7
DEYP
100
AcDbText
  0
TEXT
  5
D2
330
2
100
AcDbEntity
  8
KR-TEXTOS
  6
CONTINUOUS
100
AcDbText
 10
415.4309591746855
 20
31.05586414937965
 30
-0.0000003367906348
 40
2.0
  1
1%%D) TERMINACION DE P.B.
  7
DEYP
100
AcDbText
  0
TEXT
  5
D3
330
2
100
AcDbEntity
  8
KR-TEXTOS
  6
CONTINUOUS
100
AcDbText
 10
415.4309591746855
 20
27.25381524633962
 30
-0.0000003367906348
 40
2.0
  1
2%%D) UNION DE TIRANTES
  7
DEYP
100
AcDbText
  0
TEXT
  5
D4
330
2
100
AcDbEntity
  8
KR-TEXTOS
  6
CONTINUOUS
100
AcDbText
 10
419.7389638516508
 20
0.9541473388496797
 30
-0.0000003448760116
 40
2.0
  1
CARA SUPERIOR DE ENCEPADOS
  7
DEYP
100
AcDbText
  0
LINE
  5
D5
330
2
100
AcDbEntity
  8
0
 62
     7
100
AcDbLine
 10
408.8686078942264
 20
-0.0000000000165983
 30
-0.0000003448760116
 11
468.7275755425791
 21
-0.0000000000165983
 31
-0.0000003448760116
  0
LINE
  5
D6
330
2
100
AcDbEntity
  8
0
100
AcDbLine
 10
404.8138884138356
 20
-4.857176278337192
 30
-0.0000003570040767
 11
404.8138884138356
 21
-9.857176278337192
 31
-0.0000003570040767
  0
LINE
  5
D7
330
2
100
AcDbEntity
  8
0
100
AcDbLine
 10
415.4309591746855
 20
31.05586414937965
 30
-0.0000003367906348
 11
415.4309591746855
 21
27.25381524633962
 31
-0.0000003367906348
  0
CIRCLE
  5
D8
330
2
100
AcDbEntity
  8
0
  6
RAYITAS
 62
     9
100
AcDbCircle
 10
397.8138884138354
 20
106.0275216257048
 30
-0.0000004391999437
 40
6.054719480391213
  0
TEXT
  5
D9
330
2
100
AcDbEntity
  8
KR-TEXTOS
  6
CONTINUOUS
100
AcDbText
 10
361.2331800757074
 20
64.44229202135762
 30
-0.0000004493830018
 40
2.0
  1
IPE 300 A52
  7
DEYP
 72
     1
 11
371.1855610280883
 21
65.44229202135761
 31
-0.0000004493830018
100
AcDbText
 73
     2
  0
CIRCLE
  5
DA
330
2
100
AcDbEntity
  8
0
  6
RAYITAS
 62
     9
100
AcDbCircle
 10
397.8138884138354
 20
68.02002297649119
 30
-0.000000386374274
 40
6.054719480391213
  0
LINE
  5
DB
330
2
100
AcDbEntity
  8
0
 62
     5
100
AcDbLine
 10
397.8138884138354
 20
72.02002297649119
 30
-0.000000386374274
 11
397.8138884138354
 21
64.02002297649119
 31
-0.000000386374274
  0
TEXT
  5
DC
330
2
100
AcDbEntity
  8
KR-TEXTOS
  6
CONTINUOUS
100
AcDbText
 10
359.2238621235678
 20
102.4497906705712
 30
-0.0000004172326246
 40
2.0
  1
HEA 500 A52d
  7
DEYP
 72
     1
 11
370.5571954569011
 21
103.4497906705712
 31
-0.0000004172326246
100
AcDbText
 73
     2
  0
LINE
  5
DD
330
2
100
AcDbEntity
  8
0
 62
     5
100
AcDbLine
 10
397.8138884138357
 20
110.0275216257048
 30
-0.000000386374274
 11
397.8138884138354
 21
102.0275216257048
 31
-0.000000386374274
  0
LINE
  5
DE
330
2
100
AcDbEntity
  8
0
100
AcDbLine
 10
403.8686078942267
 20
68.02002297649119
 30
-0.000000386374274
 11
408.8686078942266
 21
68.02002297649119
 31
-0.000000386374274
  0
LINE
  5
DF
330
2
100
AcDbEntity
  8
0
100
AcDbLine
 10
403.8686078942268
 20
106.0275216257048
 30
-0.0000003782888973
 11
408.8686078942268
 21
106.0275216257048
 31
-0.0000003782888973
  0
CIRCLE
  5
E0
330
2
100
AcDbEntity
  8
0
  6
RAYITAS
 62
     9
100
AcDbCircle
 10
397.8138884138357
 20
182.7675101345469
 30
-0.0000004192834989
 40
6.054719480391213
  0
CIRCLE
  5
E1
330
2
100
AcDbEntity
  8
0
  6
RAYITAS
 62
     9
100
AcDbCircle
 10
397.8138884138354
 20
144.0350202749182
 30
-0.000000407049567
 40
6.054719480391213
  0
LINE
  5
E2
330
2
100
AcDbEntity
  8
0
 62
     5
100
AcDbLine
 10
397.8138884138357
 20
148.0350202749182
 30
-0.000000386374274
 11
397.8138884138357
 21
140.0350202749182
 31
-0.000000386374274
  0
LINE
  5
E3
330
2
100
AcDbEntity
  8
0
 62
     5
100
AcDbLine
 10
397.8138884138354
 20
186.7675101345469
 30
-0.000000386374274
 11
397.8138884138354
 21
178.7675101345469
 31
-0.000000386374274
  0
LINE
  5
E4
330
2
100
AcDbEntity
  8
0
 62
     5
100
AcDbLine
 10
447.5245205934836
 20
67.18443715023273
 30
-0.000000386374274
 11
447.5245205934836
 21
59.18443715023272
 31
-0.000000386374274
  0
LINE
  5
E5
330
2
100
AcDbEntity
  8
0
  6
TRAZOS
100
AcDbLine
 10
449.5245205934838
 20
68.89929742728464
 30
-0.000000386374274
 11
449.5245205934838
 21
57.46957687318058
 31
-0.000000386374274
  0
CIRCLE
  5
E6
330
2
100
AcDbEntity
  8
0
  6
RAYITAS
 62
     9
100
AcDbCircle
 10
447.5245205934836
 20
63.18443715023272
 30
-0.000000386374274
 40
6.054719480391213
  0
TEXT
  5
E7
330
2
100
AcDbEntity
  8
KR-TEXTOS
  6
CONTINUOUS
100
AcDbText
 10
415.4309591746852
 20
179.8133627956806
 30
-0.0000003448760116
 40
2.0
  1
1%%D) TERMINACION DE P2
  7
DEYP
100
AcDbText
  0
LINE
  5
E8
330
2
100
AcDbEntity
  8
0
 62
     7
100
AcDbLine
 10
411.7486113228203
 20
182.7675101345469
 30
-0.0000003448760116
 11
454.529153458284
 21
182.7675101345469
 31
-0.0000003448760116
  0
TEXT
  5
E9
330
2
100
AcDbEntity
  8
KR-TEXTOS
  6
CONTINUOUS
100
AcDbText
 10
415.4309591746855
 20
183.7216574734132
 30
-0.0000003448760116
 40
2.0
  1
M2 : APUNTALADA HASTA:
  7
DEYP
100
AcDbText
  0
TEXT
  5
EA
330
2
100
AcDbEntity
  8
KR-TEXTOS
  6
CONTINUOUS
100
AcDbText
 10
415.4309591746852
 20
176.0113138926405
 30
-0.0000003448760116
 40
2.0
  1
2%%D) UNION DE TIRANTES
  7
DEYP
100
AcDbText
  0
LINE
  5
EB
330
2
100
AcDbEntity
  8
0
 62
     7
100
AcDbLine
 10
411.7486113228205
 20
106.0275216257048
 30
-0.0000003367906348
 11
454.5291534582843
 21
106.0275216257048
 31
-0.0000003367906348
  0
TEXT
  5
EC
330
2
100
AcDbEntity
  8
KR-TEXTOS
  6
CONTINUOUS
100
AcDbText
 10
415.4309591746857
 20
106.9816689645711
 30
-0.0000003367906348
 40
2.0
  1
M1 : APUNTALADA HASTA:
  7
DEYP
100
AcDbText
  0
TEXT
  5
ED
330
2
100
AcDbEntity
  8
KR-TEXTOS
  6
CONTINUOUS
100
AcDbText
 10
415.4309591746855
 20
103.0733742868385
 30
-0.0000003367906348
 40
2.0
  1
1%%D) TERMINACION DE P1
  7
DEYP
100
AcDbText
  0
TEXT
  5
EE
330
2
100
AcDbEntity
  8
KR-TEXTOS
  6
CONTINUOUS
100
AcDbText
 10
415.4309591746855
 20
99.27132538379851
 30
-0.0000003367906348
 40
2.0
  1
2%%D) UNION DE TIRANTES
  7
DEYP
100
AcDbText
  0
LINE
  5
EF
330
2
100
AcDbEntity
  8
0
 62
     7
100
AcDbLine
 10
408.8686078942264
 20
163.7637608099401
 30
-0.0000003448760116
 11
488.989810080114
 21
163.7637608099401
 31
-0.0000003448760116
  0
TEXT
  5
F0
330
2
100
AcDbEntity
  8
KR-TEXTOS
  6
CONTINUOUS
100
AcDbText
 10
419.7389638516508
 20
164.7179081488063
 30
-0.0000003448760116
 40
2.0
  1
APOYOS EN DILATACION SOBRE ENCAVALLADA
  7
DEYP
100
AcDbText
  0
LINE
  5
F1
330
2
100
AcDbEntity
  8
0
 62
     7
100
AcDbLine
 10
408.8686078942264
 20
51.01501723236856
 30
-0.0000003448760116
 11
476.8660393402281
 21
51.01501723236856
 31
-0.0000003448760116
  0
TEXT
  5
F2
330
2
100
AcDbEntity
  8
KR-TEXTOS
  6
CONTINUOUS
100
AcDbText
 10
419.7389638516508
 20
51.96916457123484
 30
-0.0000003448760116
 40
2.0
  1
APOYOS EN DILATACION EN SOPORTE
  7
DEYP
100
AcDbText
  0
TEXT
  5
F3
330
2
100
AcDbEntity
  8
KR-TEXTOS
  6
CONTINUOUS
100
AcDbText
 10
419.7389638516508
 20
48.06086989350228
 30
-0.0000003448760116
 40
2.0
  1
DE HORMIGON ARMADO DE SOTANOS
  7
DEYP
100
AcDbText
  0
TEXT
  5
F4
330
2
100
AcDbEntity
  8
KR-TEXTOS
  6
CONTINUOUS
100
AcDbText
 10
415.4309591746855
 20
68.97417031535747
 30
-0.0000003448760116
 40
2.0
  1
P.B.
  7
DEYP
100
AcDbText
  0
LINE
  5
F5
330
2
100
AcDbEntity
  8
0
 62
     7
100
AcDbLine
 10
411.7486113228203
 20
68.02002297649119
 30
-0.0000003448760116
 11
421.0814465614716
 21
68.02002297649119
 31
-0.0000003448760116
  0
TEXT
  5
F6
330
2
100
AcDbEntity
  8
KR-TEXTOS
  6
CONTINUOUS
100
AcDbText
 10
415.4309591746855
 20
144.9891676137845
 30
-0.0000003448760116
 40
2.0
  1
P1
  7
DEYP
100
AcDbText
  0
LINE
  5
F7
330
2
100
AcDbEntity
  8
0
 62
     7
100
AcDbLine
 10
411.7486113228203
 20
144.0350202749182
 30
-0.0000003448760116
 11
419.5753243342673
 21
144.0350202749182
 31
-0.0000003448760116
  0
LWPOLYLINE
  5
F8
330
2
100
AcDbEntity
  8
0
 62
     5
100
AcDbPolyline
 90
        2
 70
     0
 43
1.0
 38
-0.0000002464694888
 10
447.5245205934836
 20
63.18443715023272
 10
441.4698011130924
 20
63.18443715023272
  0
LINE
  5
F9
330
2
100
AcDbEntity
  8
9
100
AcDbLine
 10
-11.75427869209465
 20
192.2811431549578
 30
-0.0000003437478867
 11
-11.75427869209465
 21
220.9999999941667
 31
-0.0000003905674734
  0
TEXT
  5
FA
330
2
100
AcDbEntity
  8
KR-TEXTOS
  6
CONTINUOUS
100
AcDbText
 10
-104.2436597456099
 20
213.3741123816041
 30
-0.0000002590594051
 40
2.5
  1
$1
  7
DEYP
 72
     1
 11
-102.2198502218004
 21
214.6241123816041
 31
-0.0000002590594051
100
AcDbText
 73
     2
  0
LINE
  5
FB
330
2
100
AcDbEntity
  8
0
100
AcDbLine
 10
397.8138884138357
 20
191.6192666474346
 30
-0.0000005383521686
 11
396.7532282420559
 21
190.5586064756548
 31
-0.0000005383521686
  0
LINE
  5
FC
330
2
100
AcDbEntity
  8
9
100
AcDbLine
 10
397.8138884138352
 20
191.619266647435
 30
-0.0000005383521686
 11
396.7532282420556
 21
192.6799268192153
 31
-0.0000005383521686
  0
LINE
  5
FD
330
2
100
AcDbEntity
  8
9
100
AcDbLine
 10
397.8138884138349
 20
230.3517565070638
 30
-0.0000005054429438
 11
396.7532282420554
 21
231.412416678844
 31
-0.0000005054429438
  0
LINE
  5
FE
330
2
100
AcDbEntity
  8
0
100
AcDbLine
 10
397.8138884138354
 20
230.3517565070633
 30
-0.0000005054429438
 11
396.7532282420556
 21
229.2910963352835
 31
-0.0000005054429438
  0
LINE
  5
FF
330
2
100
AcDbEntity
  8
7
100
AcDbLine
 10
397.8138884138354
 20
228.8517565070637
 30
-0.0000005054429438
 11
397.8138884138354
 21
231.8517565070637
 31
-0.0000005054429438
  0
LINE
  5
100
330
2
100
AcDbEntity
  8
7
100
AcDbLine
 10
397.8138884138354
 20
228.8517565070637
 30
-0.0000005054429438
 11
397.8138884138354
 21
231.8517565070637
 31
-0.0000005054429438
  0
LINE
  5
101
330
2
100
AcDbEntity
  8
0
 62
     7
100
AcDbLine
 10
398.8138884138354
 20
334.3706113279592
 30
-0.0000005784165191
 11
406.1897560121296
 21
334.3706113279592
 31
-0.0000005784165191
  0
LINE
  5
102
330
2
100
AcDbEntity
  8
9
100
AcDbLine
 10
398.8138884138354
 20
328.5474410440322
 30
-0.0000005784165191
 11
399.8745485856156
 21
329.6081012158117
 31
-0.0000005784165191
  0
LINE
  5
103
330
2
100
AcDbEntity
  8
7
100
AcDbLine
 10
397.8138884138354
 20
267.6016820989886
 30
-0.0000005784165191
 11
397.8138884138354
 21
270.6016820989887
 31
-0.0000005784165191
  0
LINE
  5
104
330
2
100
AcDbEntity
  8
7
100
AcDbLine
 10
397.8138884138354
 20
267.6016820989886
 30
-0.0000005784165191
 11
397.8138884138354
 21
270.6016820989887
 31
-0.0000005784165191
  0
LINE
  5
105
330
2
100
AcDbEntity
  8
0
100
AcDbLine
 10
397.8138884138354
 20
269.1016820989882
 30
-0.0000005784165191
 11
396.7532282420556
 21
268.0410219272084
 31
-0.0000005784165191
  0
LINE
  5
106
330
2
100
AcDbEntity
  8
9
100
AcDbLine
 10
397.8138884138349
 20
269.1016820989887
 30
-0.0000005784165191
 11
396.7532282420554
 21
270.1623422707689
 31
-0.0000005784165191
  0
LINE
  5
107
330
2
100
AcDbEntity
  8
0
100
AcDbLine
 10
398.813888413835
 20
328.5474410440317
 30
-0.0000005784165191
 11
397.7532282420552
 21
329.6081012158113
 31
-0.0000005784165191
  0
LINE
  5
108
330
2
100
AcDbEntity
  8
0
100
AcDbLine
 10
398.8138884138354
 20
328.5474410440317
 30
-0.0000005784165191
 11
398.8138884138354
 21
334.3706113279592
 31
-0.0000005784165191
  0
TEXT
  5
109
330
2
100
AcDbEntity
  8
KR-TEXTOS
  6
CONTINUOUS
100
AcDbText
 10
400.5392686253435
 20
335.3247586668255
 30
-0.0000005784165191
 40
2.0
  1
J.D.
  7
DEYP
100
AcDbText
  0
TEXT
  5
10A
330
2
100
AcDbEntity
  8
KR-TEXTOS
  6
CONTINUOUS
100
AcDbText
 10
329.7685665369001
 20
324.4466680107187
 30
-0.0000002808987386
 40
2.0
  1
IPE 500 A52d CONT.
 50
349.8278049746362
  7
DEYP
 72
     1
 11
345.8342881382573
 21
322.5800062410403
 31
-0.0000002808987386
100
AcDbText
 73
     2
  0
TEXT
  5
10B
330
2
100
AcDbEntity
  8
KR-TEXTOS
  6
CONTINUOUS
100
AcDbText
 10
337.8680704781347
 20
231.4246551481012
 30
-0.0000002805621117
 40
2.0
  1
V. MIX. SIN INT.
  7
DEYP
 72
     1
 11
350.0585466686109
 21
232.4246551481012
 31
-0.0000002805621117
100
AcDbText
 73
     2
  0
TEXT
  5
10C
330
2
100
AcDbEntity
  8
KR-TEXTOS
  6
CONTINUOUS
100
AcDbText
 10
339.4742774550221
 20
261.8276565412168
 30
-0.0000003550382949
 40
2.0
  1
IPE 450 A52d
  7
DEYP
 72
     1
 11
350.2838012645459
 21
262.8276565412168
 31
-0.0000003550382949
100
AcDbText
 73
     2
  0
TEXT
  5
10D
330
2
100
AcDbEntity
  8
KR-TEXTOS
  6
CONTINUOUS
100
AcDbText
 10
338.0933250740696
 20
270.1745807400261
 30
-0.000000353535687
 40
2.0
  1
V. MIX. SIN INT.
  7
DEYP
 72
     1
 11
350.2838012645459
 21
271.1745807400261
 31
-0.000000353535687
100
AcDbText
 73
     2
  0
TEXT
  5
10E
330
2
100
AcDbEntity
  8
KR-TEXTOS
  6
CONTINUOUS
100
AcDbText
 10
339.5823561924206
 20
192.6921652884725
 30
-0.0000003134713366
 40
2.0
  1
V. MIX. CONT.
  7
DEYP
 72
     1
 11
350.0585466686111
 21
193.6921652884725
 31
-0.0000003134713366
100
AcDbText
 73
     2
  0
TEXT
  5
10F
330
2
100
AcDbEntity
  8
KR-TEXTOS
  6
CONTINUOUS
100
AcDbText
 10
338.7252133352776
 20
223.0777309492919
 30
-0.0000004294665565
 40
2.0
  1
HEA 550 A52d
  7
DEYP
 72
     1
 11
350.0585466686109
 21
224.0777309492918
 31
-0.0000004294665565
100
AcDbText
 73
     2
  0
TEXT
  5
110
330
2
100
AcDbEntity
  8
KR-TEXTOS
  6
CONTINUOUS
100
AcDbText
 10
324.6775942876585
 20
217.9222690390588
 30
-0.0000004294665565
 40
2.0
  1
(2 VIGAS ADYACENTES A HUECO)
  7
DEYP
 72
     1
 11
350.0585466686109
 21
218.9222690390588
 31
-0.0000004294665565
100
AcDbText
 73
     2
  0
LINE
  5
111
330
2
100
AcDbEntity
  8
9
100
AcDbLine
 10
282.059609721741
 20
260.7499255860916
 30
-0.0000003296467387
 11
282.059609721741
 21
329.0239686139948
 31
-0.0000003862423772
  0
CIRCLE
  5
112
330
2
100
AcDbEntity
  8
0
  6
RAYITAS
 62
     9
100
AcDbCircle
 10
293.8138884138357
 20
329.023968613995
 30
-0.0000003762154179
 40
4.54103961029341
  0
LINE
  5
113
330
2
100
AcDbEntity
  8
0
100
AcDbLine
 10
282.0596097217414
 20
329.0239686139952
 30
-0.0000003862423772
 11
283.1202698935212
 21
327.9633084422155
 31
-0.0000003862423772
  0
LINE
  5
114
330
2
100
AcDbEntity
  8
7
100
AcDbLine
 10
283.559609721741
 20
329.0239686139952
 30
-0.0000003862423772
 11
280.559609721741
 21
329.0239686139952
 31
-0.0000003862423772
  0
LINE
  5
115
330
2
100
AcDbEntity
  8
7
100
AcDbLine
 10
283.559609721741
 20
329.0239686139952
 30
-0.0000003862423772
 11
280.559609721741
 21
329.0239686139952
 31
-0.0000003862423772
  0
LINE
  5
116
330
2
100
AcDbEntity
  8
9
100
AcDbLine
 10
282.059609721741
 20
329.0239686139948
 30
-0.0000003862423772
 11
280.9989495499607
 21
327.9633084422152
 31
-0.0000003862423772
  0
CIRCLE
  5
117
330
2
100
AcDbEntity
  8
0
  6
RAYITAS
 62
     9
100
AcDbCircle
 10
293.8138884138357
 20
260.2499255860914
 30
-0.0000002796101745
 40
4.54103961029341
  0
TEXT
  5
118
330
2
100
AcDbEntity
  8
KR-TEXTOS
  6
CONTINUOUS
100
AcDbText
 10
283.2482132316842
 20
210.2601110586799
 30
-0.0000003172075301
 40
2.0
  1
2.0
  7
DEYP
 72
     1
 11
285.6291656126365
 21
211.2601110586799
 31
-0.0000003172075301
100
AcDbText
 73
     2
  0
INSERT
  5
119
330
2
100
AcDbEntity
  8
KR-TEXTOS
  6
CONTINUOUS
100
AcDbBlockReference
  2
SIM10
 10
276.3185492708778
 20
215.4059121437956
 30
-0.0000003172075301
 41
2.0
 42
2.0
 43
2.0
  0
TEXT
  5
11A
330
2
100
AcDbEntity
  8
KR-TEXTOS
  6
CONTINUOUS
100
AcDbText
 10
277.8995904042955
 20
214.4059121437956
 30
-0.0000003172075301
 40
2.0
  1
25.1400
  7
DEYP
 72
     1
 11
284.0900665947717
 21
215.4059121437956
 31
-0.0000003172075301
100
AcDbText
 73
     2
  0
LINE
  5
11B
330
2
100
AcDbEntity
  8
7
100
AcDbLine
 10
283.5596097217405
 20
260.7499255860914
 30
-0.0000003292322646
 11
280.5596097217405
 21
260.7499255860914
 31
-0.0000003292322646
  0
LINE
  5
11C
330
2
100
AcDbEntity
  8
7
100
AcDbLine
 10
283.5596097217405
 20
260.7499255860914
 30
-0.0000003292322646
 11
280.5596097217405
 21
260.7499255860914
 31
-0.0000003292322646
  0
LINE
  5
11D
330
2
100
AcDbEntity
  8
7
100
AcDbLine
 10
283.5596097217405
 20
259.7499255860914
 30
-0.0000003292322646
 11
280.5596097217405
 21
259.7499255860914
 31
-0.0000003292322646
  0
LINE
  5
11E
330
2
100
AcDbEntity
  8
7
100
AcDbLine
 10
283.5596097217405
 20
259.7499255860914
 30
-0.0000003292322646
 11
280.5596097217405
 21
259.7499255860914
 31
-0.0000003292322646
  0
LINE
  5
11F
330
2
100
AcDbEntity
  8
0
100
AcDbLine
 10
282.059609721741
 20
260.7499255860914
 30
-0.0000003292322646
 11
283.1202698935208
 21
261.8105857578711
 31
-0.0000003292322646
  0
LINE
  5
120
330
2
100
AcDbEntity
  8
9
100
AcDbLine
 10
282.0596097217405
 20
260.7499255860918
 30
-0.0000003292322646
 11
280.9989495499603
 21
261.8105857578714
 31
-0.0000003292322646
  0
LINE
  5
121
330
2
100
AcDbEntity
  8
9
100
AcDbLine
 10
282.0596097217405
 20
259.7499255860909
 30
-0.0000003292322646
 11
280.9989495499603
 21
258.6892654143114
 31
-0.0000003292322646
  0
LINE
  5
122
330
2
100
AcDbEntity
  8
0
100
AcDbLine
 10
282.059609721741
 20
259.7499255860914
 30
-0.0000003292322646
 11
283.1202698935208
 21
258.6892654143116
 31
-0.0000003292322646
  0
TEXT
  5
123
330
2
100
AcDbEntity
  8
KR-TEXTOS
  6
CONTINUOUS
100
AcDbText
 10
280.9867110806942
 20
223.395915516012
 30
-0.0000002421443926
 40
2.0
  1
CONT.
 50
90.0
  7
DEYP
 72
     1
 11
279.9867110806942
 21
227.6816298017263
 31
-0.0000002421443926
100
AcDbText
 73
     2
  0
TEXT
  5
124
330
2
100
AcDbEntity
  8
KR-TEXTOS
  6
CONTINUOUS
100
AcDbText
 10
280.9867110806942
 20
235.497962159033
 30
-0.0000002421443926
 40
2.0
  1
HEM 600 A52d
 50
90.0
  7
DEYP
 72
     1
 11
279.9867110806942
 21
247.1170097780807
 31
-0.0000002421443926
100
AcDbText
 73
     2
  0
TEXT
  5
125
330
2
100
AcDbEntity
  8
KR-TEXTOS
  6
CONTINUOUS
100
AcDbText
 10
280.9867110806942
 20
283.215879546476
 30
-0.0000002421443926
 40
2.0
  1
HEA 600 A52d
 50
90.0
  7
DEYP
 72
     1
 11
279.9867110806942
 21
294.5492128798093
 31
-0.0000002421443926
100
AcDbText
 73
     2
  0
CIRCLE
  5
126
330
2
100
AcDbEntity
  8
0
  6
RAYITAS
 62
     9
100
AcDbCircle
 10
293.8138884138357
 20
280.2499255860914
 30
-0.0000002767699432
 40
4.54103961029341
  0
TEXT
  5
127
330
2
100
AcDbEntity
  8
KR-TEXTOS
  6
CONTINUOUS
100
AcDbText
 10
280.9867110806942
 20
263.9676345839345
 30
-0.0000002421443926
 40
2.0
  1
CONT.
 50
90.0
  7
DEYP
 72
     1
 11
279.9867110806942
 21
268.2533488696487
 31
-0.0000002421443926
100
AcDbText
 73
     2
  0
LWPOLYLINE
  5
128
330
2
100
AcDbEntity
  8
0
 62
     7
100
AcDbPolyline
 90
        2
 70
     1
 43
0.7199999999999882
 38
-0.0000002820192347
 10
345.453888413836
 20
319.5341811368662
 42
-1.0
 10
346.1738884138353
 20
319.5341811368662
 42
-1.0
  0
LINE
  5
129
330
2
100
AcDbEntity
  8
9
100
AcDbLine
 10
397.8138884138352
 20
313.0939416302451
 30
-0.000000393295044
 11
362.6811906950809
 21
319.505515377345
 31
-0.0000003173270604
  0
CIRCLE
  5
12A
330
2
100
AcDbEntity
  8
0
  6
RAYITAS
 62
     9
100
AcDbCircle
 10
397.8138884138354
 20
260.2499255861002
 30
-0.000000386374274
 40
6.054719480391213
  0
LINE
  5
12B
330
2
100
AcDbEntity
  8
0
 62
     5
100
AcDbLine
 10
397.8138884138354
 20
264.2499255861002
 30
-0.000000386374274
 11
397.8138884138354
 21
256.2499255861002
 31
-0.000000386374274
  0
LINE
  5
12C
330
2
100
AcDbEntity
  8
0
100
AcDbLine
 10
408.8686078942264
 20
310.0443936597373
 30
-0.0000003944596507
 11
408.8686078942266
 21
260.2499255861002
 31
-0.000000386374274
  0
CIRCLE
  5
12D
330
2
100
AcDbEntity
  8
0
  6
RAYITAS
 62
     9
100
AcDbCircle
 10
397.8138884138354
 20
221.4999999941753
 30
-0.000000386374274
 40
6.054719480391213
  0
LINE
  5
12E
330
2
100
AcDbEntity
  8
0
 62
     5
100
AcDbLine
 10
397.8138884138354
 20
225.4999999941753
 30
-0.000000386374274
 11
397.8138884138354
 21
217.4999999941753
 31
-0.000000386374274
  0
LINE
  5
12F
330
2
100
AcDbEntity
  8
0
100
AcDbLine
 10
403.8686078942267
 20
221.4999999941753
 30
-0.000000386374274
 11
408.8686078942266
 21
221.4999999941756
 31
-0.000000386374274
  0
LINE
  5
130
330
2
100
AcDbEntity
  8
0
100
AcDbLine
 10
403.8686078942267
 20
260.2499255861002
 30
-0.000000386374274
 11
408.8686078942266
 21
260.2499255861002
 31
-0.000000386374274
  0
CIRCLE
  5
131
330
2
100
AcDbEntity
  8
0
  6
RAYITAS
 62
     9
100
AcDbCircle
 10
397.8138884138352
 20
310.0443936597373
 30
-0.0000003944596507
 40
6.054719480391213
  0
LWPOLYLINE
  5
132
330
2
100
AcDbEntity
  8
0
 62
     7
100
AcDbPolyline
 90
        2
 70
     1
 43
0.7199999999999882
 38
-0.0000003944596507
 10
397.4538884138355
 20
310.0443936597371
 42
-1.0
 10
398.1738884138349
 20
310.0443936597371
 42
-1.0
  0
LINE
  5
133
330
2
100
AcDbEntity
  8
0
100
AcDbLine
 10
397.8138884138352
 20
326.0346375654119
 30
-0.000000386374274
 11
397.8138884138352
 21
322.2846375654119
 31
-0.000000386374274
  0
LINE
  5
134
330
2
100
AcDbEntity
  8
0
100
AcDbLine
 10
397.8138884138352
 20
314.0443936597373
 30
-0.000000386374274
 11
397.8138884138352
 21
306.0443936597373
 31
-0.000000386374274
  0
LINE
  5
135
330
2
100
AcDbEntity
  8
0
100
AcDbLine
 10
403.8686078942264
 20
310.0443936597373
 30
-0.0000003944596507
 11
408.8686078942264
 21
310.0443936597373
 31
-0.0000003944596507
  0
LINE
  5
136
330
2
100
AcDbEntity
  8
0
100
AcDbLine
 10
399.8138884138354
 20
326.0346375654119
 30
-0.000000386374274
 11
399.8138884138352
 21
322.2846375654119
 31
-0.000000386374274
  0
TEXT
  5
137
330
2
100
AcDbEntity
  8
KR-TEXTOS
  6
CONTINUOUS
100
AcDbText
 10
419.7389638516508
 20
282.1930122840524
 30
-0.0000003529613883
 40
2.0
  1
METALICO DE CUBIERTA
  7
DEYP
100
AcDbText
  0
LINE
  5
138
330
2
100
AcDbEntity
  8
0
 62
     7
100
AcDbLine
 10
408.8686078942264
 20
285.1471596229186
 30
-0.0000003529613883
 11
476.7794346128805
 21
285.1471596229186
 31
-0.0000003529613883
  0
TEXT
  5
139
330
2
100
AcDbEntity
  8
KR-TEXTOS
  6
CONTINUOUS
100
AcDbText
 10
419.7389638516508
 20
286.1013069617849
 30
-0.0000003529613883
 40
2.0
  1
APOYOS EN DILATACION EN SOPORTE
  7
DEYP
100
AcDbText
  0
TEXT
  5
13A
330
2
100
AcDbEntity
  8
KR-TEXTOS
  6
CONTINUOUS
100
AcDbText
 10
415.4309591746855
 20
222.4541473330418
 30
-0.0000003448760116
 40
2.0
  1
P2
  7
DEYP
100
AcDbText
  0
LINE
  5
13B
330
2
100
AcDbEntity
  8
0
 62
     7
100
AcDbLine
 10
411.7486113228203
 20
221.4999999941756
 30
-0.0000003448760116
 11
419.5753243342673
 21
221.4999999941756
 31
-0.0000003448760116
  0
LINE
  5
13C
330
2
100
AcDbEntity
  8
0
 62
     7
100
AcDbLine
 10
411.7486113228203
 20
260.2499255861002
 30
-0.0000003448760116
 11
419.5753243342673
 21
260.2499255861002
 31
-0.0000003448760116
  0
TEXT
  5
13D
330
2
100
AcDbEntity
  8
KR-TEXTOS
  6
CONTINUOUS
100
AcDbText
 10
415.4309591746855
 20
261.2040729249665
 30
-0.0000003448760116
 40
2.0
  1
M3
  7
DEYP
100
AcDbText
  0
TEXT
  5
13E
330
2
100
AcDbEntity
  8
KR-TEXTOS
  6
CONTINUOUS
100
AcDbText
 10
415.4309591746852
 20
310.9985409986036
 30
-0.0000003529613883
 40
2.0
  1
P.C.
  7
DEYP
100
AcDbText
  0
LINE
  5
13F
330
2
100
AcDbEntity
  8
0
 62
     7
100
AcDbLine
 10
411.7486113228201
 20
310.0443936597373
 30
-0.0000003529613883
 11
421.0814465614714
 21
310.0443936597373
 31
-0.0000003529613883
  0
LINE
  5
140
330
2
100
AcDbEntity
  8
0
100
AcDbLine
 10
492.567684203271
 20
221.4999999941756
 30
-0.0000003322860953
 11
497.567684203271
 21
221.4999999941756
 31
-0.0000003322860953
  0
LWPOLYLINE
  5
141
330
2
100
AcDbEntity
  8
0
100
AcDbPolyline
 90
        4
 70
     0
 43
0.0
 38
-0.0000001821687349
 10
-93.66802461601741
 20
190.2747363782884
 10
-98.66802461601743
 20
190.2747363782884
 10
-98.6680246160181
 20
228.0638071857904
 10
-93.66802461601787
 20
228.0638071857906
  0
LWPOLYLINE
  5
142
330
2
100
AcDbEntity
  8
0
 62
     5
100
AcDbPolyline
 90
        2
 70
     0
 43
1.0
 38
-0.000000147401837
 10
323.8138884138356
 20
221.4999999941667
 10
323.8138884138356
 20
182.7675101345382
  0
LINE
  5
143
330
2
100
AcDbEntity
  8
7
100
AcDbLine
 10
294.3138884138359
 20
190.1192666474264
 30
-0.0000000300689936
 11
294.3138884138359
 21
193.1192666474264
 31
-0.0000000300689936
  0
LINE
  5
144
330
2
100
AcDbEntity
  8
7
100
AcDbLine
 10
294.3138884138359
 20
190.1192666474264
 30
-0.0000000300689936
 11
294.3138884138359
 21
193.1192666474264
 31
-0.0000000300689936
  0
LWPOLYLINE
  5
145
330
2
100
AcDbEntity
  8
9
100
AcDbPolyline
 90
        7
 70
     0
 43
0.0
 38
-0.0000001238093948
 10
-4.89239902679651
 20
190.1656265404915
 10
-5.953059198576283
 20
191.2262867122715
 10
-10.69942224940837
 20
191.2262867122715
 10
-11.76008242118814
 20
192.2869468840513
 10
-12.82074259296791
 20
191.2262867122715
 10
-17.53656994124367
 20
191.2262867122715
 10
-18.59723011302344
 20
190.1656265404915
  0
LWPOLYLINE
  5
146
330
2
100
AcDbEntity
  8
0
 62
     5
100
AcDbPolyline
 90
        2
 70
     0
 43
1.0
 38
-0.000000070133344
 10
293.8138884138357
 20
328.6281581117441
 10
293.8138884138357
 20
-0.0000000000161435
  0
LWPOLYLINE
  5
147
330
2
100
AcDbEntity
  8
0
 62
     5
100
AcDbPolyline
 90
        3
 70
     0
 10
397.8138884138352
 20
221.4999999941753
 40
1.0
 41
1.0
 10
0.0
 20
221.4999999941665
 40
1.0
 41
1.0
 10
0.0
 20
0.0
 40
0.0
 41
0.0
  0
LINE
  5
148
330
2
100
AcDbEntity
  8
9
100
AcDbLine
 10
165.4227382329309
 20
150.9763296246124
 30
0.0000000431661182
 11
293.3138884138358
 21
150.9763296246124
 31
-0.0000000058325901
  0
LINE
  5
149
330
2
100
AcDbEntity
  8
9
100
AcDbLine
 10
154.9552031214839
 20
135.8680337834923
 30
0.0000000474910424
 11
293.3138884138358
 21
135.8680337834923
 31
-0.0000000058325901
  0
LWPOLYLINE
  5
14A
330
2
100
AcDbEntity
  8
0
 62
     5
100
AcDbPolyline
 90
        2
 70
     0
 43
1.0
 38
-0.0000001821687349
 10
293.8138884138357
 20
144.0350202749159
 10
-30.0
 20
144.0350202749096
  0
LWPOLYLINE
  5
14B
330
2
100
AcDbEntity
  8
0
 62
     5
100
AcDbPolyline
 90
        2
 70
     0
 43
1.0
 38
-0.0000001821687349
 10
397.8138884138354
 20
144.0350202749182
 10
0.0
 20
144.0350202749096
  0
LINE
  5
14C
330
2
100
AcDbEntity
  8
9
100
AcDbLine
 10
70.68226588392372
 20
55.03295075278106
 30
-0.0000000168097115
 11
214.8520052736134
 21
55.03295075278106
 31
-0.0000000513405392
  0
TEXT
  5
14D
330
2
100
AcDbEntity
  8
KR-TEXTOS
100
AcDbText
 10
107.018422373103
 20
-76.87158151056087
 30
-0.0000000281979916
 40
2.0
  1
VIGA CON PERFIL INTERRUMPIDO PERO CON UNIONES EN CONTINUIDAD DEFINIDAS EN DETALLES APARTE
  7
ROMANS
 11
107.018422373103
 21
-75.87158151056087
 31
-0.0000000281979916
100
AcDbText
 73
     2
  0
TEXT
  5
14E
330
2
100
AcDbEntity
  8
KR-TEXTOS
100
AcDbText
 10
107.018422373103
 20
-71.63348627246546
 30
-0.0000000281979916
 40
2.0
  1
VIGA MIXTA CON CONECTADORES DEFINIDOS EN CUADROS APARTE
  7
ROMANS
 11
107.018422373103
 21
-70.63348627246546
 31
-0.0000000281979916
100
AcDbText
 73
     2
  0
TEXT
  5
14F
330
2
100
AcDbEntity
  8
KR-TEXTOS
100
AcDbText
 10
107.018422373103
 20
-87.34777198675123
 30
-0.0000000281979916
 40
2.0
  1
PUNTOS DE UNIÓN DE ARRIOSTRAMIENTOS SALVO CARÁCTER ARRIOSTRANTE DE LOS PANELES DE CUBIERTA CON CONDICIONES DE UNION APROPÌADAS
  7
ROMANS
 11
107.018422373103
 21
-86.34777198675124
 31
-0.0000000281979916
100
AcDbText
 73
     2
  0
TEXT
  5
150
330
2
100
AcDbEntity
  8
KR-TEXTOS
100
AcDbText
 10
107.018422373103
 20
-82.10967674865628
 30
-0.0000000281979916
 40
2.0
  1
VIGA O SOPORTE CUYA SECCIÓN METÁLICA ES CONTINUA SIN INTERRUPCIONES, YA SEA ENTERIZA O CON UNIONES SOLDADAS EN TALLER, A TOPE (PENETRACIÓN COMPLETA)
  7
ROMANS
 11
107.018422373103
 21
-81.10967674865628
 31
-0.0000000281979916
100
AcDbText
 73
     2
  0
LINE
  5
151
330
2
100
AcDbEntity
  8
9
100
AcDbLine
 10
0.5
 20
55.03295075278106
 30
0.0
 11
56.22758018754075
 21
55.03295075278106
 31
-0.0000000133475962
  0
LINE
  5
152
330
2
100
AcDbEntity
  8
9
100
AcDbLine
 10
-11.75427869209511
 20
-0.0000000000075033
 30
-0.0000000302770653
 11
-11.75427869209511
 21
95.78309366576787
 31
-0.0000001864296893
  0
LINE
  5
153
330
2
100
AcDbEntity
  8
0
 62
     5
100
AcDbLine
 10
-5.0
 20
0.0000000000006821
 30
-0.0000002323618197
 11
5.0
 21
0.0
 31
-0.0000002322146144
  0
LINE
  5
154
330
2
100
AcDbEntity
  8
0
100
AcDbLine
 10
-11.75427869209511
 20
-0.0000000000077307
 30
-0.0000001108861715
 11
-10.69361852031511
 21
1.060660171772042
 31
-0.0000001108861715
  0
LINE
  5
155
330
2
100
AcDbEntity
  8
7
100
AcDbLine
 10
-10.25427869209556
 20
-0.0000000000077307
 30
-0.0000001108861715
 11
-13.25427869209556
 21
-0.0000000000077307
 31
-0.0000001108861715
  0
LINE
  5
156
330
2
100
AcDbEntity
  8
7
100
AcDbLine
 10
-10.25427869209556
 20
-0.0000000000077307
 30
-0.0000001108861715
 11
-13.25427869209556
 21
-0.0000000000077307
 31
-0.0000001108861715
  0
LINE
  5
157
330
2
100
AcDbEntity
  8
9
100
AcDbLine
 10
-11.75427869209556
 20
-0.000000000007276
 30
-0.0000001108861715
 11
-12.81493886387556
 21
1.060660171772269
 31
-0.0000001108861715
  0
TEXT
  5
158
330
2
100
AcDbEntity
  8
KR-TEXTOS
  6
CONTINUOUS
100
AcDbText
 10
-69.23607020276882
 20
59.33166322591
 30
-0.0000001923813101
 40
2.0
  1
SOPORTES DE SOTANOS
  7
DEYP
100
AcDbText
  0
TEXT
  5
159
330
2
100
AcDbEntity
  8
KR-TEXTOS
  6
CONTINUOUS
100
AcDbText
 10
-69.23607020276882
 20
66.48995790364256
 30
-0.0000001923813101
 40
2.0
  1
APOYOS ARTICULADOS DE
  7
DEYP
100
AcDbText
  0
TEXT
  5
15A
330
2
100
AcDbEntity
  8
KR-TEXTOS
  6
CONTINUOUS
100
AcDbText
 10
-69.23607020276882
 20
62.58166322591001
 30
-0.0000001923813101
 40
2.0
  1
ESTRUCTURA METALICA SOBRE
  7
DEYP
100
AcDbText
  0
LINE
  5
15B
330
2
100
AcDbEntity
  8
0
 62
     7
100
AcDbLine
 10
-68.89684314696774
 20
65.53581056477629
 30
-0.0000001923813101
 11
-15.37093266301758
 21
65.53581056477629
 31
-0.0000001923813101
  0
LWPOLYLINE
  5
15C
330
2
100
AcDbEntity
  8
9
100
AcDbPolyline
 90
        7
 70
     0
 43
0.0
 38
-0.0000001881101487
 10
-4.886595297703252
 20
114.1506292420644
 10
-5.947255469483025
 20
115.2112894138442
 10
-10.69361852031511
 20
115.2112894138442
 10
-11.75427869209488
 20
116.2719495856242
 10
-12.81493886387465
 20
115.2112894138442
 10
-17.53076621215041
 20
115.2112894138442
 10
-18.59142638393018
 20
114.1506292420644
  0
LWPOLYLINE
  5
15D
330
2
100
AcDbEntity
  8
9
100
AcDbPolyline
 90
        7
 70
     0
 43
0.0
 38
-0.0000001881101487
 10
-4.886595297703252
 20
97.90441400932763
 10
-5.947255469483025
 20
96.84375383754787
 10
-10.69361852031511
 20
96.84375383754787
 10
-11.75427869209488
 20
95.78309366576808
 10
-12.81493886387465
 20
96.84375383754787
 10
-17.53076621215041
 20
96.84375383754787
 10
-18.59142638393018
 20
97.90441400932763
  0
INSERT
  5
15E
330
2
100
AcDbEntity
  8
KR-TEXTOS
  6
CONTINUOUS
100
AcDbBlockReference
  2
SIM10
 10
-16.57436442437915
 20
100.7696188467409
 30
-0.0000002083534965
 41
2.0
 42
2.0
 43
2.0
 50
90.0
  0
TEXT
  5
15F
330
2
100
AcDbEntity
  8
KR-TEXTOS
  6
CONTINUOUS
100
AcDbText
 10
-15.57436442437915
 20
102.175688910536
 30
-0.0000002083534965
 40
2.0
  1
600.60
 50
90.0
  7
DEYP
 72
     1
 11
-16.57436442437915
 21
107.4614031962503
 31
-0.0000002083534965
100
AcDbText
 73
     2
  0
INSERT
  5
160
330
2
100
AcDbEntity
  8
KR-TEXTOS
  6
CONTINUOUS
100
AcDbBlockReference
  2
SIM10
 10
-11.75427869209511
 20
100.7696188467409
 30
-0.0000002083534965
 41
2.0
 42
2.0
 43
2.0
 50
90.0
  0
INSERT
  5
161
330
2
100
AcDbEntity
  8
KR-TEXTOS
  6
CONTINUOUS
100
AcDbBlockReference
  2
SIM10
 10
-6.934192959810616
 20
100.7696188467409
 30
-0.0000002083534965
 41
2.0
 42
2.0
 43
2.0
 50
90.0
  0
TEXT
  5
162
330
2
100
AcDbEntity
  8
KR-TEXTOS
  6
CONTINUOUS
100
AcDbText
 10
-10.75427869209511
 20
102.223307958155
 30
-0.0000002083534965
 40
2.0
  1
30.880
 50
90.0
  7
DEYP
 72
     1
 11
-11.75427869209511
 21
107.4614031962503
 31
-0.0000002083534965
100
AcDbText
 73
     2
  0
TEXT
  5
163
330
2
100
AcDbEntity
  8
KR-TEXTOS
  6
CONTINUOUS
100
AcDbText
 10
-5.934192959810616
 20
102.175688910536
 30
-0.0000002083534965
 40
2.0
  1
600.60
 50
90.0
  7
DEYP
 72
     1
 11
-6.934192959810616
 21
107.4614031962503
 31
-0.0000002083534965
100
AcDbText
 73
     2
  0
TEXT
  5
164
330
2
100
AcDbEntity
  8
KR-TEXTOS
  6
CONTINUOUS
100
AcDbText
 10
-26.57505208222687
 20
145.412372419888
 30
-0.0000001821687349
 40
2.0
  1
V. MIX. CONT.
  7
DEYP
100
AcDbText
  0
TEXT
  5
165
330
2
100
AcDbEntity
  8
KR-TEXTOS
  6
CONTINUOUS
100
AcDbText
 10
-51.35836333204202
 20
157.5378509989539
 30
-0.0000001923813101
 40
2.0
  1
V. TRANSV. MIX. CONT.
  7
DEYP
100
AcDbText
  0
LINE
  5
166
330
2
100
AcDbEntity
  8
0
 62
     7
100
AcDbLine
 10
-51.01913627624094
 20
156.5837036600876
 30
-0.0000001923813101
 11
-15.50332114371099
 21
156.5837036600876
 31
-0.0000001923813101
  0
TEXT
  5
167
330
2
100
AcDbEntity
  8
KR-TEXTOS
  6
CONTINUOUS
100
AcDbText
 10
-51.35836333204202
 20
153.6295563212213
 30
-0.0000001923813101
 40
2.0
  1
HEA 600 A52d
  7
DEYP
100
AcDbText
  0
LINE
  5
168
330
2
100
AcDbEntity
  8
0
100
AcDbLine
 10
-3.529680578956003
 20
146.8920109561675
 30
-0.0000001844938579
 11
-15.50332114371099
 21
156.5837036600876
 31
-0.0000001923813101
  0
INSERT
  5
169
330
2
100
AcDbEntity
  8
KR-TEXTOS
  6
CONTINUOUS
100
AcDbBlockReference
  2
SIM10
 10
3.661622993936816
 20
137.9409324245386
 30
-0.0000001821687349
 41
2.0
 42
2.0
 43
2.0
  0
CIRCLE
  5
16A
330
2
100
AcDbEntity
  8
0
  6
RAYITAS
 62
     9
100
AcDbCircle
 10
0.0
 20
144.0350202749096
 30
-0.0000001821687349
 40
4.54103961029341
  0
TEXT
  5
16B
330
2
100
AcDbEntity
  8
KR-TEXTOS
  6
CONTINUOUS
100
AcDbText
 10
7.830062871535487
 20
132.795131339423
 30
-0.0000001821687349
 40
2.0
  1
2.0
  7
DEYP
 72
     1
 11
10.21101525248786
 21
133.795131339423
 31
-0.0000001821687349
100
AcDbText
 73
     2
  0
TEXT
  5
16C
330
2
100
AcDbEntity
  8
KR-TEXTOS
  6
CONTINUOUS
100
AcDbText
 10
5.242664127354558
 20
136.9409324245386
 30
-0.0000001821687349
 40
2.0
  1
25.1400
  7
DEYP
 72
     1
 11
11.43314031783074
 21
137.9409324245386
 31
-0.0000001821687349
100
AcDbText
 73
     2
  0
LWPOLYLINE
  5
16D
330
2
100
AcDbEntity
  8
9
100
AcDbPolyline
 90
        7
 70
     0
 43
0.0
 38
-0.0000001238093948
 10
-4.89239902679651
 20
173.9194113077549
 10
-5.953059198576283
 20
172.8587511359749
 10
-10.69942224940837
 20
172.8587511359749
 10
-11.76008242118814
 20
171.7980909641951
 10
-12.82074259296791
 20
172.8587511359749
 10
-17.53656994124367
 20
172.8587511359749
 10
-18.59723011302344
 20
173.9194113077549
  0
INSERT
  5
16E
330
2
100
AcDbEntity
  8
KR-TEXTOS
  6
CONTINUOUS
100
AcDbBlockReference
  2
SIM10
 10
-16.58016815347241
 20
176.784616145168
 30
-0.0000001440527426
 41
2.0
 42
2.0
 43
2.0
 50
90.0
  0
TEXT
  5
16F
330
2
100
AcDbEntity
  8
KR-TEXTOS
  6
CONTINUOUS
100
AcDbText
 10
-15.58016815347241
 20
178.1906862089631
 30
-0.0000001440527426
 40
2.0
  1
600.70
 50
90.0
  7
DEYP
 72
     1
 11
-16.58016815347241
 21
183.4764004946773
 31
-0.0000001440527426
100
AcDbText
 73
     2
  0
INSERT
  5
170
330
2
100
AcDbEntity
  8
KR-TEXTOS
  6
CONTINUOUS
100
AcDbBlockReference
  2
SIM10
 10
-11.76008242118837
 20
176.784616145168
 30
-0.0000001440527426
 41
2.0
 42
2.0
 43
2.0
 50
90.0
  0
INSERT
  5
171
330
2
100
AcDbEntity
  8
KR-TEXTOS
  6
CONTINUOUS
100
AcDbBlockReference
  2
SIM10
 10
-6.939996688903875
 20
176.784616145168
 30
-0.0000001440527426
 41
2.0
 42
2.0
 43
2.0
 50
90.0
  0
TEXT
  5
172
330
2
100
AcDbEntity
  8
KR-TEXTOS
  6
CONTINUOUS
100
AcDbText
 10
-10.76008242118837
 20
178.2383052565821
 30
-0.0000001440527426
 40
2.0
  1
30.880
 50
90.0
  7
DEYP
 72
     1
 11
-11.76008242118837
 21
183.4764004946773
 31
-0.0000001440527426
100
AcDbText
 73
     2
  0
TEXT
  5
173
330
2
100
AcDbEntity
  8
KR-TEXTOS
  6
CONTINUOUS
100
AcDbText
 10
-5.939996688903875
 20
178.1906862089631
 30
-0.0000001440527426
 40
2.0
  1
600.70
 50
90.0
  7
DEYP
 72
     1
 11
-6.939996688903875
 21
183.4764004946773
 31
-0.0000001440527426
100
AcDbText
 73
     2
  0
CIRCLE
  5
174
330
2
100
AcDbEntity
  8
0
  6
RAYITAS
 62
     9
100
AcDbCircle
 10
-77.73854828045933
 20
65.53581056477629
 30
0.0
 40
6.054719480391213
  0
LWPOLYLINE
  5
175
330
2
100
AcDbEntity
  8
0
 62
     5
100
AcDbPolyline
 90
        2
 70
     0
 43
1.0
 10
-77.73854828045933
 20
71.59053004516749
 10
-77.73854828045933
 20
59.48109108438507
  0
CIRCLE
  5
176
330
2
100
AcDbEntity
  8
0
  6
RAYITAS
 62
     9
100
AcDbCircle
 10
0.0
 20
65.53581056477629
 30
0.0
 40
6.054719480391213
  0
LINE
  5
177
330
2
100
AcDbEntity
  8
0
100
AcDbLine
 10
0.5000000000002274
 20
55.0329507527806
 30
0.0
 11
1.560660171779773
 21
53.97229058100061
 31
0.0
  0
LINE
  5
178
330
2
100
AcDbEntity
  8
7
100
AcDbLine
 10
0.5
 20
53.53295075278106
 30
0.0
 11
0.5
 21
56.53295075278106
 31
0.0
  0
LINE
  5
179
330
2
100
AcDbEntity
  8
9
100
AcDbLine
 10
0.5000000000006822
 20
55.03295075278106
 30
0.0
 11
1.560660171780227
 21
56.09361092456106
 31
0.0
  0
LINE
  5
17A
330
2
100
AcDbEntity
  8
7
100
AcDbLine
 10
20.00000000000022
 20
134.368033783493
 30
0.0
 11
20.00000000000022
 21
137.368033783493
 31
0.0
  0
LINE
  5
17B
330
2
100
AcDbEntity
  8
7
100
AcDbLine
 10
20.00000000000022
 20
134.368033783493
 30
0.0
 11
20.00000000000022
 21
137.368033783493
 31
0.0
  0
LINE
  5
17C
330
2
100
AcDbEntity
  8
9
100
AcDbLine
 10
20.00000000000068
 20
135.868033783493
 30
0.0
 11
21.06066017178022
 21
136.928693955273
 31
0.0
  0
LINE
  5
17D
330
2
100
AcDbEntity
  8
0
100
AcDbLine
 10
20.00000000000022
 20
135.8680337834925
 30
0.0
 11
21.06066017177977
 21
134.8073736117125
 31
0.0
  0
LINE
  5
17E
330
2
100
AcDbEntity
  8
0
100
AcDbLine
 10
20.00000000000022
 20
135.8680337834925
 30
0.0
 11
18.93933982822022
 21
134.8073736117125
 31
0.0
  0
LINE
  5
17F
330
2
100
AcDbEntity
  8
9
100
AcDbLine
 10
19.99999999999977
 20
135.868033783493
 30
0.0
 11
18.93933982822022
 21
136.928693955273
 31
0.0
  0
LINE
  5
180
330
2
100
AcDbEntity
  8
9
100
AcDbLine
 10
133.8723671199083
 20
-0.0000000000075033
 30
-0.0000000302770653
 11
133.8723671199083
 21
67.52002297648232
 31
-0.0000001403531587
  0
LINE
  5
181
330
2
100
AcDbEntity
  8
0
 62
     5
100
AcDbLine
 10
141.9098460714647
 20
-0.0000000000077307
 30
-0.0000002301992288
 11
151.9098460714646
 21
-0.0000000000084128
 31
-0.0000002300520235
  0
TEXT
  5
182
330
2
100
AcDbEntity
  8
KR-TEXTOS
100
AcDbText
 10
107.018422373103
 20
-61.15729579627554
 30
-0.0000000281979916
 40
2.0
  1
VIGA DE BORDE
  7
ROMANS
 11
107.018422373103
 21
-60.15729579627555
 31
-0.0000000281979916
100
AcDbText
 73
     2
  0
TEXT
  5
183
330
2
100
AcDbEntity
  8
KR-TEXTOS
100
AcDbText
 10
107.018422373103
 20
-66.39539103437051
 30
-0.0000000281979916
 40
2.0
  1
VIGA TRANSVERSAL AL PÓRTICO
  7
ROMANS
 11
107.018422373103
 21
-65.3953910343705
 31
-0.0000000281979916
100
AcDbText
 73
     2
  0
TEXT
  5
184
330
2
100
AcDbEntity
  8
KR-TEXTOS
100
AcDbText
 10
80.72867442819916
 20
-71.63348627246546
 30
-0.0000000281979916
 40
2.0
  1
V. MIX.
  7
ROMANS
 11
80.72867442819916
 21
-70.63348627246546
 31
-0.0000000281979916
100
AcDbText
 73
     2
  0
TEXT
  5
185
330
2
100
AcDbEntity
  8
KR-TEXTOS
100
AcDbText
 10
80.72867442819916
 20
-82.10967674865628
 30
-0.0000000281979916
 40
2.0
  1
SIN INT.
  7
ROMANS
 11
80.72867442819916
 21
-81.10967674865628
 31
-0.0000000281979916
100
AcDbText
 73
     2
  0
TEXT
  5
186
330
2
100
AcDbEntity
  8
KR-TEXTOS
100
AcDbText
 10
80.72867442819916
 20
-76.87158151056087
 30
-0.0000000281979916
 40
2.0
  1
V. CONT.
  7
ROMANS
 11
80.72867442819916
 21
-75.87158151056087
 31
-0.0000000281979916
100
AcDbText
 73
     2
  0
TEXT
  5
187
330
2
100
AcDbEntity
  8
KR-TEXTOS
100
AcDbText
 10
80.72867442819916
 20
-87.34777198675123
 30
-0.0000000281979916
 40
2.0
  1
A
  7
ROMANS
 11
80.72867442819916
 21
-86.34777198675124
 31
-0.0000000281979916
100
AcDbText
 73
     2
  0
TEXT
  5
188
330
2
100
AcDbEntity
  8
KR-TEXTOS
100
AcDbText
 10
101.6178127160892
 20
-71.63348627246546
 30
-0.0000000281979916
 40
2.0
  1
:
  7
ROMANS
 11
101.6178127160892
 21
-70.63348627246546
 31
-0.0000000281979916
100
AcDbText
 73
     2
  0
TEXT
  5
189
330
2
100
AcDbEntity
  8
KR-TEXTOS
100
AcDbText
 10
101.6178127160892
 20
-76.87158151056087
 30
-0.0000000281979916
 40
2.0
  1
:
  7
ROMANS
 11
101.6178127160892
 21
-75.87158151056087
 31
-0.0000000281979916
100
AcDbText
 73
     2
  0
TEXT
  5
18A
330
2
100
AcDbEntity
  8
KR-TEXTOS
100
AcDbText
 10
101.6178127160892
 20
-82.10967674865628
 30
-0.0000000281979916
 40
2.0
  1
:
  7
ROMANS
 11
101.6178127160892
 21
-81.10967674865628
 31
-0.0000000281979916
100
AcDbText
 73
     2
  0
TEXT
  5
18B
330
2
100
AcDbEntity
  8
KR-TEXTOS
100
AcDbText
 10
101.6178127160892
 20
-87.34777198675123
 30
-0.0000000281979916
 40
2.0
  1
:
  7
ROMANS
 11
101.6178127160892
 21
-86.34777198675124
 31
-0.0000000281979916
100
AcDbText
 73
     2
  0
TEXT
  5
18C
330
2
100
AcDbEntity
  8
KR-TEXTOS
100
AcDbText
 10
80.72867442819916
 20
-66.39539103437051
 30
-0.0000000281979916
 40
2.0
  1
V. TRANSV.
  7
ROMANS
 11
80.72867442819916
 21
-65.3953910343705
 31
-0.0000000281979916
100
AcDbText
 73
     2
  0
TEXT
  5
18D
330
2
100
AcDbEntity
  8
KR-TEXTOS
100
AcDbText
 10
80.72867442819916
 20
-61.15729579627554
 30
-0.0000000281979916
 40
2.0
  1
V.B.
  7
ROMANS
 11
80.72867442819916
 21
-60.15729579627555
 31
-0.0000000281979916
100
AcDbText
 73
     2
  0
TEXT
  5
18E
330
2
100
AcDbEntity
  8
KR-TEXTOS
100
AcDbText
 10
101.6178127160892
 20
-61.15729579627554
 30
-0.0000000281979916
 40
2.0
  1
:
  7
ROMANS
 11
101.6178127160892
 21
-60.15729579627555
 31
-0.0000000281979916
100
AcDbText
 73
     2
  0
TEXT
  5
18F
330
2
100
AcDbEntity
  8
KR-TEXTOS
100
AcDbText
 10
101.6178127160892
 20
-66.39539103437051
 30
-0.0000000281979916
 40
2.0
  1
:
  7
ROMANS
 11
101.6178127160892
 21
-65.3953910343705
 31
-0.0000000281979916
100
AcDbText
 73
     2
  0
LINE
  5
190
330
2
100
AcDbEntity
  8
0
100
AcDbLine
 10
133.8723671199083
 20
-0.0000000000077307
 30
-0.0000001108861715
 11
134.9330272916884
 21
1.060660171772042
 31
-0.0000001108861715
  0
LINE
  5
191
330
2
100
AcDbEntity
  8
9
100
AcDbLine
 10
133.8723671199079
 20
-0.000000000007276
 30
-0.0000001108861715
 11
132.8117069481279
 21
1.060660171772269
 31
-0.0000001108861715
  0
LINE
  5
192
330
2
100
AcDbEntity
  8
7
100
AcDbLine
 10
135.3723671199079
 20
-0.0000000000077307
 30
-0.0000001108861715
 11
132.3723671199079
 21
-0.0000000000077307
 31
-0.0000001108861715
  0
LINE
  5
193
330
2
100
AcDbEntity
  8
7
100
AcDbLine
 10
135.3723671199079
 20
-0.0000000000077307
 30
-0.0000001108861715
 11
132.3723671199079
 21
-0.0000000000077307
 31
-0.0000001108861715
  0
LINE
  5
194
330
2
100
AcDbEntity
  8
0
100
AcDbLine
 10
93.28889009452632
 20
147.7058713233398
 30
-0.0000001847990274
 11
110.7543738295439
 21
167.7383960782676
 31
-0.0000001923813101
  0
CIRCLE
  5
195
330
2
100
AcDbEntity
  8
0
  6
RAYITAS
 62
     9
100
AcDbCircle
 10
90.61570971854917
 20
144.0350202749116
 30
-0.0000001821687349
 40
4.54103961029341
  0
LINE
  5
196
330
2
100
AcDbEntity
  8
0
100
AcDbLine
 10
166.9098460714644
 20
55.03295075278106
 30
-0.0000001459739989
 11
167.9705062432442
 21
53.97229058100106
 31
-0.0000001459739989
  0
LINE
  5
197
330
2
100
AcDbEntity
  8
9
100
AcDbLine
 10
166.9098460714649
 20
55.03295075278152
 30
-0.0000001459739989
 11
167.9705062432444
 21
56.09361092456151
 31
-0.0000001459739989
  0
LINE
  5
198
330
2
100
AcDbEntity
  8
7
100
AcDbLine
 10
166.9098460714644
 20
53.53295075278151
 30
-0.0000001459739989
 11
166.9098460714644
 21
56.53295075278151
 31
-0.0000001459739989
  0
LINE
  5
199
330
2
100
AcDbEntity
  8
7
100
AcDbLine
 10
166.9098460714644
 20
53.53295075278151
 30
-0.0000001459739989
 11
166.9098460714644
 21
56.53295075278151
 31
-0.0000001459739989
  0
LINE
  5
19A
330
2
100
AcDbEntity
  8
9
100
AcDbLine
 10
166.909846071464
 20
55.03295075278152
 30
-0.0000001459739989
 11
165.8491858996844
 21
56.09361092456151
 31
-0.0000001459739989
  0
LINE
  5
19B
330
2
100
AcDbEntity
  8
0
100
AcDbLine
 10
166.9098460714644
 20
55.03295075278106
 30
-0.0000001459739989
 11
165.8491858996846
 21
53.97229058100106
 31
-0.0000001459739989
  0
TEXT
  5
19C
330
2
100
AcDbEntity
  8
KR-TEXTOS
  6
CONTINUOUS
100
AcDbText
 10
143.0133274441172
 20
130.047948051208
 30
-0.0000001821687349
 40
2.0
  1
600.60
  7
DEYP
 72
     1
 11
148.2990417298315
 21
131.047948051208
 31
-0.0000001821687349
100
AcDbText
 73
     2
  0
TEXT
  5
19D
330
2
100
AcDbEntity
  8
KR-TEXTOS
  6
CONTINUOUS
100
AcDbText
 10
143.0133274441172
 20
139.6881195157766
 30
-0.0000001821687349
 40
2.0
  1
600.55
  7
DEYP
 72
     1
 11
148.2990417298315
 21
140.6881195157766
 31
-0.0000001821687349
100
AcDbText
 73
     2
  0
TEXT
  5
19E
330
2
100
AcDbEntity
  8
KR-TEXTOS
  6
CONTINUOUS
100
AcDbText
 10
141.8580156262718
 20
134.8680337834923
 30
-0.0000001821687349
 40
2.0
  1
15.1400
  7
DEYP
 72
     1
 11
148.1913489596052
 21
135.8680337834923
 31
-0.0000001821687349
100
AcDbText
 73
     2
  0
TEXT
  5
19F
330
2
100
AcDbEntity
  8
KR-TEXTOS
  6
CONTINUOUS
100
AcDbText
 10
114.8117061116797
 20
126.0125127563651
 30
-0.0000001821687349
 40
2.0
  1
CONTRAFLECHA DE EJECUCION = L/1000
  7
DEYP
 72
     1
 11
146.9069442069178
 21
127.0125127563651
 31
-0.0000001821687349
100
AcDbText
 73
     2
  0
TEXT
  5
1A0
330
2
100
AcDbEntity
  8
KR-TEXTOS
  6
CONTINUOUS
100
AcDbText
 10
130.049801349775
 20
149.9763296246124
 30
-0.0000001821687349
 40
2.0
  1
V. MIX. SIN INT. A52d
  7
DEYP
 72
     1
 11
146.9069442069178
 21
150.9763296246124
 31
-0.0000001821687349
100
AcDbText
 73
     2
  0
LINE
  5
1A1
330
2
100
AcDbEntity
  8
0
 62
     7
100
AcDbLine
 10
162.5756662142312
 20
167.7383960782676
 30
-0.0000001923813101
 11
110.7543738295439
 21
167.7383960782676
 31
-0.0000001923813101
  0
TEXT
  5
1A2
330
2
100
AcDbEntity
  8
KR-TEXTOS
  6
CONTINUOUS
100
AcDbText
 10
111.942749351208
 20
168.6925434171339
 30
-0.0000001923813101
 40
2.0
  1
PERFIL DE FORJADO MIXT. CONT.
  7
DEYP
100
AcDbText
  0
INSERT
  5
1A3
330
2
100
AcDbEntity
  8
KR-TEXTOS
  6
CONTINUOUS
100
AcDbBlockReference
  2
SIM10
 10
141.6072573803221
 20
131.047948051208
 30
-0.0000001821687349
 41
2.0
 42
2.0
 43
2.0
  0
INSERT
  5
1A4
330
2
100
AcDbEntity
  8
KR-TEXTOS
  6
CONTINUOUS
100
AcDbBlockReference
  2
SIM10
 10
141.6072573803221
 20
140.6881195157766
 30
-0.0000001821687349
 41
2.0
 42
2.0
 43
2.0
  0
INSERT
  5
1A5
330
2
100
AcDbEntity
  8
KR-TEXTOS
  6
CONTINUOUS
100
AcDbBlockReference
  2
SIM10
 10
140.6866899724461
 20
135.8680337834923
 30
-0.0000001821687349
 41
2.0
 42
2.0
 43
2.0
  0
TEXT
  5
1A6
330
2
100
AcDbEntity
  8
KR-TEXTOS
  6
CONTINUOUS
100
AcDbText
 10
111.942749351208
 20
164.7842487394013
 30
-0.0000001923813101
 40
2.0
  1
IPE 550 A52
  7
DEYP
100
AcDbText
  0
LINE
  5
1A7
330
2
100
AcDbEntity
  8
0
100
AcDbLine
 10
126.9098460714644
 20
55.03295075278106
 30
-0.0000001108861715
 11
125.8491858996847
 21
53.97229058100106
 31
-0.0000001108861715
  0
LINE
  5
1A8
330
2
100
AcDbEntity
  8
9
100
AcDbLine
 10
126.909846071464
 20
55.03295075278152
 30
-0.0000001108861715
 11
125.8491858996844
 21
56.09361092456151
 31
-0.0000001108861715
  0
LINE
  5
1A9
330
2
100
AcDbEntity
  8
7
100
AcDbLine
 10
126.9098460714644
 20
53.53295075278151
 30
-0.0000001108861715
 11
126.9098460714644
 21
56.53295075278151
 31
-0.0000001108861715
  0
LINE
  5
1AA
330
2
100
AcDbEntity
  8
7
100
AcDbLine
 10
126.9098460714644
 20
53.53295075278151
 30
-0.0000001108861715
 11
126.9098460714644
 21
56.53295075278151
 31
-0.0000001108861715
  0
LINE
  5
1AB
330
2
100
AcDbEntity
  8
9
100
AcDbLine
 10
126.9098460714649
 20
55.03295075278152
 30
-0.0000001108861715
 11
127.9705062432444
 21
56.09361092456151
 31
-0.0000001108861715
  0
LINE
  5
1AC
330
2
100
AcDbEntity
  8
0
100
AcDbLine
 10
126.9098460714644
 20
55.03295075278106
 30
-0.0000001108861715
 11
127.9705062432442
 21
53.97229058100106
 31
-0.0000001108861715
  0
CIRCLE
  5
1AD
330
2
100
AcDbEntity
  8
0
  6
RAYITAS
 62
     9
100
AcDbCircle
 10
146.9040423423712
 20
65.53581056477629
 30
0.0
 40
6.054719480391213
  0
LINE
  5
1AE
330
2
100
AcDbEntity
  8
9
100
AcDbLine
 10
0.5
 20
150.9763296246124
 30
0.0000000643007539
 11
128.3911501809047
 21
150.9763296246124
 31
0.0000000520357423
  0
LINE
  5
1AF
330
2
100
AcDbEntity
  8
9
100
AcDbLine
 10
0.5
 20
135.8680337834923
 30
0.0000000643007539
 11
138.6945007269287
 21
135.8680337834923
 31
0.0000000509531577
  0
LINE
  5
1B0
330
2
100
AcDbEntity
  8
0
100
AcDbLine
 10
0.5000000000002274
 20
150.9763296246119
 30
0.0000000643007539
 11
1.560660171779773
 21
149.9156694528321
 31
0.0000000643007539
  0
LINE
  5
1B1
330
2
100
AcDbEntity
  8
7
100
AcDbLine
 10
0.5
 20
149.4763296246123
 30
0.0000000643007539
 11
0.5
 21
152.4763296246123
 31
0.0000000643007539
  0
LINE
  5
1B2
330
2
100
AcDbEntity
  8
9
100
AcDbLine
 10
0.5000000000006822
 20
150.9763296246124
 30
0.0000000643007539
 11
1.560660171780227
 21
152.0369897963926
 31
0.0000000643007539
  0
LINE
  5
1B3
330
2
100
AcDbEntity
  8
9
100
AcDbLine
 10
0.5000000000006822
 20
135.8680337834923
 30
0.0000000643007539
 11
1.560660171780227
 21
136.9286939552725
 31
0.0000000643007539
  0
LINE
  5
1B4
330
2
100
AcDbEntity
  8
7
100
AcDbLine
 10
0.5
 20
134.3680337834923
 30
0.0000000643007539
 11
0.5
 21
137.3680337834923
 31
0.0000000643007539
  0
LINE
  5
1B5
330
2
100
AcDbEntity
  8
0
100
AcDbLine
 10
0.5000000000002274
 20
135.8680337834919
 30
0.0000000643007539
 11
1.560660171779773
 21
134.8073736117121
 31
0.0000000643007539
  0
LWPOLYLINE
  5
1B6
330
2
100
AcDbEntity
  8
0
 62
     5
100
AcDbPolyline
 90
        2
 70
     0
 43
1.0
 38
-0.0000002143191116
 10
308.8138884138357
 20
106.0275216256959
 10
397.8138884138357
 20
106.0275216257048
  0
LWPOLYLINE
  5
1B7
330
2
100
AcDbEntity
  8
0
 62
     5
100
AcDbPolyline
 90
        2
 70
     0
 43
1.0
 38
-0.0000001944026668
 10
293.8138884138357
 20
182.7675101345382
 10
397.8138884138357
 20
182.7675101345469
  0
LINE
  5
1B8
330
2
100
AcDbEntity
  8
9
100
AcDbLine
 10
342.9027055976678
 20
-0.000000000024329
 30
-0.0000000259519691
 11
342.902705597668
 21
67.52002297646595
 31
-0.00000012840165
  0
LINE
  5
1B9
330
2
100
AcDbEntity
  8
0
100
AcDbLine
 10
294.3138884138356
 20
43.88120391636471
 30
-0.0000002220406007
 11
295.3745485856156
 21
42.82054374458494
 31
-0.0000002220406007
  0
LINE
  5
1BA
330
2
100
AcDbEntity
  8
7
100
AcDbLine
 10
294.3138884138356
 20
42.38120391636516
 30
-0.0000002220406007
 11
294.3138884138356
 21
45.38120391636517
 31
-0.0000002220406007
  0
LINE
  5
1BB
330
2
100
AcDbEntity
  8
7
100
AcDbLine
 10
294.3138884138356
 20
42.38120391636516
 30
-0.0000002220406007
 11
294.3138884138356
 21
45.38120391636517
 31
-0.0000002220406007
  0
LINE
  5
1BC
330
2
100
AcDbEntity
  8
9
100
AcDbLine
 10
282.0596097217405
 20
-0.000000000024329
 30
-0.0000000259519691
 11
282.0596097217407
 21
93.21718734533419
 31
-0.0000001673925475
  0
TEXT
  5
1BD
330
2
100
AcDbEntity
  8
KR-TEXTOS
  6
CONTINUOUS
100
AcDbText
 10
273.9390473027497
 20
-55.1820084644803
 30
-0.0000001465869242
 40
2.5
  1
@
  7
DEYP
 72
     1
 11
275.5461901598926
 21
-53.9320084644803
 31
-0.0000001465869242
100
AcDbText
 73
     2
  0
LINE
  5
1BE
330
2
100
AcDbEntity
  8
0
 62
     7
100
AcDbLine
 10
231.8144261933982
 20
8.913172464359149
 30
-0.0000001923813101
 11
286.1945786500287
 21
8.913172464359149
 31
-0.0000001923813101
  0
TEXT
  5
1BF
330
2
100
AcDbEntity
  8
KR-TEXTOS
  6
CONTINUOUS
100
AcDbText
 10
231.4751991375974
 20
9.867319803225427
 30
-0.0000001923813101
 40
2.0
  1
V. TRANSV. MIX. CONT.
  7
DEYP
100
AcDbText
  0
TEXT
  5
1C0
330
2
100
AcDbEntity
  8
KR-TEXTOS
  6
CONTINUOUS
100
AcDbText
 10
277.6982603064341
 20
-54.9320084644803
 30
-0.0000001465869242
 40
2.0
  1
1
  7
DEYP
 72
     1
 11
278.507784115958
 21
-53.9320084644803
 31
-0.0000001465869242
100
AcDbText
 73
     2
  0
LINE
  5
1C1
330
2
100
AcDbEntity
  8
0
 62
     5
100
AcDbLine
 10
288.8138884138356
 20
-0.0000000000159162
 30
-0.0000002280367234
 11
298.8138884138356
 21
-0.0000000000165983
 31
-0.0000002278895181
  0
LINE
  5
1C2
330
2
100
AcDbEntity
  8
0
 62
     5
100
AcDbLine
 10
328.8138884138356
 20
-0.0000000000179625
 30
-0.0000002274479022
 11
338.8138884138356
 21
-0.0000000000186446
 31
-0.0000002273006969
  0
TEXT
  5
1C3
330
2
100
AcDbEntity
  8
KR-TEXTOS
  6
CONTINUOUS
100
AcDbText
 10
343.6234122233595
 20
-7.966011199098147
 30
-0.0000001465869242
 40
2.0
  1
@50
  7
DEYP
 72
     1
 11
346.8138884138356
 21
-6.966011199098147
 31
-0.0000001465869242
100
AcDbText
 73
     2
  0
LINE
  5
1C4
330
2
100
AcDbEntity
  8
0
100
AcDbLine
 10
287.059609721741
 20
-63.29710320196295
 30
-0.0000000696962541
 11
282.059609721741
 21
-63.29710320196295
 31
-0.0000000696962541
  0
TEXT
  5
1C5
330
2
100
AcDbEntity
  8
KR-TEXTOS
100
AcDbText
 10
286.8652442491772
 20
-55.77756335566687
 30
-0.0000000281979916
 40
2.0
  1
ALTILLOS Y CRUJÍA LATERAL SEGÚN VERSIÓN
  7
ROMANS
 11
286.8652442491772
 21
-54.77756335566687
 31
-0.0000000281979916
100
AcDbText
 73
     2
  0
TEXT
  5
1C6
330
2
100
AcDbEntity
  8
KR-TEXTOS
100
AcDbText
 10
286.8652442491772
 20
-59.32454881138915
 30
-0.0000000281979916
 40
2.0
  1
ANTERIOR DE PLANOS DE ARQUITECTURA
  7
ROMANS
 11
286.8652442491772
 21
-58.32454881138914
 31
-0.0000000281979916
100
AcDbText
 73
     2
  0
LINE
  5
1C7
330
2
100
AcDbEntity
  8
0
 62
     7
100
AcDbLine
 10
287.2044713049779
 20
-50.49361545643773
 30
-0.0000000281979916
 11
295.5903173668687
 21
-50.49361545643773
 31
-0.0000000281979916
  0
TEXT
  5
1C8
330
2
100
AcDbEntity
  8
KR-TEXTOS
  6
CONTINUOUS
100
AcDbText
 10
286.8652442491772
 20
-49.53946811757146
 30
-0.0000000281979916
 40
2.0
  1
NOTA:
  7
DEYP
100
AcDbText
  0
LINE
  5
1C9
330
2
100
AcDbEntity
  8
9
100
AcDbLine
 10
282.0596097217403
 20
-0.0000000000238742
 30
-0.0000001065610753
 11
280.9989495499601
 21
1.060660171755671
 31
-0.0000001065610753
  0
LINE
  5
1CA
330
2
100
AcDbEntity
  8
0
100
AcDbLine
 10
282.0596097217407
 20
-0.000000000024329
 30
-0.0000001065610753
 11
283.1202698935205
 21
1.060660171755444
 31
-0.0000001065610753
  0
LINE
  5
1CB
330
2
100
AcDbEntity
  8
7
100
AcDbLine
 10
283.5596097217403
 20
-0.000000000024329
 30
-0.0000001065610753
 11
280.5596097217403
 21
-0.000000000024329
 31
-0.0000001065610753
  0
LINE
  5
1CC
330
2
100
AcDbEntity
  8
7
100
AcDbLine
 10
283.5596097217403
 20
-0.000000000024329
 30
-0.0000001065610753
 11
280.5596097217403
 21
-0.000000000024329
 31
-0.0000001065610753
  0
LINE
  5
1CD
330
2
100
AcDbEntity
  8
7
100
AcDbLine
 10
344.4027055976675
 20
-0.000000000024329
 30
-0.0000001065610753
 11
341.4027055976676
 21
-0.000000000024329
 31
-0.0000001065610753
  0
LINE
  5
1CE
330
2
100
AcDbEntity
  8
7
100
AcDbLine
 10
344.4027055976675
 20
-0.000000000024329
 30
-0.0000001065610753
 11
341.4027055976676
 21
-0.000000000024329
 31
-0.0000001065610753
  0
LINE
  5
1CF
330
2
100
AcDbEntity
  8
0
100
AcDbLine
 10
342.902705597668
 20
-0.000000000024329
 30
-0.0000001065610753
 11
343.9633657694478
 21
1.060660171755444
 31
-0.0000001065610753
  0
LINE
  5
1D0
330
2
100
AcDbEntity
  8
9
100
AcDbLine
 10
342.9027055976675
 20
-0.0000000000238742
 30
-0.0000001065610753
 11
341.8420454258873
 21
1.060660171755671
 31
-0.0000001065610753
  0
LINE
  5
1D1
330
2
100
AcDbEntity
  8
0
100
AcDbLine
 10
289.6310759239347
 20
69.91898587479614
 30
-0.0000000448198307
 11
275.8790027432419
 21
84.34982647842957
 31
-0.0000001923813101
  0
LINE
  5
1D2
330
2
100
AcDbEntity
  8
0
 62
     7
100
AcDbLine
 10
239.1994451238658
 20
84.34982647842957
 30
-0.0000001923813101
 11
275.8790027432419
 21
84.34982647842957
 31
-0.0000001923813101
  0
LINE
  5
1D3
330
2
100
AcDbEntity
  8
0
100
AcDbLine
 10
290.0887431853482
 20
146.6320057906432
 30
-0.0000001709344107
 11
273.693526106927
 21
157.7516030092717
 31
-0.0000001280805562
  0
TEXT
  5
1D4
330
2
100
AcDbEntity
  8
KR-TEXTOS
  6
CONTINUOUS
100
AcDbText
 10
238.860218068065
 20
81.3956791395633
 30
-0.0000001923813101
 40
2.0
  1
HEA 800 A52d
  7
DEYP
100
AcDbText
  0
TEXT
  5
1D5
330
2
100
AcDbEntity
  8
KR-TEXTOS
  6
CONTINUOUS
100
AcDbText
 10
238.860218068065
 20
85.30397381729585
 30
-0.0000001923813101
 40
2.0
  1
V. TRANSV. MIX. CONT.
  7
DEYP
100
AcDbText
  0
TEXT
  5
1D6
330
2
100
AcDbEntity
  8
KR-TEXTOS
  6
CONTINUOUS
100
AcDbText
 10
236.6747414317501
 20
154.7974556704055
 30
-0.0000001280805562
 40
2.0
  1
HEA 800 A52d
  7
DEYP
100
AcDbText
  0
TEXT
  5
1D7
330
2
100
AcDbEntity
  8
KR-TEXTOS
  6
CONTINUOUS
100
AcDbText
 10
236.6747414317501
 20
158.705750348138
 30
-0.0000001280805562
 40
2.0
  1
V. TRANSV. MIX. CONT.
  7
DEYP
100
AcDbText
  0
LINE
  5
1D8
330
2
100
AcDbEntity
  8
0
 62
     7
100
AcDbLine
 10
237.013968487551
 20
157.7516030092717
 30
-0.0000001280805562
 11
273.693526106927
 21
157.7516030092717
 31
-0.0000001280805562
  0
TEXT
  5
1D9
330
2
100
AcDbEntity
  8
KR-TEXTOS
  6
CONTINUOUS
100
AcDbText
 10
316.6710312709785
 20
115.9078876002347
 30
-0.0000001923813101
 40
2.0
  1
1.8-  2%%C  16  -1.5
  7
DEYP
 72
     1
 11
333.8138884138357
 21
116.9078876002347
 31
-0.0000001923813101
100
AcDbText
 73
     2
  0
TEXT
  5
1DA
330
2
100
AcDbEntity
  8
KR-TEXTOS
  6
CONTINUOUS
100
AcDbText
 10
278.2395239894563
 20
108.9614384102371
 30
-0.0000002040284003
 40
2.0
  1
600.80
 50
90.0
  7
DEYP
 72
     1
 11
277.2395239894563
 21
114.2471526959514
 31
-0.0000002040284003
100
AcDbText
 73
     2
  0
TEXT
  5
1DB
330
2
100
AcDbEntity
  8
KR-TEXTOS
  6
CONTINUOUS
100
AcDbText
 10
287.8796954540248
 20
108.9614384102371
 30
-0.0000002040284003
 40
2.0
  1
600.80
 50
90.0
  7
DEYP
 72
     1
 11
286.8796954540248
 21
114.2471526959514
 31
-0.0000002040284003
100
AcDbText
 73
     2
  0
TEXT
  5
1DC
330
2
100
AcDbEntity
  8
KR-TEXTOS
  6
CONTINUOUS
100
AcDbText
 10
283.0596097217408
 20
109.0090574578561
 30
-0.0000002040284003
 40
2.0
  1
30.840
 50
90.0
  7
DEYP
 72
     1
 11
282.0596097217407
 21
114.2471526959514
 31
-0.0000002040284003
100
AcDbText
 73
     2
  0
LINE
  5
1DD
330
2
100
AcDbEntity
  8
0
 62
     4
100
AcDbLine
 10
348.8138884138356
 20
114.9333130775674
 30
-0.0000001923813101
 11
315.8138884138356
 21
114.9333130775674
 31
-0.0000001923813101
  0
LINE
  5
1DE
330
2
100
AcDbEntity
  8
0
 62
     4
100
AcDbLine
 10
355.8138884138356
 20
110.1339624563154
 30
-0.0000001923813101
 11
309.8138884138356
 21
110.1339624563154
 31
-0.0000001923813101
  0
LINE
  5
1DF
330
2
100
AcDbEntity
  8
9
100
AcDbLine
 10
294.3138884138361
 20
43.88120391636516
 30
-0.0000002220406007
 11
295.3745485856156
 21
44.94186408814539
 31
-0.0000002220406007
  0
LWPOLYLINE
  5
1E0
330
2
100
AcDbEntity
  8
9
100
AcDbPolyline
 90
        7
 70
     0
 43
0.0
 38
-0.0000001837850525
 10
288.9272931161324
 20
104.6901635090289
 10
287.8666329443526
 20
103.6295033372491
 10
283.1202698935205
 20
103.6295033372491
 10
282.0596097217407
 20
102.5688431654691
 10
280.998949549961
 20
103.6295033372491
 10
276.2831222016852
 20
103.6295033372491
 10
275.2224620299055
 20
104.6901635090289
  0
INSERT
  5
1E1
330
2
100
AcDbEntity
  8
KR-TEXTOS
  6
CONTINUOUS
100
AcDbBlockReference
  2
SIM10
 10
286.8796954540248
 20
107.555368346442
 30
-0.0000002040284003
 41
2.0
 42
2.0
 43
2.0
 50
90.0
  0
INSERT
  5
1E2
330
2
100
AcDbEntity
  8
KR-TEXTOS
  6
CONTINUOUS
100
AcDbBlockReference
  2
SIM10
 10
282.0596097217407
 20
107.555368346442
 30
-0.0000002040284003
 41
2.0
 42
2.0
 43
2.0
 50
90.0
  0
TEXT
  5
1E3
330
2
100
AcDbEntity
  8
KR-TEXTOS
  6
CONTINUOUS
100
AcDbText
 10
283.0596097217408
 20
94.33980515548626
 30
-0.0000002040284003
 40
2.0
  1
A52d
 50
90.0
  7
DEYP
 72
     1
 11
282.0596097217407
 21
97.86361467929578
 31
-0.0000002040284003
100
AcDbText
 73
     2
  0
INSERT
  5
1E4
330
2
100
AcDbEntity
  8
KR-TEXTOS
  6
CONTINUOUS
100
AcDbBlockReference
  2
SIM10
 10
277.2395239894563
 20
107.555368346442
 30
-0.0000002040284003
 41
2.0
 42
2.0
 43
2.0
 50
90.0
  0
TEXT
  5
1E5
330
2
100
AcDbEntity
  8
KR-TEXTOS
  6
CONTINUOUS
100
AcDbText
 10
316.8138884138357
 20
111.1085369789827
 30
-0.0000001923813101
 40
2.0
  1
2.4-  2%%C  16  -2.2
  7
DEYP
 72
     1
 11
333.8138884138357
 21
112.1085369789827
 31
-0.0000001923813101
100
AcDbText
 73
     2
  0
LINE
  5
1E6
330
2
100
AcDbEntity
  8
0
 62
     7
100
AcDbLine
 10
308.5248589842021
 20
94.76078674651217
 30
-0.0000001280805562
 11
353.0426526599697
 21
94.76078674651217
 31
-0.0000001280805562
  0
TEXT
  5
1E7
330
2
100
AcDbEntity
  8
KR-TEXTOS
  6
CONTINUOUS
100
AcDbText
 10
312.848885991538
 20
95.71493408537845
 30
-0.0000001280805562
 40
2.0
  1
CONTRAFLECHA = 20 mm
  7
DEYP
100
AcDbText
  0
CIRCLE
  5
1E8
330
2
100
AcDbEntity
  8
0
  6
RAYITAS
 62
     9
100
AcDbCircle
 10
333.8080846847426
 20
65.53581056477629
 30
-0.0000001399047852
 40
6.054719480391213
  0
CIRCLE
  5
1E9
330
2
100
AcDbEntity
  8
0
  6
RAYITAS
 62
     9
100
AcDbCircle
 10
293.8138884138357
 20
144.0350202749096
 30
-0.0000001821687349
 40
4.54103961029341
  0
TEXT
  5
1EA
330
2
100
AcDbEntity
  8
KR-TEXTOS
  6
CONTINUOUS
100
AcDbText
 10
283.2482132316839
 20
132.795131339423
 30
-0.0000001821687349
 40
2.0
  1
2.0
  7
DEYP
 72
     1
 11
285.6291656126363
 21
133.795131339423
 31
-0.0000001821687349
100
AcDbText
 73
     2
  0
INSERT
  5
1EB
330
2
100
AcDbEntity
  8
KR-TEXTOS
  6
CONTINUOUS
100
AcDbBlockReference
  2
SIM10
 10
276.3185492708776
 20
137.9409324245386
 30
-0.0000001821687349
 41
2.0
 42
2.0
 43
2.0
  0
LWPOLYLINE
  5
1EC
330
2
100
AcDbEntity
  8
9
100
AcDbPolyline
 90
        7
 70
     0
 43
0.0
 38
-0.0000001837850525
 10
288.9272931161324
 20
120.9363787417657
 10
287.8666329443526
 20
121.9970389135455
 10
283.1202698935205
 20
121.9970389135455
 10
282.0596097217407
 20
123.0576990853253
 10
280.998949549961
 20
121.9970389135455
 10
276.2831222016852
 20
121.9970389135455
 10
275.2224620299055
 20
120.9363787417657
  0
TEXT
  5
1ED
330
2
100
AcDbEntity
  8
KR-TEXTOS
  6
CONTINUOUS
100
AcDbText
 10
277.8995904042953
 20
136.9409324245386
 30
-0.0000001821687349
 40
2.0
  1
25.1400
  7
DEYP
 72
     1
 11
284.0900665947715
 21
137.9409324245386
 31
-0.0000001821687349
100
AcDbText
 73
     2
  0
LINE
  5
1EE
330
2
100
AcDbEntity
  8
9
100
AcDbLine
 10
294.3138884138361
 20
152.886776787798
 30
-0.0000001793285036
 11
295.3745485856156
 21
153.9474369595779
 31
-0.0000001793285036
  0
LINE
  5
1EF
330
2
100
AcDbEntity
  8
7
100
AcDbLine
 10
294.3138884138356
 20
151.3867767877979
 30
-0.0000001793285036
 11
294.3138884138356
 21
154.3867767877979
 31
-0.0000001793285036
  0
LINE
  5
1F0
330
2
100
AcDbEntity
  8
7
100
AcDbLine
 10
294.3138884138356
 20
151.3867767877979
 30
-0.0000001793285036
 11
294.3138884138356
 21
154.3867767877979
 31
-0.0000001793285036
  0
LINE
  5
1F1
330
2
100
AcDbEntity
  8
0
100
AcDbLine
 10
294.3138884138356
 20
152.8867767877975
 30
-0.0000001793285036
 11
295.3745485856156
 21
151.8261166160175
 31
-0.0000001793285036
  0
TEXT
  5
1F2
330
2
100
AcDbEntity
  8
KR-TEXTOS
  6
CONTINUOUS
100
AcDbText
 10
332.1769955923123
 20
120.9250501571908
 30
-0.0000001794117478
 40
2.0
  1
HEB 180 A52
 50
90.0
  7
DEYP
 72
     1
 11
331.1769955923123
 21
131.5440977762384
 31
-0.0000001794117478
100
AcDbText
 73
     2
  0
LINE
  5
1F3
330
2
100
AcDbEntity
  8
0
100
AcDbLine
 10
273.8138884138361
 20
135.8680337834919
 30
-0.000000070133344
 11
274.8745485856161
 21
134.8073736117121
 31
-0.000000070133344
  0
LINE
  5
1F4
330
2
100
AcDbEntity
  8
9
100
AcDbLine
 10
273.8138884138365
 20
135.8680337834923
 30
-0.000000070133344
 11
274.8745485856161
 21
136.9286939552725
 31
-0.000000070133344
  0
LINE
  5
1F5
330
2
100
AcDbEntity
  8
9
100
AcDbLine
 10
229.3066909699964
 20
55.03295075278106
 30
-0.0000000548026545
 11
293.3138884138356
 21
55.03295075278106
 31
-0.000000070133344
  0
LINE
  5
1F6
330
2
100
AcDbEntity
  8
9
100
AcDbLine
 10
273.8138884138356
 20
135.8680337834923
 30
-0.000000070133344
 11
272.7532282420561
 21
136.9286939552725
 31
-0.000000070133344
  0
LINE
  5
1F7
330
2
100
AcDbEntity
  8
0
100
AcDbLine
 10
273.8138884138361
 20
135.8680337834919
 30
-0.000000070133344
 11
272.7532282420566
 21
134.8073736117121
 31
-0.000000070133344
  0
LINE
  5
1F8
330
2
100
AcDbEntity
  8
7
100
AcDbLine
 10
273.8138884138361
 20
134.3680337834923
 30
-0.000000070133344
 11
273.8138884138361
 21
137.3680337834923
 31
-0.000000070133344
  0
LINE
  5
1F9
330
2
100
AcDbEntity
  8
7
100
AcDbLine
 10
273.8138884138361
 20
134.3680337834923
 30
-0.000000070133344
 11
273.8138884138361
 21
137.3680337834923
 31
-0.000000070133344
  0
LINE
  5
1FA
330
2
100
AcDbEntity
  8
0
100
AcDbLine
 10
293.3138884138356
 20
55.0329507527806
 30
-0.000000070133344
 11
292.2532282420559
 21
53.97229058100061
 31
-0.000000070133344
  0
LINE
  5
1FB
330
2
100
AcDbEntity
  8
7
100
AcDbLine
 10
293.3138884138356
 20
53.53295075278106
 30
-0.000000070133344
 11
293.3138884138356
 21
56.53295075278106
 31
-0.000000070133344
  0
LINE
  5
1FC
330
2
100
AcDbEntity
  8
9
100
AcDbLine
 10
293.3138884138352
 20
55.03295075278106
 30
-0.000000070133344
 11
292.2532282420556
 21
56.09361092456106
 31
-0.000000070133344
  0
LINE
  5
1FD
330
2
100
AcDbEntity
  8
9
100
AcDbLine
 10
294.3138884138361
 20
82.00395548859502
 30
-0.000000070133344
 11
295.3745485856156
 21
83.06461566037524
 31
-0.000000070133344
  0
LINE
  5
1FE
330
2
100
AcDbEntity
  8
7
100
AcDbLine
 10
294.3138884138356
 20
80.50395548859501
 30
-0.000000070133344
 11
294.3138884138356
 21
83.503955488595
 31
-0.000000070133344
  0
LINE
  5
1FF
330
2
100
AcDbEntity
  8
7
100
AcDbLine
 10
294.3138884138356
 20
80.50395548859501
 30
-0.000000070133344
 11
294.3138884138356
 21
83.503955488595
 31
-0.000000070133344
  0
LINE
  5
200
330
2
100
AcDbEntity
  8
0
100
AcDbLine
 10
294.3138884138356
 20
82.00395548859455
 30
-0.000000070133344
 11
295.3745485856156
 21
80.94329531681479
 31
-0.000000070133344
  0
CIRCLE
  5
201
330
2
100
AcDbEntity
  8
0
  6
RAYITAS
 62
     9
100
AcDbCircle
 10
293.8080846847424
 20
65.53581056477629
 30
0.0
 40
6.054719480391213
  0
LINE
  5
202
330
2
100
AcDbEntity
  8
0
100
AcDbLine
 10
308.8138884138354
 20
120.0114541378081
 30
-0.0000000499854384
 11
309.8745485856154
 21
118.9507939660281
 31
-0.0000000499854384
  0
LINE
  5
203
330
2
100
AcDbEntity
  8
7
100
AcDbLine
 10
308.8138884138354
 20
118.5114541378086
 30
-0.0000000499854384
 11
308.8138884138354
 21
121.5114541378086
 31
-0.0000000499854384
  0
LINE
  5
204
330
2
100
AcDbEntity
  8
7
100
AcDbLine
 10
308.8138884138354
 20
118.5114541378086
 30
-0.0000000499854384
 11
308.8138884138354
 21
121.5114541378086
 31
-0.0000000499854384
  0
LINE
  5
205
330
2
100
AcDbEntity
  8
9
100
AcDbLine
 10
308.8138884138359
 20
120.0114541378086
 30
-0.0000000499854384
 11
309.8745485856154
 21
121.0721143095886
 31
-0.0000000499854384
  0
LINE
  5
206
330
2
100
AcDbEntity
  8
0
100
AcDbLine
 10
293.3138884138356
 20
150.9763296246119
 30
-0.0000000058325901
 11
292.2532282420559
 21
149.9156694528321
 31
-0.0000000058325901
  0
LINE
  5
207
330
2
100
AcDbEntity
  8
9
100
AcDbLine
 10
293.3138884138352
 20
150.9763296246124
 30
-0.0000000058325901
 11
292.2532282420556
 21
152.0369897963926
 31
-0.0000000058325901
  0
LINE
  5
208
330
2
100
AcDbEntity
  8
7
100
AcDbLine
 10
293.3138884138356
 20
149.4763296246123
 30
-0.0000000058325901
 11
293.3138884138356
 21
152.4763296246123
 31
-0.0000000058325901
  0
LINE
  5
209
330
2
100
AcDbEntity
  8
7
100
AcDbLine
 10
293.3138884138356
 20
134.3680337834923
 30
-0.0000000058325901
 11
293.3138884138356
 21
137.3680337834923
 31
-0.0000000058325901
  0
LINE
  5
20A
330
2
100
AcDbEntity
  8
9
100
AcDbLine
 10
293.3138884138352
 20
135.8680337834923
 30
-0.0000000058325901
 11
292.2532282420556
 21
136.9286939552725
 31
-0.0000000058325901
  0
LINE
  5
20B
330
2
100
AcDbEntity
  8
0
100
AcDbLine
 10
293.3138884138356
 20
135.8680337834919
 30
-0.0000000058325901
 11
292.2532282420559
 21
134.8073736117121
 31
-0.0000000058325901
  0
LINE
  5
20C
330
2
100
AcDbEntity
  8
0
100
AcDbLine
 10
492.5676842032705
 20
-0.0000000000186446
 30
-0.00000011549064
 11
497.5676842032705
 21
-0.0000000000186446
 31
-0.00000011549064
  0
LWPOLYLINE
  5
20D
330
2
100
AcDbEntity
  8
0
100
AcDbPolyline
 90
        2
 70
     1
 43
0.5
 38
-0.0000001574507535
 10
408.6186078942266
 20
51.01501723236856
 42
1.0
 10
409.1186078942266
 20
51.01501723236856
 42
1.0
  0
LWPOLYLINE
  5
20E
330
2
100
AcDbEntity
  8
0
100
AcDbPolyline
 90
        2
 70
     1
 43
0.5
 38
-0.0000001574507535
 10
408.6186078942266
 20
163.7637608099401
 42
1.0
 10
409.1186078942266
 20
163.7637608099401
 42
1.0
  0
TEXT
  5
20F
330
2
100
AcDbEntity
  8
KR-TEXTOS
  6
CONTINUOUS
100
AcDbText
 10
503.1882466222619
 20
109.4999999970784
 30
-0.0000001923813101
 40
2.5
  1
@
  7
DEYP
 72
     1
 11
504.7953894794047
 21
110.7499999970784
 31
-0.0000001923813101
100
AcDbText
 73
     2
  0
TEXT
  5
210
330
2
100
AcDbEntity
  8
KR-TEXTOS
  6
CONTINUOUS
100
AcDbText
 10
500.7385574281013
 20
109.7499999970784
 30
-0.0000001923813101
 40
2.0
  1
2
  7
DEYP
 72
     1
 11
501.6909383804822
 21
110.7499999970784
 31
-0.0000001923813101
100
AcDbText
 73
     2
  0
LINE
  5
211
330
2
100
AcDbEntity
  8
9
100
AcDbLine
 10
165.4227382329309
 20
228.4413093438695
 30
0.0000002253348531
 11
293.3138884138358
 21
228.4413093438695
 31
0.0000001763361448
  0
LINE
  5
212
330
2
100
AcDbEntity
  8
9
100
AcDbLine
 10
155.1193876869069
 20
213.3330135027492
 30
0.0000002296597773
 11
293.3138884138358
 21
213.3330135027492
 31
0.0000001763361448
  0
LINE
  5
213
330
2
100
AcDbEntity
  8
0
 62
     7
100
AcDbLine
 10
183.944835738589
 20
377.5057529359894
 30
-0.0000001923813101
 11
268.5846766165295
 21
377.5057529359894
 31
-0.0000001923813101
  0
TEXT
  5
214
330
2
100
AcDbEntity
  8
KR-GRUESA
  6
CONTINUOUS
 62
     5
100
AcDbText
 10
183.6545704985256
 20
378.7948879119846
 30
-0.0000001923813101
 40
3.5
  1
PÓRTICOS 3,4,5 . BLOQUE SUR
  7
ROMANS
 72
     1
 11
226.237903831859
 21
378.7948879119846
 31
-0.0000001923813101
100
AcDbText
  0
TEXT
  5
216
330
2
100
AcDbEntity
  8
KR-TEXTOS
100
AcDbText
 10
155.6172666475907
 20
366.1007442800666
 30
-0.0000000739923775
 40
2.0
  1
VER RESTO DEFINICIÓN DE PERFILES Y ARMADURAS EN PLANOS DE PLANTA Y DETALLES
  7
ROMANS
 72
     1
 11
223.9982190285431
 21
367.1007442800667
 31
-0.0000000739923775
100
AcDbText
 73
     2
  0
LINE
  5
217
330
2
100
AcDbEntity
  8
9
100
AcDbLine
 10
293.8546878626791
 20
332.0660708518355
 30
-0.0000001685024332
 11
189.9960531129004
 21
315.9773861996973
 31
-0.0000001695788186
  0
LINE
  5
218
330
2
100
AcDbEntity
  8
0
  6
TRAZO_Y_PUNTO
100
AcDbLine
 10
293.8138884138357
 20
329.0239686139952
 30
-0.0000001695788186
 11
55.12737278750091
 21
292.0491702269225
 31
-0.0000001695788186
  0
TEXT
  5
219
330
2
100
AcDbEntity
  8
KR-TEXTOS
  6
CONTINUOUS
100
AcDbText
 10
-3.875933611953102
 20
309.3573494029572
 30
-0.0000001695788186
 40
2.0
  1
HEA 500 A52d CONT.
 50
345.5152664396783
  7
DEYP
 72
     1
 11
12.51109374848874
 21
306.1568631795987
 31
-0.0000001695788186
100
AcDbText
 73
     2
  0
TEXT
  5
21A
330
2
100
AcDbEntity
  8
KR-TEXTOS
  6
CONTINUOUS
100
AcDbText
 10
14.39678104231097
 20
279.7602899703008
 30
-0.0000001948148505
 40
2.0
  1
%%c219,1.12,5 A52
 50
305.5648081913505
  7
DEYP
100
AcDbText
  0
LINE
  5
21B
330
2
100
AcDbEntity
  8
0
  6
TRAZO_Y_PUNTO
100
AcDbLine
 10
-7.560726054966835
 20
308.2435957612249
 30
-0.0000001695788186
 11
55.00000744442354
 21
221.4999999941665
 31
-0.0000002066365992
  0
LINE
  5
21C
330
2
100
AcDbEntity
  8
0
  6
TRAZO_Y_PUNTO
100
AcDbLine
 10
55.12737278750091
 20
292.0491702269225
 30
-0.0000001695788186
 11
-34.37468747412549
 21
315.170535794507
 31
-0.0000001695788186
  0
LINE
  5
21D
330
2
100
AcDbEntity
  8
0
100
AcDbLine
 10
-18.33403506153627
 20
221.4999999941665
 30
0.0
 11
-36.73038804239786
 21
196.4239112834998
 31
-0.0000002168491745
  0
LINE
  5
21E
330
2
100
AcDbEntity
  8
0
 62
     7
100
AcDbLine
 10
-39.49482113819135
 20
315.170535794507
 30
-0.0000001280805562
 11
-69.38727701276661
 21
315.170535794507
 31
-0.0000001280805562
  0
TEXT
  5
21F
330
2
100
AcDbEntity
  8
KR-TEXTOS
  6
CONTINUOUS
100
AcDbText
 10
-68.68309072623151
 20
316.1246831333733
 30
-0.0000001280805562
 40
2.0
  1
CONTRAFLECHA
  7
DEYP
100
AcDbText
  0
TEXT
  5
220
330
2
100
AcDbEntity
  8
KR-TEXTOS
  6
CONTINUOUS
100
AcDbText
 10
-68.68309072623174
 20
312.2163884556407
 30
-0.0000001280805562
 40
2.0
  1
= 35 mm
  7
DEYP
100
AcDbText
  0
TEXT
  5
221
330
2
100
AcDbEntity
  8
KR-TEXTOS
  6
CONTINUOUS
100
AcDbText
 10
-59.03404642114576
 20
209.9828709365647
 30
-0.0000001238093948
 40
2.0
  1
SEGUN VANOS
  7
DEYP
 72
     1
 11
-48.31976070686005
 21
210.9828709365647
 31
-0.0000001238093948
100
AcDbText
 73
     2
  0
LINE
  5
222
330
2
100
AcDbEntity
  8
0
 62
     7
100
AcDbLine
 10
-86.63608564795458
 20
214.6195788390355
 30
-0.0000002168491745
 11
-36.73038804239786
 21
214.6195788390355
 31
-0.0000002168491745
  0
LINE
  5
223
330
2
100
AcDbEntity
  8
0
 62
     7
100
AcDbLine
 10
-86.63608564795458
 20
196.4239112834998
 30
-0.0000002168491745
 11
-36.73038804239786
 21
196.4239112834998
 31
-0.0000002168491745
  0
TEXT
  5
224
330
2
100
AcDbEntity
  8
KR-TEXTOS
  6
CONTINUOUS
100
AcDbText
 10
-86.97531270375566
 20
197.3780586223661
 30
-0.0000002168491745
 40
2.0
  1
PORT. 3: HEB 600 A52
  7
DEYP
100
AcDbText
  0
TEXT
  5
225
330
2
100
AcDbEntity
  8
KR-TEXTOS
  6
CONTINUOUS
100
AcDbText
 10
-86.97531270375566
 20
193.4697639446335
 30
-0.0000002168491745
 40
2.0
  1
PORT. 4 Y 5: HEA 600 A52
  7
DEYP
100
AcDbText
  0
TEXT
  5
226
330
2
100
AcDbEntity
  8
KR-TEXTOS
  6
CONTINUOUS
100
AcDbText
 10
-86.97531270375566
 20
204.9481653512843
 30
-0.0000002168491745
 40
2.0
  1
+ UPN 120 A52
  7
DEYP
100
AcDbText
  0
TEXT
  5
227
330
2
100
AcDbEntity
  8
KR-TEXTOS
  6
CONTINUOUS
100
AcDbText
 10
-86.97531270375566
 20
208.3067984257268
 30
-0.0000002168491745
 40
2.0
  1
ó HEA 500 A52
  7
DEYP
100
AcDbText
  0
TEXT
  5
228
330
2
100
AcDbEntity
  8
KR-TEXTOS
  6
CONTINUOUS
100
AcDbText
 10
-86.97531270375566
 20
215.5737261779017
 30
-0.0000002168491745
 40
2.0
  1
V.B. MIX. CONT.
  7
DEYP
100
AcDbText
  0
TEXT
  5
229
330
2
100
AcDbEntity
  8
KR-TEXTOS
  6
CONTINUOUS
100
AcDbText
 10
-86.97531270375566
 20
211.6654315001692
 30
-0.0000002168491745
 40
2.0
  1
IPE 500 A52
  7
DEYP
100
AcDbText
  0
LWPOLYLINE
  5
22A
330
2
100
AcDbEntity
  8
9
100
AcDbPolyline
 90
        7
 70
     0
 43
0.0
 38
-0.0000001238093948
 10
-61.27615933023003
 20
208.3235514996695
 10
-60.67953798360372
 20
208.9201728462953
 10
-60.67953798360372
 20
210.3862495899384
 10
-60.08291663697765
 20
210.9828709365647
 10
-60.67953798360372
 20
211.579492283191
 10
-60.67953798360372
 20
213.0455690268331
 10
-61.27615933023003
 20
213.6421903734594
  0
LINE
  5
22B
330
2
100
AcDbEntity
  8
0
100
AcDbLine
 10
-32.38155889652216
 20
219.0653516335373
 30
-0.0000001768708613
 11
-36.73038804239786
 21
214.6195788390355
 31
-0.0000002168491745
  0
TEXT
  5
22C
330
2
100
AcDbEntity
  8
KR-TEXTOS
  6
CONTINUOUS
100
AcDbText
 10
-51.35836333204202
 20
231.3426528770134
 30
-0.0000002168491745
 40
2.0
  1
V. TRANSV. MIX. CONT.
  7
DEYP
100
AcDbText
  0
LINE
  5
22D
330
2
100
AcDbEntity
  8
0
 62
     7
100
AcDbLine
 10
-51.01913627624094
 20
230.3885055381472
 30
-0.0000002168491745
 11
-15.50332114371099
 21
230.3885055381472
 31
-0.0000002168491745
  0
TEXT
  5
22E
330
2
100
AcDbEntity
  8
KR-TEXTOS
  6
CONTINUOUS
100
AcDbText
 10
-51.35836333204202
 20
227.4343581992809
 30
-0.0000002168491745
 40
2.0
  1
HEA 600 A52d
  7
DEYP
100
AcDbText
  0
LINE
  5
22F
330
2
100
AcDbEntity
  8
0
100
AcDbLine
 10
-3.939497193617853
 20
223.758628472631
 30
-0.0000002092316826
 11
-15.50332114371099
 21
230.3885055381472
 31
-0.0000002168491745
  0
CIRCLE
  5
230
330
2
100
AcDbEntity
  8
0
  6
RAYITAS
 62
     9
100
AcDbCircle
 10
0.0
 20
221.4999999941665
 30
-0.0000002066365992
 40
4.54103961029341
  0
LINE
  5
231
330
2
100
AcDbEntity
  8
0
100
AcDbLine
 10
-11.75427869209511
 20
220.9999999941664
 30
-0.0000002066365992
 11
-10.69361852031511
 21
219.9393398223867
 31
-0.0000002066365992
  0
LINE
  5
232
330
2
100
AcDbEntity
  8
9
100
AcDbLine
 10
-11.75427869209556
 20
220.999999994166
 30
-0.0000002066365992
 11
-12.81493886387556
 21
219.9393398223865
 31
-0.0000002066365992
  0
LINE
  5
233
330
2
100
AcDbEntity
  8
7
100
AcDbLine
 10
-10.25427869209556
 20
220.9999999941664
 30
-0.0000002066365992
 11
-13.25427869209556
 21
220.9999999941664
 31
-0.0000002066365992
  0
LINE
  5
234
330
2
100
AcDbEntity
  8
7
100
AcDbLine
 10
-10.25427869209556
 20
220.9999999941664
 30
-0.0000002066365992
 11
-13.25427869209556
 21
220.9999999941664
 31
-0.0000002066365992
  0
CIRCLE
  5
235
330
2
100
AcDbEntity
  8
0
  6
RAYITAS
 62
     9
100
AcDbCircle
 10
-30.0
 20
221.4999999941665
 30
-0.0000001549774494
 40
3.405779707720057
  0
LINE
  5
236
330
2
100
AcDbEntity
  8
9
100
AcDbLine
 10
-4.556849800414966
 20
310.5660819297313
 30
-0.0000001695788186
 11
-33.62432137638006
 21
318.0751787535218
 31
-0.0000001695788186
  0
LWPOLYLINE
  5
237
330
2
100
AcDbEntity
  8
0
 62
     7
100
AcDbPolyline
 90
        2
 70
     1
 43
0.7199999999999882
 38
-0.0000001695788186
 10
-34.73468747412516
 20
315.1705357945072
 42
-1.0
 10
-34.01468747412582
 20
315.1705357945072
 42
-1.0
  0
LINE
  5
238
330
2
100
AcDbEntity
  8
0
100
AcDbLine
 10
-33.62432137638075
 20
318.0751787535212
 30
-0.0000001695788186
 11
-32.84959314585785
 21
316.7907348392798
 31
-0.0000001695788186
  0
LINE
  5
239
330
2
100
AcDbEntity
  8
9
100
AcDbLine
 10
-33.62432137638006
 20
318.0751787535214
 30
-0.0000001695788186
 11
-32.33987746213915
 21
318.8499069840447
 31
-0.0000001695788186
  0
TEXT
  5
23A
330
2
100
AcDbEntity
  8
KR-TEXTOS
  6
CONTINUOUS
100
AcDbText
 10
-36.47638875586017
 20
317.0144353284399
 30
-0.0000001280805562
 40
2.0
  1
A
  7
DEYP
100
AcDbText
  0
TEXT
  5
23B
330
2
100
AcDbEntity
  8
KR-TEXTOS
  6
CONTINUOUS
100
AcDbText
 10
-26.57505208222687
 20
222.8773521391449
 30
0.0
 40
2.0
  1
V. MIX. CONT.
  7
DEYP
100
AcDbText
  0
LWPOLYLINE
  5
23C
330
2
100
AcDbEntity
  8
0
 62
     5
100
AcDbPolyline
 90
        2
 70
     0
 43
1.0
 10
0.0
 20
221.4999999941665
 10
-30.0
 20
221.4999999941665
  0
INSERT
  5
23D
330
2
100
AcDbEntity
  8
KR-TEXTOS
  6
CONTINUOUS
100
AcDbBlockReference
  2
SIM10
 10
3.661622993936816
 20
215.4059121437956
 30
0.0
 41
2.0
 42
2.0
 43
2.0
  0
TEXT
  5
23E
330
2
100
AcDbEntity
  8
KR-TEXTOS
  6
CONTINUOUS
100
AcDbText
 10
7.830062871535487
 20
210.2601110586799
 30
0.0
 40
2.0
  1
2.0
  7
DEYP
 72
     1
 11
10.21101525248786
 21
211.2601110586799
 31
0.0
100
AcDbText
 73
     2
  0
TEXT
  5
23F
330
2
100
AcDbEntity
  8
KR-TEXTOS
  6
CONTINUOUS
100
AcDbText
 10
5.242664127354558
 20
214.4059121437956
 30
0.0
 40
2.0
  1
25.1400
  7
DEYP
 72
     1
 11
11.43314031783074
 21
215.4059121437956
 31
0.0
100
AcDbText
 73
     2
  0
LINE
  5
240
330
2
100
AcDbEntity
  8
0
  6
TRAZO_Y_PUNTO
100
AcDbLine
 10
112.5253021857476
 20
300.9406522688239
 30
-0.0000001695564175
 11
55.00000744442354
 21
221.4999999941665
 31
-0.0000002066365992
  0
LINE
  5
241
330
2
100
AcDbEntity
  8
9
100
AcDbLine
 10
155.3399060666931
 20
310.6088212996494
 30
-0.0000001695788186
 11
55.27911292289991
 21
295.1084582262101
 31
-0.0000001695788186
  0
TEXT
  5
242
330
2
100
AcDbEntity
  8
KR-TEXTOS
  6
CONTINUOUS
100
AcDbText
 10
76.8650382473927
 20
253.8897156789723
 30
-0.0000001948036499
 40
2.0
  1
%%c219,1.16 A52
 50
53.84718444803812
  7
DEYP
100
AcDbText
  0
LINE
  5
243
330
2
100
AcDbEntity
  8
9
100
AcDbLine
 10
55.27911292289991
 20
295.1084582262101
 30
-0.0000001695788186
 11
29.84791286530549
 21
301.6781849077545
 31
-0.0000001695788186
  0
LINE
  5
244
330
2
100
AcDbEntity
  8
0
100
AcDbLine
 10
55.279112922899
 20
295.1084582262101
 30
-0.0000001695788186
 11
56.50690477317903
 21
294.2467580623556
 31
-0.0000001695788186
  0
LINE
  5
245
330
2
100
AcDbEntity
  8
0
100
AcDbLine
 10
55.27911292289991
 20
295.1084582262101
 30
-0.0000001695788186
 11
53.9792082674769
 21
294.3599611408381
 31
-0.0000001695788186
  0
LWPOLYLINE
  5
246
330
2
100
AcDbEntity
  8
0
 62
     7
100
AcDbPolyline
 90
        2
 70
     1
 43
0.7199999999999882
 38
-0.0000001695788186
 10
54.76737278750125
 20
292.0491702269225
 42
-1.0
 10
55.48737278750059
 20
292.0491702269225
 42
-1.0
  0
LINE
  5
247
330
2
100
AcDbEntity
  8
9
100
AcDbLine
 10
55.27911292289946
 20
295.1084582262108
 30
-0.0000001695788186
 11
56.14081308675349
 21
296.3362500764908
 31
-0.0000001695788186
  0
LINE
  5
248
330
2
100
AcDbEntity
  8
9
100
AcDbLine
 10
55.27911292289946
 20
295.1084582262108
 30
-0.0000001695788186
 11
54.53061583752788
 21
296.4083628816338
 31
-0.0000001695788186
  0
TEXT
  5
249
330
2
100
AcDbEntity
  8
KR-TEXTOS
  6
CONTINUOUS
100
AcDbText
 10
54.27008759629143
 20
297.5335336156099
 30
-0.0000001280805562
 40
2.0
  1
A
  7
DEYP
100
AcDbText
  0
TEXT
  5
24A
330
2
100
AcDbEntity
  8
KR-TEXTOS
  6
CONTINUOUS
100
AcDbText
 10
51.43990901702863
 20
287.9897773379984
 30
-0.0000001280805562
 40
2.0
  1
CONT.
  7
DEYP
100
AcDbText
  0
TEXT
  5
24B
330
2
100
AcDbEntity
  8
KR-TEXTOS
  6
CONTINUOUS
100
AcDbText
 10
133.8275084990969
 20
300.6295848930513
 30
-0.0000001280805562
 40
2.0
  1
A
  7
DEYP
100
AcDbText
  0
LWPOLYLINE
  5
24C
330
2
100
AcDbEntity
  8
0
 62
     7
100
AcDbPolyline
 90
        2
 70
     1
 43
0.7199999999999882
 38
-0.0000001695788186
 10
134.2925490407506
 20
304.3683720508898
 42
-1.0
 10
135.0125490407499
 20
304.3683720508898
 42
-1.0
  0
TEXT
  5
24D
330
2
100
AcDbEntity
  8
KR-TEXTOS
  6
CONTINUOUS
100
AcDbText
 10
156.866329927716
 20
309.8333514510724
 30
-0.0000001695788186
 40
2.0
  1
IPE 500 A52d CONT.
 50
8.805666862702148
  7
DEYP
 72
     1
 11
172.665831599601
 21
313.2927710056794
 31
-0.0000001695788186
100
AcDbText
 73
     2
  0
LINE
  5
24E
330
2
100
AcDbEntity
  8
0
100
AcDbLine
 10
106.3217870513503
 20
225.1708510425967
 30
-0.0000000026302925
 11
123.7872707863675
 21
245.2033757975248
 31
-0.0000000102125752
  0
CIRCLE
  5
24F
330
2
100
AcDbEntity
  8
0
  6
RAYITAS
 62
     9
100
AcDbCircle
 10
103.6486066753732
 20
221.4999999941687
 30
0.0
 40
4.54103961029341
  0
TEXT
  5
250
330
2
100
AcDbEntity
  8
KR-TEXTOS
  6
CONTINUOUS
100
AcDbText
 10
143.0133274441172
 20
217.1530992350337
 30
0.0
 40
2.0
  1
600.50
  7
DEYP
 72
     1
 11
148.2990417298315
 21
218.1530992350337
 31
0.0
100
AcDbText
 73
     2
  0
TEXT
  5
251
330
2
100
AcDbEntity
  8
KR-TEXTOS
  6
CONTINUOUS
100
AcDbText
 10
143.0133274441172
 20
207.5129277704652
 30
0.0
 40
2.0
  1
600.50
  7
DEYP
 72
     1
 11
148.2990417298315
 21
208.5129277704652
 31
0.0
100
AcDbText
 73
     2
  0
TEXT
  5
252
330
2
100
AcDbEntity
  8
KR-TEXTOS
  6
CONTINUOUS
100
AcDbText
 10
142.0008727691289
 20
212.3330135027492
 30
0.0
 40
2.0
  1
20.1400
  7
DEYP
 72
     1
 11
148.1913489596052
 21
213.3330135027492
 31
0.0
100
AcDbText
 73
     2
  0
TEXT
  5
253
330
2
100
AcDbEntity
  8
KR-TEXTOS
  6
CONTINUOUS
100
AcDbText
 10
130.049801349775
 20
227.4413093438695
 30
0.0
 40
2.0
  1
V. MIX. SIN INT. A52d
  7
DEYP
 72
     1
 11
146.9069442069178
 21
228.4413093438695
 31
0.0
100
AcDbText
 73
     2
  0
TEXT
  5
254
330
2
100
AcDbEntity
  8
KR-TEXTOS
  6
CONTINUOUS
100
AcDbText
 10
114.8117061116797
 20
203.4774924756222
 30
0.0
 40
2.0
  1
CONTRAFLECHA DE EJECUCION = L/1000
  7
DEYP
 72
     1
 11
146.9069442069178
 21
204.4774924756223
 31
0.0
100
AcDbText
 73
     2
  0
TEXT
  5
255
330
2
100
AcDbEntity
  8
KR-TEXTOS
  6
CONTINUOUS
100
AcDbText
 10
124.975646308032
 20
246.157523136391
 30
-0.0000000102125752
 40
2.0
  1
PERFIL DE FORJADO MIXT. CONT.
  7
DEYP
100
AcDbText
  0
LINE
  5
256
330
2
100
AcDbEntity
  8
0
 62
     7
100
AcDbLine
 10
175.6085631710552
 20
245.2033757975248
 30
-0.0000000102125752
 11
123.7872707863675
 21
245.2033757975248
 31
-0.0000000102125752
  0
INSERT
  5
257
330
2
100
AcDbEntity
  8
KR-TEXTOS
  6
CONTINUOUS
100
AcDbBlockReference
  2
SIM10
 10
141.6072573803221
 20
208.5129277704652
 30
0.0
 41
2.0
 42
2.0
 43
2.0
  0
INSERT
  5
258
330
2
100
AcDbEntity
  8
KR-TEXTOS
  6
CONTINUOUS
100
AcDbBlockReference
  2
SIM10
 10
140.6866899724461
 20
213.3330135027492
 30
0.0
 41
2.0
 42
2.0
 43
2.0
  0
INSERT
  5
259
330
2
100
AcDbEntity
  8
KR-TEXTOS
  6
CONTINUOUS
100
AcDbBlockReference
  2
SIM10
 10
141.6072573803221
 20
218.1530992350337
 30
0.0
 41
2.0
 42
2.0
 43
2.0
  0
TEXT
  5
25A
330
2
100
AcDbEntity
  8
KR-TEXTOS
  6
CONTINUOUS
100
AcDbText
 10
124.975646308032
 20
242.2492284586585
 30
-0.0000000102125752
 40
2.0
  1
IPE 500 A52
  7
DEYP
100
AcDbText
  0
LINE
  5
25B
330
2
100
AcDbEntity
  8
9
100
AcDbLine
 10
0.5
 20
228.4413093438695
 30
0.0000002464694888
 11
128.3911501809047
 21
228.4413093438695
 31
0.0000002342044772
  0
LINE
  5
25C
330
2
100
AcDbEntity
  8
9
100
AcDbLine
 10
0.5
 20
213.3330135027492
 30
0.0000002464694888
 11
138.4755913534013
 21
213.3330135027492
 31
0.0000002331218926
  0
LINE
  5
25D
330
2
100
AcDbEntity
  8
9
100
AcDbLine
 10
19.99999999999977
 20
213.3330135027497
 30
0.0000001821687349
 11
18.93933982822022
 21
214.3936736745297
 31
0.0000001821687349
  0
LINE
  5
25E
330
2
100
AcDbEntity
  8
0
100
AcDbLine
 10
20.00000000000022
 20
213.3330135027492
 30
0.0000001821687349
 11
18.93933982822022
 21
212.2723533309692
 31
0.0000001821687349
  0
LINE
  5
25F
330
2
100
AcDbEntity
  8
0
100
AcDbLine
 10
20.00000000000022
 20
213.3330135027492
 30
0.0000001821687349
 11
21.06066017177977
 21
212.2723533309692
 31
0.0000001821687349
  0
LINE
  5
260
330
2
100
AcDbEntity
  8
9
100
AcDbLine
 10
20.00000000000068
 20
213.3330135027497
 30
0.0000001821687349
 11
21.06066017178022
 21
214.3936736745297
 31
0.0000001821687349
  0
LINE
  5
261
330
2
100
AcDbEntity
  8
7
100
AcDbLine
 10
20.00000000000022
 20
211.8330135027497
 30
0.0000001821687349
 11
20.00000000000022
 21
214.8330135027497
 31
0.0000001821687349
  0
LINE
  5
262
330
2
100
AcDbEntity
  8
7
100
AcDbLine
 10
20.00000000000022
 20
211.8330135027497
 30
0.0000001821687349
 11
20.00000000000022
 21
214.8330135027497
 31
0.0000001821687349
  0
LINE
  5
263
330
2
100
AcDbEntity
  8
7
100
AcDbLine
 10
0.5
 20
226.9413093438695
 30
0.0000002464694888
 11
0.5
 21
229.9413093438695
 31
0.0000002464694888
  0
LINE
  5
264
330
2
100
AcDbEntity
  8
0
100
AcDbLine
 10
0.5000000000002274
 20
213.3330135027488
 30
0.0000002464694888
 11
1.560660171779773
 21
212.2723533309688
 31
0.0000002464694888
  0
LINE
  5
265
330
2
100
AcDbEntity
  8
7
100
AcDbLine
 10
0.5
 20
211.8330135027493
 30
0.0000002464694888
 11
0.5
 21
214.8330135027492
 31
0.0000002464694888
  0
LINE
  5
266
330
2
100
AcDbEntity
  8
9
100
AcDbLine
 10
0.5000000000006822
 20
213.3330135027492
 30
0.0000002464694888
 11
1.560660171780227
 21
214.3936736745292
 31
0.0000002464694888
  0
LINE
  5
267
330
2
100
AcDbEntity
  8
9
100
AcDbLine
 10
0.5000000000006822
 20
228.4413093438695
 30
0.0000002464694888
 11
1.560660171780227
 21
229.5019695156495
 31
0.0000002464694888
  0
LINE
  5
268
330
2
100
AcDbEntity
  8
0
100
AcDbLine
 10
0.5000000000002274
 20
228.441309343869
 30
0.0000002464694888
 11
1.560660171779773
 21
227.380649172089
 31
0.0000002464694888
  0
LWPOLYLINE
  5
269
330
2
100
AcDbEntity
  8
0
 62
     5
100
AcDbPolyline
 90
        2
 70
     0
 43
1.0
 38
-0.0000000729735753
 10
293.8138884138357
 20
260.2499255860916
 10
397.8138884138354
 20
260.2499255861002
  0
TEXT
  5
26A
330
2
100
AcDbEntity
  8
KR-TEXTOS
  6
CONTINUOUS
100
AcDbText
 10
238.860218068065
 20
336.0944030948223
 30
-0.0000001280805562
 40
2.0
  1
HEB 160 A52d
  7
DEYP
100
AcDbText
  0
LINE
  5
26B
330
2
100
AcDbEntity
  8
0
  6
TRAZO_Y_PUNTO
100
AcDbLine
 10
240.9985724750868
 20
320.8423767320225
 30
-0.000000169773254
 11
293.8138884138357
 21
260.2499255860916
 31
-0.0000000729735753
  0
LINE
  5
26C
330
2
100
AcDbEntity
  8
0
 62
     7
100
AcDbLine
 10
239.1994451238658
 20
309.201994654247
 30
-0.0000001280805562
 11
275.8790027432419
 21
309.201994654247
 31
-0.0000001280805562
  0
LINE
  5
26D
330
2
100
AcDbEntity
  8
0
 62
     7
100
AcDbLine
 10
239.1994451238658
 20
237.4589227690337
 30
-0.0000001280805562
 11
275.8790027432419
 21
237.4589227690337
 31
-0.0000001280805562
  0
LINE
  5
26E
330
2
100
AcDbEntity
  8
0
 62
     7
100
AcDbLine
 10
239.1994451238658
 20
280.2499255860914
 30
-0.0000001280805562
 11
289.2728488035422
 21
280.2499255860914
 31
-0.0000001280805562
  0
LINE
  5
26F
330
2
100
AcDbEntity
  8
0
 62
     7
100
AcDbLine
 10
239.1994451238658
 20
260.2499255860914
 30
-0.0000001280805562
 11
289.2728488035422
 21
260.2499255860914
 31
-0.0000001280805562
  0
TEXT
  5
270
330
2
100
AcDbEntity
  8
KR-TEXTOS
  6
CONTINUOUS
100
AcDbText
 10
238.860218068065
 20
234.5047754301674
 30
-0.0000001280805562
 40
2.0
  1
HEB 700 A52d
  7
DEYP
100
AcDbText
  0
TEXT
  5
271
330
2
100
AcDbEntity
  8
KR-TEXTOS
  6
CONTINUOUS
100
AcDbText
 10
238.860218068065
 20
238.4130701079
 30
-0.0000001280805562
 40
2.0
  1
V. TRANSV. MIX. CONT.
  7
DEYP
100
AcDbText
  0
TEXT
  5
272
330
2
100
AcDbEntity
  8
KR-TEXTOS
  6
CONTINUOUS
100
AcDbText
 10
238.860218068065
 20
257.2957782472251
 30
-0.0000001280805562
 40
2.0
  1
HEA 600 A52d
  7
DEYP
100
AcDbText
  0
TEXT
  5
273
330
2
100
AcDbEntity
  8
KR-TEXTOS
  6
CONTINUOUS
100
AcDbText
 10
238.860218068065
 20
261.2040729249577
 30
-0.0000001280805562
 40
2.0
  1
V. TRANSV. MIX. CONT.
  7
DEYP
100
AcDbText
  0
LWPOLYLINE
  5
274
330
2
100
AcDbEntity
  8
0
 62
     7
100
AcDbPolyline
 90
        2
 70
     1
 43
0.7199999999999882
 38
-0.0000001695788186
 10
213.8177252939999
 20
316.6875738748569
 42
-1.0
 10
214.5377252939993
 20
316.6875738748569
 42
-1.0
  0
TEXT
  5
275
330
2
100
AcDbEntity
  8
KR-TEXTOS
  6
CONTINUOUS
100
AcDbText
 10
213.3189552569461
 20
312.9467358188908
 30
-0.0000001280805562
 40
2.0
  1
A
  7
DEYP
100
AcDbText
  0
TEXT
  5
276
330
2
100
AcDbEntity
  8
KR-TEXTOS
  6
CONTINUOUS
100
AcDbText
 10
257.2172556249813
 20
304.8437524910612
 30
-0.0000001280805562
 40
2.0
  1
%%c200.8 A52
 50
311.0788601439964
  7
DEYP
100
AcDbText
  0
TEXT
  5
277
330
2
100
AcDbEntity
  8
KR-TEXTOS
  6
CONTINUOUS
100
AcDbText
 10
238.860218068065
 20
277.2957782472251
 30
-0.0000001280805562
 40
2.0
  1
IPE 330 A52d
  7
DEYP
100
AcDbText
  0
TEXT
  5
278
330
2
100
AcDbEntity
  8
KR-TEXTOS
  6
CONTINUOUS
100
AcDbText
 10
238.860218068065
 20
281.2040729249577
 30
-0.0000001280805562
 40
2.0
  1
V. TRANSV. CONT.
  7
DEYP
100
AcDbText
  0
TEXT
  5
279
330
2
100
AcDbEntity
  8
KR-TEXTOS
  6
CONTINUOUS
100
AcDbText
 10
238.860218068065
 20
310.1561419931133
 30
-0.0000001280805562
 40
2.0
  1
CELOSIA TRANSV.
  7
DEYP
100
AcDbText
  0
LINE
  5
27A
330
2
100
AcDbEntity
  8
0
100
AcDbLine
 10
290.4214516886274
 20
224.5186774873266
 30
-0.0000001917774911
 11
275.8790027432419
 21
237.4589227690337
 31
-0.0000001280805562
  0
CIRCLE
  5
27B
330
2
100
AcDbEntity
  8
0
  6
RAYITAS
 62
     9
100
AcDbCircle
 10
293.8138884138357
 20
221.4999999941665
 30
-0.0000002066365992
 40
4.54103961029341
  0
LINE
  5
27C
330
2
100
AcDbEntity
  8
7
100
AcDbLine
 10
283.5596097217398
 20
221.9999999941671
 30
-0.0000001974752295
 11
280.5596097217398
 21
221.9999999941671
 31
-0.0000001974752295
  0
LINE
  5
27D
330
2
100
AcDbEntity
  8
7
100
AcDbLine
 10
283.5596097217398
 20
221.9999999941671
 30
-0.0000001974752295
 11
280.5596097217398
 21
221.9999999941671
 31
-0.0000001974752295
  0
LINE
  5
27E
330
2
100
AcDbEntity
  8
9
100
AcDbLine
 10
282.0596097217401
 20
220.9999999941494
 30
-0.000000202311503
 11
280.9989495499598
 21
219.9393398223699
 31
-0.000000202311503
  0
LINE
  5
27F
330
2
100
AcDbEntity
  8
7
100
AcDbLine
 10
283.5596097217401
 20
220.9999999941499
 30
-0.000000202311503
 11
280.5596097217401
 21
220.9999999941499
 31
-0.000000202311503
  0
LINE
  5
280
330
2
100
AcDbEntity
  8
7
100
AcDbLine
 10
283.5596097217401
 20
220.9999999941499
 30
-0.000000202311503
 11
280.5596097217401
 21
220.9999999941499
 31
-0.000000202311503
  0
LINE
  5
281
330
2
100
AcDbEntity
  8
0
100
AcDbLine
 10
282.0596097217405
 20
220.9999999941499
 30
-0.000000202311503
 11
283.1202698935203
 21
219.9393398223701
 31
-0.000000202311503
  0
LINE
  5
282
330
2
100
AcDbEntity
  8
0
100
AcDbLine
 10
282.0596097217403
 20
221.9999999941671
 30
-0.0000001974752295
 11
283.12026989352
 21
223.0606601659467
 31
-0.0000001974752295
  0
LINE
  5
283
330
2
100
AcDbEntity
  8
9
100
AcDbLine
 10
282.0596097217399
 20
221.9999999941676
 30
-0.0000001974752295
 11
280.9989495499596
 21
223.0606601659471
 31
-0.0000001974752295
  0
LINE
  5
284
330
2
100
AcDbEntity
  8
0
100
AcDbLine
 10
289.4247270467672
 20
304.4390418489179
 30
-0.0000001837850525
 11
275.8790027432419
 21
309.201994654247
 31
-0.0000001280805562
  0
LWPOLYLINE
  5
285
330
2
100
AcDbEntity
  8
9
100
AcDbPolyline
 90
        7
 70
     0
 43
0.0
 38
-0.0000001837850525
 10
291.5460473903267
 20
285.7909651963848
 10
290.4853872185471
 20
286.8516253681645
 10
290.4853872185471
 20
303.3783816771381
 10
289.4247270467672
 20
304.4390418489179
 10
290.4853872185471
 20
305.4997020206976
 10
290.4853872185471
 20
322.4222688319219
 10
291.5460473903267
 20
323.4829290037016
  0
TEXT
  5
286
330
2
100
AcDbEntity
  8
KR-TEXTOS
  6
CONTINUOUS
100
AcDbText
 10
299.311954228282
 20
279.5264581586143
 30
-0.0000001280805562
 40
2.0
  1
A
  7
DEYP
100
AcDbText
  0
LWPOLYLINE
  5
287
330
2
100
AcDbEntity
  8
0
 62
     7
100
AcDbPolyline
 90
        2
 70
     1
 43
1.033596233139957
 38
-0.0000001695788186
 10
293.2970902972661
 20
329.023968613995
 42
-1.0
 10
294.3306865304052
 20
329.023968613995
 42
-1.0
  0
LWPOLYLINE
  5
288
330
2
100
AcDbEntity
  8
0
 62
     7
100
AcDbPolyline
 90
        2
 70
     1
 43
0.3599999999999941
 38
-0.0000001695788186
 10
293.6338884138358
 20
329.023968613995
 42
-1.0
 10
293.9938884138355
 20
329.023968613995
 42
-1.0
  0
TEXT
  5
289
330
2
100
AcDbEntity
  8
KR-TEXTOS
  6
CONTINUOUS
100
AcDbText
 10
292.9396784436044
 20
333.9605702965004
 30
-0.0000001280805562
 40
2.0
  1
A
  7
DEYP
100
AcDbText
  0
TEXT
  5
28A
330
2
100
AcDbEntity
  8
KR-TEXTOS
  6
CONTINUOUS
100
AcDbText
 10
345.0778148048896
 20
315.6823449156377
 30
-0.0000001280805562
 40
2.0
  1
A
  7
DEYP
100
AcDbText
  0
LINE
  5
28B
330
2
100
AcDbEntity
  8
9
100
AcDbLine
 10
294.3138884138363
 20
191.6192666474264
 30
-0.0000000300689936
 11
295.3745485856159
 21
192.6799268192066
 31
-0.0000000300689936
  0
LINE
  5
28C
330
2
100
AcDbEntity
  8
0
100
AcDbLine
 10
294.3138884138359
 20
191.619266647426
 30
-0.0000000300689936
 11
295.3745485856159
 21
190.5586064756462
 31
-0.0000000300689936
  0
LINE
  5
28D
330
2
100
AcDbEntity
  8
0
100
AcDbLine
 10
294.3138884138356
 20
230.3517565070547
 30
0.0000000028402313
 11
295.3745485856156
 21
229.2910963352749
 31
0.0000000028402313
  0
LINE
  5
28E
330
2
100
AcDbEntity
  8
7
100
AcDbLine
 10
294.3138884138356
 20
228.8517565070551
 30
0.0000000028402313
 11
294.3138884138356
 21
231.8517565070551
 31
0.0000000028402313
  0
LINE
  5
28F
330
2
100
AcDbEntity
  8
7
100
AcDbLine
 10
294.3138884138356
 20
228.8517565070551
 30
0.0000000028402313
 11
294.3138884138356
 21
231.8517565070551
 31
0.0000000028402313
  0
LINE
  5
290
330
2
100
AcDbEntity
  8
9
100
AcDbLine
 10
294.3138884138361
 20
230.3517565070551
 30
0.0000000028402313
 11
295.3745485856156
 21
231.4124166788353
 31
0.0000000028402313
  0
TEXT
  5
291
330
2
100
AcDbEntity
  8
KR-TEXTOS
  6
CONTINUOUS
100
AcDbText
 10
322.1769955923123
 20
194.9862452127771
 30
-0.000000032681456
 40
2.0
  1
HEB 180 A52
 50
90.0
  7
DEYP
 72
     1
 11
321.1769955923123
 21
205.6052928318247
 31
-0.000000032681456
100
AcDbText
 73
     2
  0
LINE
  5
292
330
2
100
AcDbEntity
  8
0
 62
     5
100
AcDbLine
 10
290.8138884138354
 20
280.2499255860918
 30
-0.0000000701775056
 11
296.8138884138354
 21
280.2499255860914
 31
-0.0000000700891824
  0
LWPOLYLINE
  5
293
330
2
100
AcDbEntity
  8
0
 62
     7
100
AcDbPolyline
 90
        2
 70
     1
 43
1.033596233139957
 38
-0.000000070133344
 10
293.2970902972661
 20
280.2499255860914
 42
-1.0
 10
294.3306865304052
 20
280.2499255860914
 42
-1.0
  0
LINE
  5
294
330
2
100
AcDbEntity
  8
0
100
AcDbLine
 10
294.3138884138356
 20
269.1016820989795
 30
-0.000000070133344
 11
295.3745485856156
 21
268.0410219271998
 31
-0.000000070133344
  0
LINE
  5
295
330
2
100
AcDbEntity
  8
7
100
AcDbLine
 10
294.3138884138356
 20
267.60168209898
 30
-0.000000070133344
 11
294.3138884138356
 21
270.60168209898
 31
-0.000000070133344
  0
LINE
  5
296
330
2
100
AcDbEntity
  8
7
100
AcDbLine
 10
294.3138884138356
 20
267.60168209898
 30
-0.000000070133344
 11
294.3138884138356
 21
270.60168209898
 31
-0.000000070133344
  0
LINE
  5
297
330
2
100
AcDbEntity
  8
9
100
AcDbLine
 10
294.3138884138361
 20
269.10168209898
 30
-0.000000070133344
 11
295.3745485856156
 21
270.1623422707602
 31
-0.000000070133344
  0
LINE
  5
298
330
2
100
AcDbEntity
  8
0
 62
     7
100
AcDbLine
 10
239.1994451238658
 20
339.0485504336886
 30
-0.0000001280805562
 11
275.8790027432419
 21
339.0485504336886
 31
-0.0000001280805562
  0
TEXT
  5
299
330
2
100
AcDbEntity
  8
KR-TEXTOS
  6
CONTINUOUS
100
AcDbText
 10
238.860218068065
 20
340.0026977725549
 30
-0.0000001280805562
 40
2.0
  1
V. TRANSV. CONT.
  7
DEYP
100
AcDbText
  0
TEXT
  5
29A
330
2
100
AcDbEntity
  8
KR-TEXTOS
  6
CONTINUOUS
100
AcDbText
 10
394.3176098823442
 20
307.1023908349475
 30
-0.0000001280805562
 40
2.0
  1
A
  7
DEYP
100
AcDbText
  0
LWPOLYLINE
  5
29B
330
2
100
AcDbEntity
  8
0
100
AcDbPolyline
 90
        2
 70
     1
 43
0.5
 38
-0.0000001655361303
 10
408.6186078942266
 20
285.1471596229186
 42
1.0
 10
409.1186078942266
 20
285.1471596229186
 42
1.0
  0
LINE
  5
29C
330
2
100
AcDbEntity
  8
0
100
AcDbLine
 10
273.8138884138361
 20
213.3330135027488
 30
0.0000001120353909
 11
274.8745485856161
 21
212.2723533309688
 31
0.0000001120353909
  0
LINE
  5
29D
330
2
100
AcDbEntity
  8
9
100
AcDbLine
 10
273.8138884138365
 20
213.3330135027492
 30
0.0000001120353909
 11
274.8745485856161
 21
214.3936736745292
 31
0.0000001120353909
  0
LINE
  5
29E
330
2
100
AcDbEntity
  8
9
100
AcDbLine
 10
273.8138884138356
 20
213.3330135027492
 30
0.0000001120353909
 11
272.7532282420561
 21
214.3936736745292
 31
0.0000001120353909
  0
LINE
  5
29F
330
2
100
AcDbEntity
  8
0
100
AcDbLine
 10
273.8138884138361
 20
213.3330135027488
 30
0.0000001120353909
 11
272.7532282420566
 21
212.2723533309688
 31
0.0000001120353909
  0
LINE
  5
2A0
330
2
100
AcDbEntity
  8
7
100
AcDbLine
 10
273.8138884138361
 20
211.8330135027493
 30
0.0000001120353909
 11
273.8138884138361
 21
214.8330135027492
 31
0.0000001120353909
  0
LINE
  5
2A1
330
2
100
AcDbEntity
  8
7
100
AcDbLine
 10
273.8138884138361
 20
211.8330135027493
 30
0.0000001120353909
 11
273.8138884138361
 21
214.8330135027492
 31
0.0000001120353909
  0
LINE
  5
2A2
330
2
100
AcDbEntity
  8
7
100
AcDbLine
 10
293.3138884138356
 20
226.9413093438695
 30
0.0000001763361448
 11
293.3138884138356
 21
229.9413093438695
 31
0.0000001763361448
  0
LINE
  5
2A3
330
2
100
AcDbEntity
  8
0
100
AcDbLine
 10
293.3138884138356
 20
213.3330135027488
 30
0.0000001763361448
 11
292.2532282420559
 21
212.2723533309688
 31
0.0000001763361448
  0
LINE
  5
2A4
330
2
100
AcDbEntity
  8
9
100
AcDbLine
 10
293.3138884138352
 20
213.3330135027492
 30
0.0000001763361448
 11
292.2532282420556
 21
214.3936736745292
 31
0.0000001763361448
  0
LINE
  5
2A5
330
2
100
AcDbEntity
  8
7
100
AcDbLine
 10
293.3138884138356
 20
211.8330135027493
 30
0.0000001763361448
 11
293.3138884138356
 21
214.8330135027492
 31
0.0000001763361448
  0
LINE
  5
2A6
330
2
100
AcDbEntity
  8
9
100
AcDbLine
 10
293.3138884138352
 20
228.4413093438695
 30
0.0000001763361448
 11
292.2532282420556
 21
229.5019695156495
 31
0.0000001763361448
  0
LINE
  5
2A7
330
2
100
AcDbEntity
  8
0
100
AcDbLine
 10
293.3138884138356
 20
228.441309343869
 30
0.0000001763361448
 11
292.2532282420559
 21
227.380649172089
 31
0.0000001763361448
  0
ENDSEC
  0
SECTION
  2
OBJECTS
  0
DICTIONARY
  5
7
330
0
100
AcDbDictionary
  3
ACAD_GROUP
350
1F
  3
ACAD_LAYOUT
350
B
  3
ACAD_MLINESTYLE
350
20
  3
ACAD_PLOTSETTINGS
350
21
  3
ACAD_PLOTSTYLENAME
350
6
  3
ACDBVARIABLEDICTIONARY
350
2AA
  3
ACDBHEADERROUNDTRIPXREC
350
2C0
  0
DICTIONARY
  5
2E1
330
2
100
AcDbDictionary
280
     1
  3
ACAD_LAYOUTSELFREF
360
2E2
  0
DICTIONARY
  5
2E3
330
C
100
AcDbDictionary
280
     1
  3
ACAD_LAYOUTSELFREF
360
2E4
  0
DICTIONARY
  5
1F
102
{ACAD_REACTORS
330
7
102
}
330
7
100
AcDbDictionary
  0
DICTIONARY
  5
B
102
{ACAD_REACTORS
330
7
102
}
330
7
100
AcDbDictionary
  0
DICTIONARY
  5
20
102
{ACAD_REACTORS
330
7
102
}
330
7
100
AcDbDictionary
  3
STANDARD
350
29
  0
DICTIONARY
  5
21
102
{ACAD_REACTORS
330
7
102
}
330
7
100
AcDbDictionary
  0
ACDBDICTIONARYWDFLT
  5
6
102
{ACAD_REACTORS
330
7
102
}
330
7
100
AcDbDictionary
281
     1
  3
Normal
350
5
100
AcDbDictionaryWithDefault
340
5
  0
DICTIONARY
  5
2AA
102
{ACAD_REACTORS
330
7
102
}
330
7
100
AcDbDictionary
  3
DIMASSOC
350
2AC
  3
HIDETEXT
350
2AB
  0
DICTIONARY
  5
2C0
102
{ACAD_REACTORS
330
7
102
}
330
7
100
AcDbDictionary
  3
TSTACKALIGN
350
2C1
  3
TSTACKSIZE
350
2C2
  3
HYPERLINKBASE
350
2C3
  3
STYLESHEET
350
2C4
  3
LAYOUTDICT
350
2C5
  3
PLOTSETDICT
350
2C6
  3
PLOTSTYLNAMDICT
350
2C7
  3
LWETCUNION
350
2C8
  3
INSUNITS
350
2C9
  3
CEPSNTYPE
350
2CA
  3
FINGERPRINTGUID
350
2CB
  3
VERSIONGUID
350
2CC
  3
PSVPSCALE
350
2CD
  3
DIMSTYLEDATA
350
2CE
  3
PUCSORTHOREF
350
2CF
  3
PUCSORTHOVIEW
350
2D0
  3
PUCSBASE
350
2D1
  3
PUCSORGTOP
350
2D2
  3
PUCSORGBOTTOM
350
2D3
  3
PUCSORGLEFT
350
2D4
  3
PUCSORGRIGHT
350
2D5
  3
PUCSORGFRONT
350
2D6
  3
PUCSORGBACK
350
2D7
  3
UCSORTHOREF
350
2D8
  3
UCSORTHOVIEW
350
2D9
  3
UCSBASE
350
2DA
  3
UCSORGTOP
350
2DB
  3
UCSORGBOTTOM
350
2DC
  3
UCSORGLEFT
350
2DD
  3
UCSORGRIGHT
350
2DE
  3
UCSORGFRONT
350
2DF
  3
UCSORGBACK
350
2E0
  0
XRECORD
  5
2E2
102
{ACAD_REACTORS
330
2E1
102
}
330
2E1
100
AcDbXrecord
340
2
  0
XRECORD
  5
2E4
102
{ACAD_REACTORS
330
2E3
102
}
330
2E3
100
AcDbXrecord
340
C
  0
MLINESTYLE
  5
29
102
{ACAD_REACTORS
330
20
102
}
330
20
100
AcDbMlineStyle
  2
STANDARD
 70
     0
  3

 62
   256
 51
90.0
 52
90.0
 71
     2
 49
0.5
 62
   256
  6
BYLAYER
 49
-0.5
 62
   256
  6
BYLAYER
  0
ACDBPLACEHOLDER
  5
5
102
{ACAD_REACTORS
330
6
102
}
330
6
100
AcDbPlaceHolder
280
     0
  0
DICTIONARYVAR
  5
2AC
102
{ACAD_REACTORS
330
2AA
102
}
330
2AA
100
DictionaryVariables
280
     0
  1
1
  0
DICTIONARYVAR
  5
2AB
102
{ACAD_REACTORS
330
2AA
102
}
330
2AA
100
DictionaryVariables
280
     0
  1
1
  0
XRECORD
  5
2C1
102
{ACAD_REACTORS
330
2C0
102
}
330
2C0
100
AcDbXrecord
 90
        1
  0
XRECORD
  5
2C2
102
{ACAD_REACTORS
330
2C0
102
}
330
2C0
100
AcDbXrecord
 90
       70
  0
XRECORD
  5
2C3
102
{ACAD_REACTORS
330
2C0
102
}
330
2C0
100
AcDbXrecord
  1

  0
XRECORD
  5
2C4
102
{ACAD_REACTORS
330
2C0
102
}
330
2C0
100
AcDbXrecord
  1

  0
XRECORD
  5
2C5
102
{ACAD_REACTORS
330
2C0
102
}
330
2C0
100
AcDbXrecord
340
B
  0
XRECORD
  5
2C6
102
{ACAD_REACTORS
330
2C0
102
}
330
2C0
100
AcDbXrecord
340
21
  0
XRECORD
  5
2C7
102
{ACAD_REACTORS
330
2C0
102
}
330
2C0
100
AcDbXrecord
340
6
  0
XRECORD
  5
2C8
102
{ACAD_REACTORS
330
2C0
102
}
330
2C0
100
AcDbXrecord
 90
    10781
  0
XRECORD
  5
2C9
102
{ACAD_REACTORS
330
2C0
102
}
330
2C0
100
AcDbXrecord
 90
        0
  0
XRECORD
  5
2CA
102
{ACAD_REACTORS
330
2C0
102
}
330
2C0
100
AcDbXrecord
 90
        0
  0
XRECORD
  5
2CB
102
{ACAD_REACTORS
330
2C0
102
}
330
2C0
100
AcDbXrecord
  1
{27CD6D8E-4702-11D7-B009-93383F344F2B}
  0
XRECORD
  5
2CC
102
{ACAD_REACTORS
330
2C0
102
}
330
2C0
100
AcDbXrecord
  1
{DCC007F0-4705-11D7-B009-93383F344F2B}
  0
XRECORD
  5
2CD
102
{ACAD_REACTORS
330
2C0
102
}
330
2C0
100
AcDbXrecord
 40
0.0
  0
XRECORD
  5
2CE
102
{ACAD_REACTORS
330
2C0
102
}
330
2C0
100
AcDbXrecord
1000
DSTYLE
1002
{
1070
   279
 70
     2
1070
   341
340
22
1070
   342
340
22
1070
   343
340
22
1070
   344
340
22
1002
}
  0
XRECORD
  5
2CF
102
{ACAD_REACTORS
330
2C0
102
}
330
2C0
100
AcDbXrecord
340
0
  0
XRECORD
  5
2D0
102
{ACAD_REACTORS
330
2C0
102
}
330
2C0
100
AcDbXrecord
 70
     0
  0
XRECORD
  5
2D1
102
{ACAD_REACTORS
330
2C0
102
}
330
2C0
100
AcDbXrecord
340
0
  0
XRECORD
  5
2D2
102
{ACAD_REACTORS
330
2C0
102
}
330
2C0
100
AcDbXrecord
 10
0.0
 20
0.0
 30
0.0
  0
XRECORD
  5
2D3
102
{ACAD_REACTORS
330
2C0
102
}
330
2C0
100
AcDbXrecord
 10
0.0
 20
0.0
 30
0.0
  0
XRECORD
  5
2D4
102
{ACAD_REACTORS
330
2C0
102
}
330
2C0
100
AcDbXrecord
 10
0.0
 20
0.0
 30
0.0
  0
XRECORD
  5
2D5
102
{ACAD_REACTORS
330
2C0
102
}
330
2C0
100
AcDbXrecord
 10
0.0
 20
0.0
 30
0.0
  0
XRECORD
  5
2D6
102
{ACAD_REACTORS
330
2C0
102
}
330
2C0
100
AcDbXrecord
 10
0.0
 20
0.0
 30
0.0
  0
XRECORD
  5
2D7
102
{ACAD_REACTORS
330
2C0
102
}
330
2C0
100
AcDbXrecord
 10
0.0
 20
0.0
 30
0.0
  0
XRECORD
  5
2D8
102
{ACAD_REACTORS
330
2C0
102
}
330
2C0
100
AcDbXrecord
340
0
  0
XRECORD
  5
2D9
102
{ACAD_REACTORS
330
2C0
102
}
330
2C0
100
AcDbXrecord
 70
     0
  0
XRECORD
  5
2DA
102
{ACAD_REACTORS
330
2C0
102
}
330
2C0
100
AcDbXrecord
340
0
  0
XRECORD
  5
2DB
102
{ACAD_REACTORS
330
2C0
102
}
330
2C0
100
AcDbXrecord
 10
0.0
 20
0.0
 30
0.0
  0
XRECORD
  5
2DC
102
{ACAD_REACTORS
330
2C0
102
}
330
2C0
100
AcDbXrecord
 10
0.0
 20
0.0
 30
0.0
  0
XRECORD
  5
2DD
102
{ACAD_REACTORS
330
2C0
102
}
330
2C0
100
AcDbXrecord
 10
0.0
 20
0.0
 30
0.0
  0
XRECORD
  5
2DE
102
{ACAD_REACTORS
330
2C0
102
}
330
2C0
100
AcDbXrecord
 10
0.0
 20
0.0
 30
0.0
  0
XRECORD
  5
2DF
102
{ACAD_REACTORS
330
2C0
102
}
330
2C0
100
AcDbXrecord
 10
0.0
 20
0.0
 30
0.0
  0
XRECORD
  5
2E0
102
{ACAD_REACTORS
330
2C0
102
}
330
2C0
100
AcDbXrecord
 10
0.0
 20
0.0
 30
0.0
  0
ENDSEC
  0
EOF
