  0
SECTION
  2
HEADER
  9
$ACADVER
  1
AC1014
  9
$ACADMAINTVER
 70
     9
  9
$DWGCODEPAGE
  3
ANSI_1252
  9
$INSBASE
 10
0.0
 20
0.0
 30
0.0
  9
$EXTMIN
 10
-104.24365974561
 20
-73.84413252732311
 30
-0.0000006114116559
  9
$EXTMAX
 10
488.989810080114
 20
382.9615545786513
 30
0.0000002464694888
  9
$LIMMIN
 10
0.0
 20
0.0
  9
$LIMMAX
 10
420.0
 20
297.0
  9
$ORTHOMODE
 70
     0
  9
$REGENMODE
 70
     1
  9
$FILLMODE
 70
     1
  9
$QTEXTMODE
 70
     0
  9
$MIRRTEXT
 70
     0
  9
$DRAGMODE
 70
     2
  9
$LTSCALE
 40
10.0
  9
$OSMODE
 70
    37
  9
$ATTMODE
 70
     1
  9
$TEXTSIZE
 40
2.0
  9
$TRACEWID
 40
1.0
  9
$TEXTSTYLE
  7
DEYP
  9
$CLAYER
  8
0
  9
$CELTYPE
  6
BYLAYER
  9
$CECOLOR
 62
   256
  9
$CELTSCALE
 40
1.0
  9
$DELOBJ
 70
     1
  9
$DISPSILH
 70
     0
  9
$DIMSCALE
 40
1.0
  9
$DIMASZ
 40
0.12
  9
$DIMEXO
 40
0.25
  9
$DIMDLI
 40
0.75
  9
$DIMRND
 40
0.05
  9
$DIMDLE
 40
0.0
  9
$DIMEXE
 40
0.12
  9
$DIMTP
 40
0.0
  9
$DIMTM
 40
0.0
  9
$DIMTXT
 40
0.18
  9
$DIMCEN
 40
0.3
  9
$DIMTSZ
 40
0.0
  9
$DIMTOL
 70
     0
  9
$DIMLIM
 70
     0
  9
$DIMTIH
 70
     0
  9
$DIMTOH
 70
     1
  9
$DIMSE1
 70
     0
  9
$DIMSE2
 70
     0
  9
$DIMTAD
 70
     2
  9
$DIMZIN
 70
     1
  9
$DIMBLK
  1
TICK
  9
$DIMASO
 70
     1
  9
$DIMSHO
 70
     1
  9
$DIMPOST
  1

  9
$DIMAPOST
  1

  9
$DIMALT
 70
     0
  9
$DIMALTD
 70
     2
  9
$DIMALTF
 40
25.4
  9
$DIMLFAC
 40
1.0
  9
$DIMTOFL
 70
     0
  9
$DIMTVP
 40
0.0
  9
$DIMTIX
 70
     1
  9
$DIMSOXD
 70
     0
  9
$DIMSAH
 70
     1
  9
$DIMBLK1
  1
TICK
  9
$DIMBLK2
  1
TICK
  9
$DIMSTYLE
  2
COTA1
  9
$DIMCLRD
 70
     7
  9
$DIMCLRE
 70
     7
  9
$DIMCLRT
 70
     2
  9
$DIMTFAC
 40
1.0
  9
$DIMGAP
 40
0.09
  9
$DIMJUST
 70
     4
  9
$DIMSD1
 70
     0
  9
$DIMSD2
 70
     0
  9
$DIMTOLJ
 70
     1
  9
$DIMTZIN
 70
     1
  9
$DIMALTZ
 70
     1
  9
$DIMALTTZ
 70
     1
  9
$DIMFIT
 70
     5
  9
$DIMUPT
 70
     0
  9
$DIMUNIT
 70
     2
  9
$DIMDEC
 70
     2
  9
$DIMTDEC
 70
     2
  9
$DIMALTU
 70
     2
  9
$DIMALTTD
 70
     2
  9
$DIMTXSTY
  7
STANDARD
  9
$DIMAUNIT
 70
     0
  9
$LUNITS
 70
     2
  9
$LUPREC
 70
     4
  9
$SKETCHINC
 40
1.0
  9
$FILLETRAD
 40
0.0
  9
$AUNITS
 70
     0
  9
$AUPREC
 70
     0
  9
$MENU
  1
.
  9
$ELEVATION
 40
0.0
  9
$PELEVATION
 40
0.0
  9
$THICKNESS
 40
0.0
  9
$LIMCHECK
 70
     0
  9
$BLIPMODE
 70
     0
  9
$CHAMFERA
 40
10.0
  9
$CHAMFERB
 40
10.0
  9
$CHAMFERC
 40
20.0
  9
$CHAMFERD
 40
0.0
  9
$SKPOLY
 70
     0
  9
$TDCREATE
 40
2452237.366010300
  9
$TDUPDATE
 40
2452695.529750277
  9
$TDINDWG
 40
0.8893099884
  9
$TDUSRTIMER
 40
0.8893099884
  9
$USRTIMER
 70
     1
  9
$ANGBASE
 50
0.0
  9
$ANGDIR
 70
     0
  9
$PDMODE
 70
     0
  9
$PDSIZE
 40
0.0
  9
$PLINEWID
 40
1.0
  9
$COORDS
 70
     1
  9
$SPLFRAME
 70
     0
  9
$SPLINETYPE
 70
     6
  9
$SPLINESEGS
 70
     8
  9
$ATTDIA
 70
     0
  9
$ATTREQ
 70
     1
  9
$HANDLING
 70
  4097
  9
$HANDSEED
  5
2D3
  9
$SURFTAB1
 70
     6
  9
$SURFTAB2
 70
     6
  9
$SURFTYPE
 70
     6
  9
$SURFU
 70
     6
  9
$SURFV
 70
     6
  9
$UCSNAME
  2

  9
$UCSORG
 10
0.0
 20
0.0
 30
0.0
  9
$UCSXDIR
 10
1.0
 20
0.0
 30
0.0
  9
$UCSYDIR
 10
0.0
 20
1.0
 30
0.0
  9
$PUCSNAME
  2

  9
$PUCSORG
 10
0.0
 20
0.0
 30
0.0
  9
$PUCSXDIR
 10
1.0
 20
0.0
 30
0.0
  9
$PUCSYDIR
 10
0.0
 20
1.0
 30
0.0
  9
$USERI1
 70
     0
  9
$USERI2
 70
     0
  9
$USERI3
 70
     0
  9
$USERI4
 70
     0
  9
$USERI5
 70
     0
  9
$USERR1
 40
1.0
  9
$USERR2
 40
1.0
  9
$USERR3
 40
0.0
  9
$USERR4
 40
0.0
  9
$USERR5
 40
0.0
  9
$WORLDVIEW
 70
     1
  9
$SHADEDGE
 70
     3
  9
$SHADEDIF
 70
    70
  9
$TILEMODE
 70
     1
  9
$MAXACTVP
 70
    48
  9
$PINSBASE
 10
0.0
 20
0.0
 30
0.0
  9
$PLIMCHECK
 70
     0
  9
$PEXTMIN
 10
1.000000000000000E+20
 20
1.000000000000000E+20
 30
1.000000000000000E+20
  9
$PEXTMAX
 10
-1.000000000000000E+20
 20
-1.000000000000000E+20
 30
-1.000000000000000E+20
  9
$PLIMMIN
 10
0.0
 20
0.0
  9
$PLIMMAX
 10
420.0
 20
297.0
  9
$UNITMODE
 70
     0
  9
$VISRETAIN
 70
     1
  9
$PLINEGEN
 70
     0
  9
$PSLTSCALE
 70
     1
  9
$TREEDEPTH
 70
  3020
  9
$PICKSTYLE
 70
     1
  9
$CMLSTYLE
  2
STANDARD
  9
$CMLJUST
 70
     0
  9
$CMLSCALE
 40
20.0
  9
$PROXYGRAPHICS
 70
     1
  9
$MEASUREMENT
 70
     0
  0
ENDSEC
  0
SECTION
  2
CLASSES
  0
CLASS
  1
LWPOLYLINE
  2
AcDbPolyline
  3
AutoCAD 2000
 90
        0
280
     0
281
     1
  0
CLASS
  1
HATCH
  2
AcDbHatch
  3
AutoCAD 2000
 90
        0
280
     0
281
     1
  0
CLASS
  1
XRECORD
  2
AcDbXrecord
  3
AutoCAD 2000
 90
        0
280
     0
281
     0
  0
CLASS
  1
DICTIONARYVAR
  2
AcDbDictionaryVar
  3
AutoCAD 2000
 90
        0
280
     0
281
     0
  0
CLASS
  1
ACDBDICTIONARYWDFLT
  2
AcDbDictionaryWithDefault
  3
AutoCAD 2000
 90
        0
280
     0
281
     0
  0
CLASS
  1
ACDBPLACEHOLDER
  2
AcDbPlaceHolder
  3
AutoCAD 2000
 90
        0
280
     0
281
     0
  0
CLASS
  1
LAYOUT
  2
AcDbLayout
  3
AutoCAD 2000
 90
        0
280
     0
281
     0
  0
CLASS
  1
LONG_TRANSACTION
  2
AcDbLongTransaction
  3
AutoCAD 2000
 90
        0
280
     0
281
     0
  0
CLASS
  1
LWPOLYLINE
  2
AcDbPolyline
  3
AutoCAD 2000
 90
        0
280
     0
281
     1
  0
CLASS
  1
HATCH
  2
AcDbHatch
  3
AutoCAD 2000
 90
        0
280
     0
281
     1
  0
CLASS
  1
XRECORD
  2
AcDbXrecord
  3
AutoCAD 2000
 90
        0
280
     0
281
     0
  0
ENDSEC
  0
SECTION
  2
TABLES
  0
TABLE
  2
VPORT
  5
19
330
0
100
AcDbSymbolTable
 70
     2
  0
VPORT
  5
2AD
330
19
100
AcDbSymbolTableRecord
100
AcDbViewportTableRecord
  2
*ACTIVE
 70
     0
 10
0.0
 20
0.0
 11
1.0
 21
1.0
 12
192.3760995901842
 22
162.3551887618829
 13
0.0
 23
0.0
 14
10.0
 24
10.0
 15
10.0
 25
10.0
 16
0.0
 26
0.0
 36
1.0
 17
0.0
 27
0.0
 37
0.0
 40
477.9592166469973
 41
1.676282051282051
 42
50.0
 43
0.0
 44
0.0
 50
0.0
 51
0.0
 71
     0
 72
 20000
 73
     1
 74
     1
 75
     0
 76
     0
 77
     0
 78
     0
  0
ENDTAB
  0
TABLE
  2
LTYPE
  5
14
330
0
100
AcDbSymbolTable
 70
     6
  0
LTYPE
  5
15
330
14
100
AcDbSymbolTableRecord
100
AcDbLinetypeTableRecord
  2
BYBLOCK
 70
     0
  3

 72
    65
 73
     0
 40
0.0
  0
LTYPE
  5
16
330
14
100
AcDbSymbolTableRecord
100
AcDbLinetypeTableRecord
  2
BYLAYER
 70
     0
  3

 72
    65
 73
     0
 40
0.0
  0
LTYPE
  5
8
330
14
100
AcDbSymbolTableRecord
100
AcDbLinetypeTableRecord
  2
CONTINUOUS
 70
     0
  3
Solid line
 72
    65
 73
     0
 40
0.0
  0
LTYPE
  5
4B
330
14
100
AcDbSymbolTableRecord
100
AcDbLinetypeTableRecord
  2
CONTINUA
 70
     0
  3
Linea ininterrumpida
 72
    65
 73
     0
 40
0.0
  0
LTYPE
  5
7A
330
14
100
AcDbSymbolTableRecord
100
AcDbLinetypeTableRecord
  2
CENTRO
 70
     0
  3
____ _ ____ _ ____ _ ____ _ ____ _ ____ _ __
 72
    65
 73
     4
 40
2.0
 49
1.25
 74
     0
 49
-0.25
 74
     0
 49
0.25
 74
     0
 49
-0.25
 74
     0
  0
LTYPE
  5
4E
330
14
100
AcDbSymbolTableRecord
100
AcDbLinetypeTableRecord
  2
RAYITAS
 70
     0
  3
_ _ _ _ _ _ _ _ _ _ _ _ _ _ _ _ _ _ _ _ _ _
 72
    65
 73
     2
 40
0.375
 49
0.25
 74
     0
 49
-0.125
 74
     0
  0
LTYPE
  5
34
330
14
100
AcDbSymbolTableRecord
100
AcDbLinetypeTableRecord
  2
TRAZOS
 70
     0
  3
__ __ __ __ __ __ __ __ __ __ __ __ __ __ __ __
 72
    65
 73
     2
 40
0.75
 49
0.5
 74
     0
 49
-0.25
 74
     0
  0
LTYPE
  5
48
330
14
100
AcDbSymbolTableRecord
100
AcDbLinetypeTableRecord
  2
TRAZO_Y_PUNTO
 70
     0
  3
__ . __ . __ . __ . __ . __ . __ . __ . __ . __
 72
    65
 73
     4
 40
1.0
 49
0.5
 74
     0
 49
-0.25
 74
     0
 49
0.0
 74
     0
 49
-0.25
 74
     0
  0
ENDTAB
  0
TABLE
  2
LAYER
  5
10
330
0
100
AcDbSymbolTable
 70
     6
  0
LAYER
  5
4
330
10
100
AcDbSymbolTableRecord
100
AcDbLayerTableRecord
  2
0
 70
     0
 62
     7
  6
CONTINUOUS
  0
LAYER
  5
24
330
10
100
AcDbSymbolTableRecord
100
AcDbLayerTableRecord
  2
05C
 70
     0
 62
     5
  6
CONTINUOUS
  0
LAYER
  5
79
330
10
100
AcDbSymbolTableRecord
100
AcDbLayerTableRecord
  2
7
 70
     0
 62
     7
  6
CENTRO
  0
LAYER
  5
4A
330
10
100
AcDbSymbolTableRecord
100
AcDbLayerTableRecord
  2
9
 70
     0
 62
     7
  6
CONTINUA
  0
LAYER
  5
1B5
330
10
100
AcDbSymbolTableRecord
100
AcDbLayerTableRecord
  2
KR-GRUESA
 70
     0
 62
     6
  6
CONTINUOUS
  0
LAYER
  5
38
330
10
100
AcDbSymbolTableRecord
100
AcDbLayerTableRecord
  2
KR-TEXTOS
 70
     0
 62
     2
  6
CONTINUOUS
  0
ENDTAB
  0
TABLE
  2
STYLE
  5
11
330
0
100
AcDbSymbolTable
 70
     4
  0
STYLE
  5
12
330
11
100
AcDbSymbolTableRecord
100
AcDbTextStyleTableRecord
  2
STANDARD
 70
     0
 40
0.0
 41
1.0
 50
0.0
 71
     0
 42
2.5
  3
txt
  4

  0
STYLE
  5
2B
330
11
100
AcDbSymbolTableRecord
100
AcDbTextStyleTableRecord
  2
ROMANS
 70
     0
 40
2.0
 41
1.0
 50
0.0
 71
     0
 42
2.0
  3
ROMANS.shx
  4

  0
STYLE
  5
28
330
11
100
AcDbSymbolTableRecord
100
AcDbTextStyleTableRecord
  2
DEYP
 70
     0
 40
0.0
 41
1.0
 50
0.0
 71
     0
 42
2.0
  3
romans.shx
  4

  0
STYLE
  5
A6
330
11
100
AcDbSymbolTableRecord
100
AcDbTextStyleTableRecord
  2
SYMATH
 70
     0
 40
1.0
 41
1.0
 50
0.0
 71
     0
 42
1.0
  3
SYMATH
  4

  0
ENDTAB
  0
TABLE
  2
VIEW
  5
17
330
0
100
AcDbSymbolTable
 70
     0
  0
ENDTAB
  0
TABLE
  2
UCS
  5
18
330
0
100
AcDbSymbolTable
 70
     0
  0
ENDTAB
  0
TABLE
  2
APPID
  5
1B
330
0
100
AcDbSymbolTable
 70
     1
  0
APPID
  5
1C
330
1B
100
AcDbSymbolTableRecord
100
AcDbRegAppTableRecord
  2
ACAD
 70
     0
  0
ENDTAB
  0
TABLE
  2
DIMSTYLE
  5
1D
330
0
100
AcDbSymbolTable
 70
     1
  0
DIMSTYLE
105
2A
330
1D
100
AcDbSymbolTableRecord
100
AcDbDimStyleTableRecord
  2
COTA1
 70
     0
  3

  4

  5
COTA
  6
COTA
  7
COTA
 40
1.0
 41
0.75
 42
5.0
 43
6.0
 44
1.8
 45
0.0
 46
2.0
 47
0.0
 48
0.0
140
2.0
141
1.5
142
0.0
143
25.4
144
1.0
145
1.0
146
1.0
147
0.09
 71
     0
 72
     0
 73
     0
 74
     0
 75
     0
 76
     0
 77
     0
 78
     0
170
     0
171
     2
172
     0
173
     1
174
     1
175
     0
176
     1
177
     1
178
     1
270
     2
271
     3
272
     3
273
     2
274
     2
340
2B
275
     0
280
     0
281
     0
282
     0
283
     1
284
     0
285
     0
286
     0
287
     5
288
     0
  0
ENDTAB
  0
TABLE
  2
BLOCK_RECORD
  5
1
330
0
100
AcDbSymbolTable
 70
     3
  0
BLOCK_RECORD
  5
2
102
{ACAD_XDICTIONARY
360
2CF
102
}
330
1
100
AcDbSymbolTableRecord
100
AcDbBlockTableRecord
  2
*MODEL_SPACE
  0
BLOCK_RECORD
  5
C
102
{ACAD_XDICTIONARY
360
2D1
102
}
330
1
100
AcDbSymbolTableRecord
100
AcDbBlockTableRecord
  2
*PAPER_SPACE
  0
BLOCK_RECORD
  5
22
330
1
100
AcDbSymbolTableRecord
100
AcDbBlockTableRecord
  2
TICK
  0
BLOCK_RECORD
  5
2C
330
1
100
AcDbSymbolTableRecord
100
AcDbBlockTableRecord
  2
COTA
  0
BLOCK_RECORD
  5
A4
330
1
100
AcDbSymbolTableRecord
100
AcDbBlockTableRecord
  2
SIM10
  0
ENDTAB
  0
ENDSEC
  0
SECTION
  2
BLOCKS
  0
BLOCK
  5
3
330
2
100
AcDbEntity
  8
0
100
AcDbBlockBegin
  2
*MODEL_SPACE
 70
     0
 10
0.0
 20
0.0
 30
0.0
  3
*MODEL_SPACE
  1

  0
ENDBLK
  5
9
330
2
100
AcDbEntity
  8
0
100
AcDbBlockEnd
  0
BLOCK
  5
D
330
C
100
AcDbEntity
 67
     1
  8
0
100
AcDbBlockBegin
  2
*PAPER_SPACE
 70
     0
 10
0.0
 20
0.0
 30
0.0
  3
*PAPER_SPACE
  1

  0
ENDBLK
  5
E
330
C
100
AcDbEntity
 67
     1
  8
0
100
AcDbBlockEnd
  0
BLOCK
  5
26
330
22
100
AcDbEntity
  8
0
100
AcDbBlockBegin
  2
TICK
 70
     0
 10
0.0
 20
0.0
 30
0.0
  3
TICK
  1

  0
LINE
  5
23
330
22
100
AcDbEntity
  8
05C
100
AcDbLine
 10
-0.7071067811865462
 20
-0.7071067811865462
 30
0.0
 11
0.7071067811865533
 21
0.7071067811865533
 31
0.0
  0
LINE
  5
25
330
22
100
AcDbEntity
  8
0
100
AcDbLine
 10
-1.0
 20
0.0
 30
0.0
 11
1.000000000000056
 21
0.0
 31
0.0
  0
ENDBLK
  5
27
330
22
100
AcDbEntity
  8
0
100
AcDbBlockEnd
  0
BLOCK
  5
31
330
2C
100
AcDbEntity
  8
0
100
AcDbBlockBegin
  2
COTA
 70
     0
 10
0.0
 20
0.0
 30
0.0
  3
COTA
  1

  0
LINE
  5
2D
330
2C
100
AcDbEntity
  8
0
  6
CONTINUOUS
 62
     4
100
AcDbLine
 10
-0.707106781186667
 20
-0.707106781186667
 30
0.0
 11
0.0
 21
0.0
 31
0.0
  0
LINE
  5
2E
330
2C
100
AcDbEntity
  8
0
  6
CONTINUOUS
 62
     4
100
AcDbLine
 10
0.0
 20
0.0
 30
0.0
 11
0.707106781186667
 21
0.707106781186667
 31
0.0
  0
LINE
  5
2F
330
2C
100
AcDbEntity
  8
0
  6
CONTINUOUS
 62
     7
100
AcDbLine
 10
-1.0
 20
0.0
 30
0.0
 11
0.0
 21
0.0
 31
0.0
  0
LINE
  5
30
330
2C
100
AcDbEntity
  8
0
  6
CONTINUOUS
 62
     7
100
AcDbLine
 10
0.0
 20
0.0
 30
0.0
 11
1.5
 21
0.0
 31
0.0
  0
ENDBLK
  5
32
330
2C
100
AcDbEntity
  8
0
100
AcDbBlockEnd
  0
BLOCK
  5
A7
330
A4
100
AcDbEntity
  8
0
100
AcDbBlockBegin
  2
SIM10
 70
     0
 10
0.0
 20
0.0
 30
0.0
  3
SIM10
  1

  0
TEXT
  5
A5
330
A4
100
AcDbEntity
  8
0
  6
CONTINUOUS
 62
     0
100
AcDbText
 10
-0.6190476190476188
 20
-0.4285714285714286
 30
0.0
 40
1.0
  1
K
  7
SYMATH
 72
     4
 11
0.0
 21
0.0
 31
0.0
100
AcDbText
  0
ENDBLK
  5
A8
330
A4
100
AcDbEntity
  8
0
100
AcDbBlockEnd
  0
ENDSEC
  0
SECTION
  2
ENTITIES
  0
LWPOLYLINE
  5
33
330
2
100
AcDbEntity
  8
0
  6
TRAZOS
 62
     5
100
AcDbPolyline
 90
        2
 70
     0
 43
1.0
 10
397.8138884138349
 20
221.4999999941753
 10
293.8138884138357
 20
221.499999994173
  0
LWPOLYLINE
  5
35
330
2
100
AcDbEntity
  8
0
  6
TRAZOS
 62
     5
100
AcDbPolyline
 90
        2
 70
     0
 43
1.0
 38
-0.0000000729735753
 10
293.8138884138357
 20
260.2499255860916
 10
397.8138884138354
 20
260.2499255861002
  0
LINE
  5
36
330
2
100
AcDbEntity
  8
0
 62
     7
100
AcDbLine
 10
304.3694113846362
 20
157.7516030092717
 30
-0.0000001280805562
 11
341.0489690040122
 21
157.7516030092717
 31
-0.0000001280805562
  0
TEXT
  5
37
330
2
100
AcDbEntity
  8
KR-TEXTOS
  6
CONTINUOUS
100
AcDbText
 10
305.9446438424539
 20
154.7974556704055
 30
-0.0000001280805562
 40
2.0
  1
HEA 800 A52d
  7
DEYP
100
AcDbText
  0
TEXT
  5
39
330
2
100
AcDbEntity
  8
KR-TEXTOS
  6
CONTINUOUS
100
AcDbText
 10
305.9446438424539
 20
158.705750348138
 30
-0.0000001280805562
 40
2.0
  1
V. TRANSV. MIX. CONT.
  7
DEYP
100
AcDbText
  0
LINE
  5
3A
330
2
100
AcDbEntity
  8
0
 62
     7
100
AcDbLine
 10
304.1282605737667
 20
95.00963430685903
 30
-0.0000001821686308
 11
329.774420247272
 21
95.00963430685903
 31
-0.0000001821686308
  0
TEXT
  5
3B
330
2
100
AcDbEntity
  8
KR-TEXTOS
  6
CONTINUOUS
100
AcDbText
 10
305.594499742662
 20
92.05548696799274
 30
-0.0000001821686308
 40
2.0
  1
HEB 800 A52d
  7
DEYP
100
AcDbText
  0
TEXT
  5
3C
330
2
100
AcDbEntity
  8
KR-TEXTOS
  6
CONTINUOUS
100
AcDbText
 10
305.594499742662
 20
95.96378164572531
 30
-0.0000001821686308
 40
2.0
  1
V. TRANSV. MIX.
  7
DEYP
100
AcDbText
  0
LWPOLYLINE
  5
3D
330
2
100
AcDbEntity
  8
0
  6
TRAZOS
 62
     5
100
AcDbPolyline
 90
        2
 70
     0
 43
1.0
 38
-0.0000001821687349
 10
397.8138884138354
 20
144.0350202749182
 10
293.8138884138357
 20
144.0350202749159
  0
LWPOLYLINE
  5
3E
330
2
100
AcDbEntity
  8
0
  6
TRAZOS
 62
     5
100
AcDbPolyline
 90
        2
 70
     0
 43
1.0
 38
-0.0000001944026668
 10
293.8138884138357
 20
182.7675101345382
 10
397.8138884138359
 20
182.7675101345469
  0
TEXT
  5
3F
330
2
100
AcDbEntity
  8
KR-TEXTOS
100
AcDbText
 10
286.8652442491772
 20
-42.27392389623753
 30
-0.000000285910333
 40
2.0
  1
ALTILLOS Y CRUJÍA LATERAL SEGÚN VERSIÓN
  7
ROMANS
 11
286.8652442491772
 21
-41.27392389623753
 31
-0.000000285910333
100
AcDbText
 73
     2
  0
TEXT
  5
40
330
2
100
AcDbEntity
  8
KR-TEXTOS
100
AcDbText
 10
286.8652442491772
 20
-45.82090935195958
 30
-0.000000285910333
 40
2.0
  1
ANTERIOR DE PLANOS DE ARQUITECTURA
  7
ROMANS
 11
286.8652442491772
 21
-44.82090935195958
 31
-0.000000285910333
100
AcDbText
 73
     2
  0
LWPOLYLINE
  5
41
330
2
100
AcDbEntity
  8
0
  6
TRAZOS
 62
     5
100
AcDbPolyline
 90
        2
 70
     0
 43
1.0
 38
-0.0000002464694888
 10
397.8138884138354
 20
68.02002297649119
 10
293.8138884138357
 20
68.02002297648894
  0
LWPOLYLINE
  5
42
330
2
100
AcDbEntity
  8
0
  6
TRAZOS
 62
     5
100
AcDbPolyline
 90
        2
 70
     0
 43
1.0
 38
-0.0000002143191116
 10
293.8138884138357
 20
106.0275216256945
 10
397.8138884138359
 20
106.0275216257048
  0
LWPOLYLINE
  5
43
330
2
100
AcDbEntity
  8
0
  6
TRAZOS
 62
     5
100
AcDbPolyline
 90
        2
 70
     0
 43
1.0
 38
-0.0000003576921113
 10
293.8138884138357
 20
34.01001148823723
 10
397.8138884138354
 20
34.01001148824593
  0
TEXT
  5
44
330
2
100
AcDbEntity
  8
KR-TEXTOS
100
AcDbText
 10
107.018422373103
 20
-73.84413252732191
 30
-0.000000285910333
 40
2.0
  1
PUNTOS DE UNIÓN DE ARRIOSTRAMIENTOS SALVO CARÁCTER ARRIOSTRANTE DE LOS PANELES DE CUBIERTA CON CONDICIONES DE UNION APROPÌADAS
  7
ROMANS
 11
107.018422373103
 21
-72.8441325273219
 31
-0.000000285910333
100
AcDbText
 73
     2
  0
TEXT
  5
45
330
2
100
AcDbEntity
  8
KR-TEXTOS
100
AcDbText
 10
107.018422373103
 20
-68.60603728922672
 30
-0.000000285910333
 40
2.0
  1
VIGA O SOPORTE CUYA SECCIÓN METÁLICA ES CONTINUA SIN INTERRUPCIONES, YA SEA ENTERIZA O CON UNIONES SOLDADAS EN TALLER, A TOPE (PENETRACIÓN COMPLETA)
  7
ROMANS
 11
107.018422373103
 21
-67.60603728922672
 31
-0.000000285910333
100
AcDbText
 73
     2
  0
LINE
  5
46
330
2
100
AcDbEntity
  8
0
100
AcDbLine
 10
399.8138884138358
 20
-16.75086762144894
 30
-0.000000550534311
 11
293.8138884138357
 21
-16.75086762144917
 31
-0.0000005438778363
  0
LINE
  5
47
330
2
100
AcDbEntity
  8
0
  6
TRAZO_Y_PUNTO
100
AcDbLine
 10
397.8138884138349
 20
307.898968613998
 30
-0.0000003953236256
 11
293.8138884138357
 21
329.0239686139952
 31
-0.0000001695788186
  0
LINE
  5
49
330
2
100
AcDbEntity
  8
9
100
AcDbLine
 10
328.6566932574112
 20
325.0077879802554
 30
-0.000000243913165
 11
293.9151804451933
 21
332.0646577702361
 31
-0.0000001685024332
  0
LWPOLYLINE
  5
4C
330
2
100
AcDbEntity
  8
0
100
AcDbPolyline
 90
        4
 70
     0
 43
0.0
 38
-0.0000003643374698
 10
-93.66802461601741
 20
123.7194378581611
 10
-98.66802461601743
 20
123.7194378581611
 10
-98.6680246160181
 20
150.5988274665337
 10
-93.66802461601787
 20
150.5988274665338
  0
CIRCLE
  5
4D
330
2
100
AcDbEntity
  8
0
  6
RAYITAS
 62
     9
100
AcDbCircle
 10
293.8138884138357
 20
144.0350202749096
 30
-0.0000001821687349
 40
4.54103961029341
  0
LWPOLYLINE
  5
4F
330
2
100
AcDbEntity
  8
0
 62
     5
100
AcDbPolyline
 90
        2
 70
     0
 43
1.0
 38
-0.000000070133344
 10
293.8138884138357
 20
328.6281581117441
 10
293.8138884138357
 20
-0.0000000000161435
  0
CIRCLE
  5
50
330
2
100
AcDbEntity
  8
0
  6
RAYITAS
 62
     9
100
AcDbCircle
 10
90.61570971854948
 20
144.0350202749116
 30
-0.0000001821687349
 40
4.54103961029341
  0
TEXT
  5
51
330
2
100
AcDbEntity
  8
KR-TEXTOS
  6
CONTINUOUS
100
AcDbText
 10
114.8117061116797
 20
146.4100146058553
 30
-0.0000001821687349
 40
2.0
  1
CONTRAFLECHA DE EJECUCION = L/1000
  7
DEYP
 72
     1
 11
146.9069442069178
 21
147.4100146058553
 31
-0.0000001821687349
100
AcDbText
 73
     2
  0
CIRCLE
  5
52
330
2
100
AcDbEntity
  8
0
  6
RAYITAS
 62
     9
100
AcDbCircle
 10
0.0
 20
144.0350202749096
 30
-0.0000001821687349
 40
4.54103961029341
  0
TEXT
  5
53
330
2
100
AcDbEntity
  8
KR-TEXTOS
  6
CONTINUOUS
100
AcDbText
 10
-26.57505208222687
 20
145.4123724198884
 30
-0.0000001821687349
 40
2.0
  1
V. MIX. CONT.
  7
DEYP
100
AcDbText
  0
LWPOLYLINE
  5
54
330
2
100
AcDbEntity
  8
0
 62
     5
100
AcDbPolyline
 90
        3
 70
     0
 10
293.8138884138357
 20
221.499999994173
 40
1.0
 41
1.0
 10
0.0
 20
221.4999999941665
 40
1.0
 41
1.0
 10
0.0
 20
0.0
 40
0.0
 41
0.0
  0
LINE
  5
55
330
2
100
AcDbEntity
  8
9
100
AcDbLine
 10
282.0596097217407
 20
129.8501151129842
 30
-0.0000002155070287
 11
282.0596097217408
 21
156.5146781824826
 31
-0.000000243241128
  0
LINE
  5
56
330
2
100
AcDbEntity
  8
0
100
AcDbLine
 10
-3.529680578956003
 20
146.8920109561675
 30
-0.0000001844938579
 11
-15.50332114371099
 21
156.5837036600876
 31
-0.0000001923813101
  0
CIRCLE
  5
57
330
2
100
AcDbEntity
  8
0
  6
RAYITAS
 62
     9
100
AcDbCircle
 10
-30.0
 20
144.0350202749096
 30
-0.0000003371461843
 40
3.405779707720057
  0
LINE
  5
58
330
2
100
AcDbEntity
  8
9
100
AcDbLine
 10
-11.75427869209488
 20
116.2719495856242
 30
-0.0000002198321249
 11
-11.75427869209465
 21
198.215949311276
 31
-0.0000003103643745
  0
LINE
  5
59
330
2
100
AcDbEntity
  8
9
100
AcDbLine
 10
-11.75427869209511
 20
-0.0000000000075033
 30
-0.0000000302770653
 11
-11.75427869209511
 21
95.78309366576787
 31
-0.0000001864296893
  0
LINE
  5
5A
330
2
100
AcDbEntity
  8
0
100
AcDbLine
 10
289.6310759239347
 20
69.91898587479614
 30
-0.0000000448198307
 11
275.8790027432419
 21
84.34982647842957
 31
-0.0000001923813101
  0
LINE
  5
5B
330
2
100
AcDbEntity
  8
0
  6
TRAZO_Y_PUNTO
100
AcDbLine
 10
246.9068297778551
 20
106.6850126289273
 30
-0.0000002219579578
 11
293.8138884138357
 21
144.0350202749096
 31
-0.0000001821687349
  0
LINE
  5
5C
330
2
100
AcDbEntity
  8
0
  6
TRAZO_Y_PUNTO
100
AcDbLine
 10
46.90682962807954
 20
106.6850126289273
 30
-0.000000221957995
 11
0.0
 21
144.0350202749096
 31
-0.0000001821687349
  0
LINE
  5
5D
330
2
100
AcDbEntity
  8
0
  6
TRAZO_Y_PUNTO
100
AcDbLine
 10
196.9068296280886
 20
106.6850126289273
 30
-0.000000221957995
 11
246.9068297778551
 21
144.0350202749096
 31
-0.0000001817732374
  0
LINE
  5
5E
330
2
100
AcDbEntity
  8
0
  6
TRAZO_Y_PUNTO
100
AcDbLine
 10
146.9069442069169
 20
106.6850126289273
 30
-0.0000002219580322
 11
196.9068296280795
 21
144.0350202749096
 31
-0.0000001817732502
  0
LINE
  5
5F
330
2
100
AcDbEntity
  8
0
  6
TRAZO_Y_PUNTO
100
AcDbLine
 10
146.9068296280795
 20
144.0350202749096
 30
-0.0000001817732259
 11
146.9068296280795
 21
106.6850126289364
 31
-0.000000221957995
  0
LINE
  5
60
330
2
100
AcDbEntity
  8
0
  6
TRAZO_Y_PUNTO
100
AcDbLine
 10
196.9068296280795
 20
144.0350202749096
 30
-0.0000001817732502
 11
196.9068296280886
 21
106.6850126289273
 31
-0.000000221957995
  0
LINE
  5
61
330
2
100
AcDbEntity
  8
0
  6
TRAZO_Y_PUNTO
100
AcDbLine
 10
246.9068297778551
 20
144.0350202749004
 30
-0.0000001817731886
 11
246.9068297778551
 21
106.6850126289273
 31
-0.0000002219579578
  0
LINE
  5
62
330
2
100
AcDbEntity
  8
0
  6
TRAZO_Y_PUNTO
100
AcDbLine
 10
96.90682962807954
 20
106.6850126289273
 30
-0.000000221957995
 11
46.90682962807954
 21
144.0350202749096
 31
-0.0000001817732887
  0
LINE
  5
63
330
2
100
AcDbEntity
  8
0
  6
TRAZO_Y_PUNTO
100
AcDbLine
 10
46.90682962807954
 20
144.0350202749096
 30
-0.0000001817732258
 11
46.90682962807954
 21
106.6850126289273
 31
-0.000000221957995
  0
LINE
  5
64
330
2
100
AcDbEntity
  8
0
  6
TRAZO_Y_PUNTO
100
AcDbLine
 10
96.90682962807954
 20
144.0350202749096
 30
-0.0000001817732759
 11
96.90682962807954
 21
106.6850126289273
 31
-0.000000221957995
  0
LINE
  5
65
330
2
100
AcDbEntity
  8
0
  6
TRAZO_Y_PUNTO
100
AcDbLine
 10
96.90682962807954
 20
144.0350202749096
 30
-0.0000001817732759
 11
146.9069442069169
 21
106.6850126289273
 31
-0.0000002219580322
  0
LINE
  5
66
330
2
100
AcDbEntity
  8
0
100
AcDbLine
 10
221.9138007380418
 20
87.79619051669811
 30
-0.0000001821686308
 11
223.8038506817247
 21
102.1827469668392
 31
-0.0000002124737505
  0
LINE
  5
67
330
2
100
AcDbEntity
  8
0
100
AcDbLine
 10
304.1282605737667
 20
95.00963430685903
 30
-0.0000001821686308
 11
296.9172929212593
 21
102.712502209181
 31
-0.0000002046455516
  0
LINE
  5
68
330
2
100
AcDbEntity
  8
9
100
AcDbLine
 10
282.0596097217407
 20
99.02888768451568
 30
-0.0000001755888
 11
282.0596097217407
 21
109.361259193128
 31
-0.0000001837850525
  0
TEXT
  5
69
330
2
100
AcDbEntity
  8
KR-TEXTOS
  6
CONTINUOUS
100
AcDbText
 10
-69.23607020276882
 20
66.48995790364256
 30
-0.0000001923813101
 40
2.0
  1
APOYOS ARTICULADOS DE
  7
DEYP
100
AcDbText
  0
TEXT
  5
6A
330
2
100
AcDbEntity
  8
KR-TEXTOS
  6
CONTINUOUS
100
AcDbText
 10
-69.23607020276882
 20
59.33166322591
 30
-0.0000001923813101
 40
2.0
  1
SOPORTES DE SOTANOS
  7
DEYP
100
AcDbText
  0
TEXT
  5
6B
330
2
100
AcDbEntity
  8
KR-TEXTOS
  6
CONTINUOUS
100
AcDbText
 10
-59.03404642114576
 20
132.5178912173078
 30
-0.0000003059781297
 40
2.0
  1
SEGUN VANOS
  7
DEYP
 72
     1
 11
-48.31976070686005
 21
133.5178912173078
 31
-0.0000003059781297
100
AcDbText
 73
     2
  0
TEXT
  5
6C
330
2
100
AcDbEntity
  8
KR-TEXTOS
  6
CONTINUOUS
100
AcDbText
 10
-69.23607020276882
 20
62.58166322591001
 30
-0.0000001923813101
 40
2.0
  1
ESTRUCTURA METALICA SOBRE
  7
DEYP
100
AcDbText
  0
LINE
  5
6D
330
2
100
AcDbEntity
  8
0
 62
     7
100
AcDbLine
 10
-68.89684314696774
 20
65.53581056477629
 30
-0.0000001923813101
 11
-15.37093266301758
 21
65.53581056477629
 31
-0.0000001923813101
  0
LINE
  5
6E
330
2
100
AcDbEntity
  8
0
 62
     7
100
AcDbLine
 10
-86.63608564795458
 20
137.1545991197788
 30
-0.0000003990179094
 11
-36.73038804239786
 21
137.1545991197788
 31
-0.0000003990179094
  0
TEXT
  5
6F
330
2
100
AcDbEntity
  8
KR-TEXTOS
  6
CONTINUOUS
100
AcDbText
 10
-104.6008026027528
 20
135.9091326623474
 30
-0.00000044122814
 40
2.5
  1
$2
  7
DEYP
 72
     1
 11
-102.2198502218004
 21
137.1591326623474
 31
-0.00000044122814
100
AcDbText
 73
     2
  0
TEXT
  5
70
330
2
100
AcDbEntity
  8
KR-TEXTOS
  6
CONTINUOUS
100
AcDbText
 10
-86.97531270375566
 20
134.2004517809125
 30
-0.0000003990179094
 40
2.0
  1
IPE 500 A52
  7
DEYP
100
AcDbText
  0
TEXT
  5
71
330
2
100
AcDbEntity
  8
KR-TEXTOS
  6
CONTINUOUS
100
AcDbText
 10
-86.97531270375566
 20
138.1087464586451
 30
-0.0000003990179094
 40
2.0
  1
V.B. MIX. CONT.
  7
DEYP
100
AcDbText
  0
TEXT
  5
72
330
2
100
AcDbEntity
  8
KR-TEXTOS
  6
CONTINUOUS
100
AcDbText
 10
-86.97531270375566
 20
127.4831856320276
 30
-0.0000003990179094
 40
2.0
  1
+ UPN 120 A52
  7
DEYP
100
AcDbText
  0
TEXT
  5
73
330
2
100
AcDbEntity
  8
KR-TEXTOS
  6
CONTINUOUS
100
AcDbText
 10
-86.97531270375566
 20
130.8418187064701
 30
-0.0000003990179094
 40
2.0
  1
ó HEA 500 A52
  7
DEYP
100
AcDbText
  0
LINE
  5
74
330
2
100
AcDbEntity
  8
0
 62
     5
100
AcDbLine
 10
-80.73854828045956
 20
63.02002297649119
 30
-0.0000002486762412
 11
-74.73854828045955
 21
63.02002297649074
 31
-0.000000248587918
  0
LWPOLYLINE
  5
75
330
2
100
AcDbEntity
  8
0
 62
     5
100
AcDbPolyline
 90
        2
 70
     0
 43
1.0
 38
-0.0000002464694888
 10
-72.2169256312959
 20
68.02002297648255
 10
-77.73274455136607
 20
68.02002297648255
  0
LWPOLYLINE
  5
76
330
2
100
AcDbEntity
  8
9
100
AcDbPolyline
 90
        7
 70
     0
 43
0.0
 38
-0.0000003059781297
 10
-61.27615933023003
 20
130.8585717804128
 10
-60.67953798360372
 20
131.4551931270387
 10
-60.67953798360372
 20
132.9212698706818
 10
-60.08291663697765
 20
133.5178912173078
 10
-60.67953798360372
 20
134.1145125639341
 10
-60.67953798360372
 20
135.5805893075764
 10
-61.27615933023003
 20
136.1772106542027
  0
TEXT
  5
77
330
2
100
AcDbEntity
  8
KR-TEXTOS
  6
CONTINUOUS
100
AcDbText
 10
280.0169455560947
 20
140.5392089197598
 30
-0.0000006114116559
 40
2.0
  1
2.0
  7
DEYP
 72
     1
 11
282.3978979370471
 21
141.5392089197598
 31
-0.0000006114116559
100
AcDbText
 73
     2
  0
LINE
  5
78
330
2
100
AcDbEntity
  8
7
100
AcDbLine
 10
135.3723671199079
 20
67.52002297648255
 30
-0.0000002464694888
 11
132.3723671199079
 21
67.52002297648255
 31
-0.0000002464694888
  0
LINE
  5
7B
330
2
100
AcDbEntity
  8
7
100
AcDbLine
 10
135.3723671199079
 20
67.52002297648255
 30
-0.0000002464694888
 11
132.3723671199079
 21
67.52002297648255
 31
-0.0000002464694888
  0
LINE
  5
7C
330
2
100
AcDbEntity
  8
0
100
AcDbLine
 10
133.8723671199083
 20
67.52002297648255
 30
-0.0000002464694888
 11
134.9330272916884
 21
66.45936280470255
 31
-0.0000002464694888
  0
LINE
  5
7D
330
2
100
AcDbEntity
  8
0
 62
     7
100
AcDbLine
 10
159.3184742593453
 20
87.98954095992867
 30
-0.0000002552688041
 11
107.4989862126404
 21
87.98954095992867
 31
-0.0000002552688041
  0
TEXT
  5
7E
330
2
100
AcDbEntity
  8
KR-TEXTOS
  6
CONTINUOUS
100
AcDbText
 10
108.6873617343047
 20
88.94368829879494
 30
-0.0000002552688041
 40
2.0
  1
PERFIL DE FORJADO MIXT. CONT.
  7
DEYP
100
AcDbText
  0
TEXT
  5
7F
330
2
100
AcDbEntity
  8
KR-TEXTOS
100
AcDbText
 10
107.018422373103
 20
-52.89175157494117
 30
-0.000000285910333
 40
2.0
  1
VIGA TRANSVERSAL AL PÓRTICO
  7
ROMANS
 11
107.018422373103
 21
-51.89175157494116
 31
-0.000000285910333
100
AcDbText
 73
     2
  0
TEXT
  5
80
330
2
100
AcDbEntity
  8
KR-TEXTOS
100
AcDbText
 10
107.018422373103
 20
-58.12984681303635
 30
-0.000000285910333
 40
2.0
  1
VIGA MIXTA CON CONECTADORES DEFINIDOS EN CUADROS APARTE
  7
ROMANS
 11
107.018422373103
 21
-57.12984681303635
 31
-0.000000285910333
100
AcDbText
 73
     2
  0
TEXT
  5
81
330
2
100
AcDbEntity
  8
KR-TEXTOS
  6
CONTINUOUS
100
AcDbText
 10
123.6241317857502
 20
76.9945974991499
 30
-0.0000002464694888
 40
2.0
  1
3.0-   12%%C12/0.200   -3.0
  7
DEYP
 72
     1
 11
146.9098460714644
 21
77.99459749914991
 31
-0.0000002464694888
100
AcDbText
 73
     2
  0
LINE
  5
82
330
2
100
AcDbEntity
  8
0
 62
     4
100
AcDbLine
 10
176.9098460714644
 20
76.02002297648255
 30
-0.0000002464694888
 11
116.9098460714644
 21
76.02002297648255
 31
-0.0000002464694888
  0
TEXT
  5
83
330
2
100
AcDbEntity
  8
KR-TEXTOS
100
AcDbText
 10
107.018422373103
 20
-63.36794205113154
 30
-0.000000285910333
 40
2.0
  1
VIGA CON PERFIL INTERRUMPIDO PERO CON UNIONES EN CONTINUIDAD DEFINIDAS EN DETALLES APARTE
  7
ROMANS
 11
107.018422373103
 21
-62.36794205113153
 31
-0.000000285910333
100
AcDbText
 73
     2
  0
LWPOLYLINE
  5
84
330
2
100
AcDbEntity
  8
0
 62
     5
100
AcDbPolyline
 90
        2
 70
     0
 43
1.0
 38
-0.000000221958007
 10
0.0
 20
106.6850126289273
 10
293.8138884138357
 20
106.6850126289273
  0
LWPOLYLINE
  5
85
330
2
100
AcDbEntity
  8
0
 62
     5
100
AcDbPolyline
 90
        2
 70
     0
 43
1.0
 38
-0.0000002464694888
 10
293.8138884138357
 20
68.02002297648894
 10
0.0058037290932589
 20
68.02002297648255
  0
LINE
  5
86
330
2
100
AcDbEntity
  8
0
 62
     5
100
AcDbLine
 10
-5.0
 20
0.0000000000006821
 30
-0.0000002323618197
 11
5.0
 21
0.0
 31
-0.0000002322146144
  0
TEXT
  5
87
330
2
100
AcDbEntity
  8
KR-TEXTOS
100
AcDbText
 10
80.72867442819916
 20
-68.60603728922672
 30
-0.000000285910333
 40
2.0
  1
SIN INT.
  7
ROMANS
 11
80.72867442819916
 21
-67.60603728922672
 31
-0.000000285910333
100
AcDbText
 73
     2
  0
TEXT
  5
88
330
2
100
AcDbEntity
  8
KR-TEXTOS
100
AcDbText
 10
80.72867442819916
 20
-73.84413252732191
 30
-0.000000285910333
 40
2.0
  1
A
  7
ROMANS
 11
80.72867442819916
 21
-72.8441325273219
 31
-0.000000285910333
100
AcDbText
 73
     2
  0
TEXT
  5
89
330
2
100
AcDbEntity
  8
KR-TEXTOS
100
AcDbText
 10
101.6178127160892
 20
-68.60603728922672
 30
-0.000000285910333
 40
2.0
  1
:
  7
ROMANS
 11
101.6178127160892
 21
-67.60603728922672
 31
-0.000000285910333
100
AcDbText
 73
     2
  0
TEXT
  5
8A
330
2
100
AcDbEntity
  8
KR-TEXTOS
100
AcDbText
 10
101.6178127160892
 20
-73.84413252732191
 30
-0.000000285910333
 40
2.0
  1
:
  7
ROMANS
 11
101.6178127160892
 21
-72.8441325273219
 31
-0.000000285910333
100
AcDbText
 73
     2
  0
TEXT
  5
8B
330
2
100
AcDbEntity
  8
KR-TEXTOS
100
AcDbText
 10
80.72867442819916
 20
-58.12984681303635
 30
-0.000000285910333
 40
2.0
  1
V. MIX.
  7
ROMANS
 11
80.72867442819916
 21
-57.12984681303635
 31
-0.000000285910333
100
AcDbText
 73
     2
  0
TEXT
  5
8C
330
2
100
AcDbEntity
  8
KR-TEXTOS
100
AcDbText
 10
80.72867442819916
 20
-52.89175157494117
 30
-0.000000285910333
 40
2.0
  1
V. TRANSV.
  7
ROMANS
 11
80.72867442819916
 21
-51.89175157494116
 31
-0.000000285910333
100
AcDbText
 73
     2
  0
TEXT
  5
8D
330
2
100
AcDbEntity
  8
KR-TEXTOS
100
AcDbText
 10
80.72867442819916
 20
-63.36794205113154
 30
-0.000000285910333
 40
2.0
  1
V. CONT.
  7
ROMANS
 11
80.72867442819916
 21
-62.36794205113153
 31
-0.000000285910333
100
AcDbText
 73
     2
  0
TEXT
  5
8E
330
2
100
AcDbEntity
  8
KR-TEXTOS
100
AcDbText
 10
80.72867442819916
 20
-47.65365633684598
 30
-0.000000285910333
 40
2.0
  1
V.B.
  7
ROMANS
 11
80.72867442819916
 21
-46.65365633684598
 31
-0.000000285910333
100
AcDbText
 73
     2
  0
TEXT
  5
8F
330
2
100
AcDbEntity
  8
KR-TEXTOS
100
AcDbText
 10
107.018422373103
 20
-47.65365633684598
 30
-0.000000285910333
 40
2.0
  1
VIGA DE BORDE
  7
ROMANS
 11
107.018422373103
 21
-46.65365633684598
 31
-0.000000285910333
100
AcDbText
 73
     2
  0
TEXT
  5
90
330
2
100
AcDbEntity
  8
KR-TEXTOS
100
AcDbText
 10
101.6178127160892
 20
-52.89175157494117
 30
-0.000000285910333
 40
2.0
  1
:
  7
ROMANS
 11
101.6178127160892
 21
-51.89175157494116
 31
-0.000000285910333
100
AcDbText
 73
     2
  0
TEXT
  5
91
330
2
100
AcDbEntity
  8
KR-TEXTOS
100
AcDbText
 10
101.6178127160892
 20
-63.36794205113154
 30
-0.000000285910333
 40
2.0
  1
:
  7
ROMANS
 11
101.6178127160892
 21
-62.36794205113153
 31
-0.000000285910333
100
AcDbText
 73
     2
  0
TEXT
  5
92
330
2
100
AcDbEntity
  8
KR-TEXTOS
100
AcDbText
 10
101.6178127160892
 20
-58.12984681303635
 30
-0.000000285910333
 40
2.0
  1
:
  7
ROMANS
 11
101.6178127160892
 21
-57.12984681303635
 31
-0.000000285910333
100
AcDbText
 73
     2
  0
TEXT
  5
93
330
2
100
AcDbEntity
  8
KR-TEXTOS
100
AcDbText
 10
101.6178127160892
 20
-47.65365633684598
 30
-0.000000285910333
 40
2.0
  1
:
  7
ROMANS
 11
101.6178127160892
 21
-46.65365633684598
 31
-0.000000285910333
100
AcDbText
 73
     2
  0
LINE
  5
94
330
2
100
AcDbEntity
  8
0
100
AcDbLine
 10
-32.38155889652216
 20
141.6003719142805
 30
-0.0000003590395962
 11
-36.73038804239786
 21
137.1545991197788
 31
-0.0000003990179094
  0
TEXT
  5
95
330
2
100
AcDbEntity
  8
KR-TEXTOS
  6
CONTINUOUS
100
AcDbText
 10
-12.82717733314143
 20
27.18858291680872
 30
-0.0000002464694888
 40
2.0
  1
(A1, B1)
 50
90.0
  7
DEYP
 72
     1
 11
-13.82717733314143
 21
33.76001148823729
 31
-0.0000002464694888
100
AcDbText
 73
     2
  0
LINE
  5
96
330
2
100
AcDbEntity
  8
0
100
AcDbLine
 10
-11.75427869209511
 20
67.52002297648255
 30
-0.0000002464694888
 11
-10.69361852031511
 21
68.58068314826209
 31
-0.0000002464694888
  0
LINE
  5
97
330
2
100
AcDbEntity
  8
0
100
AcDbLine
 10
-11.75427869209511
 20
67.52002297648255
 30
-0.0000002464694888
 11
-10.69361852031511
 21
66.45936280470255
 31
-0.0000002464694888
  0
LINE
  5
98
330
2
100
AcDbEntity
  8
9
100
AcDbLine
 10
-11.75427869209556
 20
67.520022976483
 30
-0.0000002464694888
 11
-12.81493886387556
 21
68.58068314826255
 31
-0.0000002464694888
  0
LINE
  5
99
330
2
100
AcDbEntity
  8
7
100
AcDbLine
 10
-10.25427869209556
 20
67.52002297648255
 30
-0.0000002464694888
 11
-13.25427869209556
 21
67.52002297648255
 31
-0.0000002464694888
  0
LINE
  5
9A
330
2
100
AcDbEntity
  8
7
100
AcDbLine
 10
-10.25427869209556
 20
67.52002297648255
 30
-0.0000002464694888
 11
-13.25427869209556
 21
67.52002297648255
 31
-0.0000002464694888
  0
LINE
  5
9B
330
2
100
AcDbEntity
  8
9
100
AcDbLine
 10
-11.75427869209556
 20
67.5200229764821
 30
-0.0000002464694888
 11
-12.81493886387556
 21
66.45936280470255
 31
-0.0000002464694888
  0
LINE
  5
9C
330
2
100
AcDbEntity
  8
0
 62
     5
100
AcDbLine
 10
-3.000000000000227
 20
63.02002297649119
 30
-0.0000002486762412
 11
2.999999999999772
 21
63.02002297649074
 31
-0.000000248587918
  0
TEXT
  5
9D
330
2
100
AcDbEntity
  8
KR-TEXTOS
  6
CONTINUOUS
100
AcDbText
 10
7.8300628715356
 20
140.5392089197598
 30
-0.0000003643374698
 40
2.0
  1
2.0
  7
DEYP
 72
     1
 11
10.21101525248798
 21
141.5392089197598
 31
-0.0000003643374698
100
AcDbText
 73
     2
  0
LWPOLYLINE
  5
9E
330
2
100
AcDbEntity
  8
9
100
AcDbPolyline
 90
        7
 70
     0
 43
0.0
 38
-0.0000001881101487
 10
-4.886595297703252
 20
114.1506292420644
 10
-5.947255469483025
 20
115.2112894138442
 10
-10.69361852031511
 20
115.2112894138442
 10
-11.75427869209488
 20
116.2719495856242
 10
-12.81493886387465
 20
115.2112894138442
 10
-17.53076621215041
 20
115.2112894138442
 10
-18.59142638393018
 20
114.1506292420644
  0
LWPOLYLINE
  5
9F
330
2
100
AcDbEntity
  8
9
100
AcDbPolyline
 90
        7
 70
     0
 43
0.0
 38
-0.0000001881101487
 10
-4.886595297703252
 20
97.90441400932763
 10
-5.947255469483025
 20
96.84375383754787
 10
-10.69361852031511
 20
96.84375383754787
 10
-11.75427869209488
 20
95.78309366576808
 10
-12.81493886387465
 20
96.84375383754787
 10
-17.53076621215041
 20
96.84375383754787
 10
-18.59142638393018
 20
97.90441400932763
  0
TEXT
  5
A0
330
2
100
AcDbEntity
  8
KR-TEXTOS
  6
CONTINUOUS
100
AcDbText
 10
-10.75427869209511
 20
102.223307958155
 30
-0.0000002083534965
 40
2.0
  1
30.840
 50
90.0
  7
DEYP
 72
     1
 11
-11.75427869209511
 21
107.4614031962503
 31
-0.0000002083534965
100
AcDbText
 73
     2
  0
TEXT
  5
A1
330
2
100
AcDbEntity
  8
KR-TEXTOS
  6
CONTINUOUS
100
AcDbText
 10
-15.57436442437915
 20
102.175688910536
 30
-0.0000002083534965
 40
2.0
  1
600.80
 50
90.0
  7
DEYP
 72
     1
 11
-16.57436442437915
 21
107.4614031962503
 31
-0.0000002083534965
100
AcDbText
 73
     2
  0
TEXT
  5
A2
330
2
100
AcDbEntity
  8
KR-TEXTOS
  6
CONTINUOUS
100
AcDbText
 10
-5.934192959810616
 20
102.175688910536
 30
-0.0000002083534965
 40
2.0
  1
600.80
 50
90.0
  7
DEYP
 72
     1
 11
-6.934192959810616
 21
107.4614031962503
 31
-0.0000002083534965
100
AcDbText
 73
     2
  0
INSERT
  5
A3
330
2
100
AcDbEntity
  8
KR-TEXTOS
  6
CONTINUOUS
100
AcDbBlockReference
  2
SIM10
 10
-16.57436442437915
 20
100.7696188467409
 30
-0.0000002083534965
 41
2.0
 42
2.0
 43
2.0
 50
90.0
  0
INSERT
  5
A9
330
2
100
AcDbEntity
  8
KR-TEXTOS
  6
CONTINUOUS
100
AcDbBlockReference
  2
SIM10
 10
-6.934192959810616
 20
100.7696188467409
 30
-0.0000002083534965
 41
2.0
 42
2.0
 43
2.0
 50
90.0
  0
INSERT
  5
AA
330
2
100
AcDbEntity
  8
KR-TEXTOS
  6
CONTINUOUS
100
AcDbBlockReference
  2
SIM10
 10
-11.75427869209511
 20
100.7696188467409
 30
-0.0000002083534965
 41
2.0
 42
2.0
 43
2.0
 50
90.0
  0
TEXT
  5
AB
330
2
100
AcDbEntity
  8
KR-TEXTOS
  6
CONTINUOUS
100
AcDbText
 10
12.82458356852271
 20
89.9973098689125
 30
-0.0000001898075262
 40
2.0
  1
HEA 800 A52d
  7
DEYP
100
AcDbText
  0
TEXT
  5
AC
330
2
100
AcDbEntity
  8
KR-TEXTOS
  6
CONTINUOUS
100
AcDbText
 10
12.82458356852271
 20
93.90560454664507
 30
-0.0000001898075262
 40
2.0
  1
V. TRANSV. MIX.
  7
DEYP
100
AcDbText
  0
LINE
  5
AD
330
2
100
AcDbEntity
  8
0
 62
     7
100
AcDbLine
 10
11.35834439962741
 20
92.95145720777879
 30
-0.0000001898075262
 11
37.00450407313269
 21
92.95145720777879
 31
-0.0000001898075262
  0
LINE
  5
AE
330
2
100
AcDbEntity
  8
0
100
AcDbLine
 10
11.35834439962741
 20
92.95145720777879
 30
-0.0000001898075262
 11
4.331383456647927
 21
102.9676591222562
 31
-0.0000002132553988
  0
LWPOLYLINE
  5
AF
330
2
100
AcDbEntity
  8
0
 62
     7
100
AcDbPolyline
 90
        2
 70
     1
 43
0.3599999999999941
 38
-0.0000002219579029
 10
1.543378989011443
 20
106.6850982191402
 42
-1.0
 10
1.903378989011116
 20
106.6850982191402
 42
-1.0
  0
LWPOLYLINE
  5
B0
330
2
100
AcDbEntity
  8
0
 62
     7
100
AcDbPolyline
 90
        2
 70
     1
 43
1.033596233139957
 38
-0.0000002219579029
 10
1.206580872441691
 20
106.6850982191402
 42
-1.0
 10
2.240177105580869
 20
106.6850982191402
 42
-1.0
  0
CIRCLE
  5
B1
330
2
100
AcDbEntity
  8
0
  6
RAYITAS
 62
     9
100
AcDbCircle
 10
1.72337898901128
 20
106.6850982191402
 30
-0.0000002219579029
 40
4.54103961029341
  0
TEXT
  5
B2
330
2
100
AcDbEntity
  8
KR-TEXTOS
  6
CONTINUOUS
100
AcDbText
 10
25.06031338392827
 20
129.6053852634754
 30
-0.0000002590594051
 40
2.5
  1
$5
  7
DEYP
 72
     1
 11
27.44126576488065
 21
130.8553852634754
 31
-0.0000002590594051
100
AcDbText
 73
     2
  0
TEXT
  5
B3
330
2
100
AcDbEntity
  8
KR-TEXTOS
  6
CONTINUOUS
100
AcDbText
 10
15.14397617913956
 20
133.3480485187044
 30
-0.0000001834344999
 40
2.0
  1
HEB 300 A52d
 50
321.4711109839945
  7
DEYP
 72
     1
 11
24.7446423552135
 21
126.981718585266
 31
-0.0000001834344999
100
AcDbText
 73
     2
  0
LINE
  5
B4
330
2
100
AcDbEntity
  8
0
100
AcDbLine
 10
93.2888900945282
 20
71.69087402491266
 30
-0.0000002490997813
 11
107.4989862126404
 21
87.98954095992867
 31
-0.0000002552688041
  0
CIRCLE
  5
B5
330
2
100
AcDbEntity
  8
0
  6
RAYITAS
 62
     9
100
AcDbCircle
 10
90.61570971855116
 20
68.02002297648465
 30
-0.0000002464694888
 40
4.54103961029341
  0
TEXT
  5
B6
330
2
100
AcDbEntity
  8
KR-TEXTOS
  6
CONTINUOUS
100
AcDbText
 10
58.54885159794339
 20
58.85303648506511
 30
-0.0000002464694888
 40
2.0
  1
20.1030
  7
DEYP
 72
     1
 11
64.73932778841959
 21
59.8530364850651
 31
-0.0000002464694888
100
AcDbText
 73
     2
  0
TEXT
  5
B7
330
2
100
AcDbEntity
  8
KR-TEXTOS
  6
CONTINUOUS
100
AcDbText
 10
59.56130627293163
 20
54.03295075278106
 30
-0.0000002464694888
 40
2.0
  1
600.25
  7
DEYP
 72
     1
 11
64.84702055864591
 21
55.03295075278106
 31
-0.0000002464694888
100
AcDbText
 73
     2
  0
TEXT
  5
B8
330
2
100
AcDbEntity
  8
KR-TEXTOS
  6
CONTINUOUS
100
AcDbText
 10
46.59778017858939
 20
69.83625216857922
 30
-0.0000002464694888
 40
2.0
  1
V. MIX. SIN INT. A52d
  7
DEYP
 72
     1
 11
63.45492303573223
 21
70.83625216857922
 31
-0.0000002464694888
100
AcDbText
 73
     2
  0
TEXT
  5
B9
330
2
100
AcDbEntity
  8
KR-TEXTOS
  6
CONTINUOUS
100
AcDbText
 10
59.56130627293163
 20
63.6731222173496
 30
-0.0000002464694888
 40
2.0
  1
600.25
  7
DEYP
 72
     1
 11
64.84702055864591
 21
64.6731222173496
 31
-0.0000002464694888
100
AcDbText
 73
     2
  0
INSERT
  5
BA
330
2
100
AcDbEntity
  8
KR-TEXTOS
  6
CONTINUOUS
100
AcDbBlockReference
  2
SIM10
 10
58.15523620913655
 20
55.03295075278106
 30
-0.0000002464694888
 41
2.0
 42
2.0
 43
2.0
  0
INSERT
  5
BB
330
2
100
AcDbEntity
  8
KR-TEXTOS
  6
CONTINUOUS
100
AcDbBlockReference
  2
SIM10
 10
58.15523620913655
 20
64.6731222173496
 30
-0.0000002464694888
 41
2.0
 42
2.0
 43
2.0
  0
INSERT
  5
BC
330
2
100
AcDbEntity
  8
KR-TEXTOS
  6
CONTINUOUS
100
AcDbBlockReference
  2
SIM10
 10
57.23466880126057
 20
59.8530364850651
 30
-0.0000002464694888
 41
2.0
 42
2.0
 43
2.0
  0
TEXT
  5
BD
330
2
100
AcDbEntity
  8
KR-TEXTOS
  6
CONTINUOUS
100
AcDbText
 10
132.799468478862
 20
18.42863460398312
 30
-0.0000002464694888
 40
2.0
  1
(A2, B2)
 50
90.0
  7
DEYP
 72
     1
 11
131.799468478862
 21
25.00006317541169
 31
-0.0000002464694888
100
AcDbText
 73
     2
  0
LINE
  5
BE
330
2
100
AcDbEntity
  8
9
100
AcDbLine
 10
133.8723671199079
 20
67.5200229764821
 30
-0.0000002464694888
 11
132.8117069481279
 21
66.45936280470255
 31
-0.0000002464694888
  0
TEXT
  5
BF
330
2
100
AcDbEntity
  8
KR-TEXTOS
  6
CONTINUOUS
100
AcDbText
 10
73.54617656379119
 20
130.3805980497577
 30
-0.0000002590594051
 40
2.5
  1
$6
  7
DEYP
 72
     1
 11
75.92712894474357
 21
131.6305980497577
 31
-0.0000002590594051
100
AcDbText
 73
     2
  0
TEXT
  5
C0
330
2
100
AcDbEntity
  8
KR-TEXTOS
  6
CONTINUOUS
100
AcDbText
 10
62.96749010929431
 20
133.3769846871274
 30
-0.0000001837568333
 40
2.0
  1
HEB 260 A52d
 50
323.2402631312524
  7
DEYP
 72
     1
 11
72.76012521438701
 21
127.310087164974
 31
-0.0000001837568333
100
AcDbText
 73
     2
  0
TEXT
  5
C1
330
2
100
AcDbEntity
  8
KR-TEXTOS
  6
CONTINUOUS
100
AcDbText
 10
45.83393098703277
 20
113.8839115659406
 30
-0.0000001832367454
 40
2.0
  1
HEB 280 A52d
 50
90.0
  7
DEYP
 72
     1
 11
44.83393098703277
 21
125.3601020421311
 31
-0.0000001832367454
100
AcDbText
 73
     2
  0
TEXT
  5
C2
330
2
100
AcDbEntity
  8
KR-TEXTOS
  6
CONTINUOUS
100
AcDbText
 10
108.6873617343047
 20
85.03539362106238
 30
-0.0000002552688041
 40
2.0
  1
HEA 600 A52
  7
DEYP
100
AcDbText
  0
TEXT
  5
C3
330
2
100
AcDbEntity
  8
KR-TEXTOS
  6
CONTINUOUS
100
AcDbText
 10
95.83393098703277
 20
113.5952905449364
 30
-0.000000183547297
 40
2.0
  1
HEB 240 A52d
 50
90.0
  7
DEYP
 72
     1
 11
94.83393098703277
 21
125.0714810211268
 31
-0.000000183547297
100
AcDbText
 73
     2
  0
TEXT
  5
C4
330
2
100
AcDbEntity
  8
KR-TEXTOS
  6
CONTINUOUS
100
AcDbText
 10
112.9675473987129
 20
133.3769846871274
 30
-0.0000001837568455
 40
2.0
  1
HEB 180 A52d
 50
323.2402631312524
  7
DEYP
 72
     1
 11
122.7601825038057
 21
127.310087164974
 31
-0.0000001837568455
100
AcDbText
 73
     2
  0
LWPOLYLINE
  5
C5
330
2
100
AcDbEntity
  8
0
 62
     5
100
AcDbPolyline
 90
        2
 70
     0
 43
1.0
 38
-0.0000003576921113
 10
146.9098460714647
 20
-0.0000000000079581
 10
146.9098460714644
 20
68.02002297648255
  0
LINE
  5
C6
330
2
100
AcDbEntity
  8
0
100
AcDbLine
 10
282.0596097217405
 20
-49.79346374253362
 30
-0.000000550534311
 11
282.0596097217403
 21
-31.06327426756831
 31
-0.0000005438778363
  0
LINE
  5
C7
330
2
100
AcDbEntity
  8
0
100
AcDbLine
 10
287.0596097217405
 20
-31.06327426756831
 30
-0.0000005442040508
 11
282.0596097217405
 21
-31.06327426756831
 31
-0.0000005442040508
  0
LINE
  5
C8
330
2
100
AcDbEntity
  8
0
100
AcDbLine
 10
293.8138884138357
 20
-11.75086762144894
 30
-0.0000005442040508
 11
293.8138884138357
 21
-16.75086762144894
 31
-0.0000005442040508
  0
TEXT
  5
C9
330
2
100
AcDbEntity
  8
KR-TEXTOS
  6
CONTINUOUS
100
AcDbText
 10
277.6982603064341
 20
-41.42836900505097
 30
-0.0000004042992656
 40
2.0
  1
1
  7
DEYP
 72
     1
 11
278.507784115958
 21
-40.42836900505096
 31
-0.0000004042992656
100
AcDbText
 73
     2
  0
TEXT
  5
CA
330
2
100
AcDbEntity
  8
KR-TEXTOS
  6
CONTINUOUS
100
AcDbText
 10
273.9390473027497
 20
-41.67836900505096
 30
-0.0000004042992656
 40
2.5
  1
@
  7
DEYP
 72
     1
 11
275.5461901598926
 21
-40.42836900505096
 31
-0.0000004042992656
100
AcDbText
 73
     2
  0
LINE
  5
CB
330
2
100
AcDbEntity
  8
0
 62
     5
100
AcDbLine
 10
141.9098460714647
 20
-0.0000000000077307
 30
-0.0000002301992288
 11
151.9098460714646
 21
-0.0000000000084128
 31
-0.0000002300520235
  0
LINE
  5
CC
330
2
100
AcDbEntity
  8
0
100
AcDbLine
 10
287.059609721741
 20
-49.79346374253362
 30
-0.0000003274085955
 11
282.059609721741
 21
-49.79346374253362
 31
-0.0000003274085955
  0
LINE
  5
CD
330
2
100
AcDbEntity
  8
0
 62
     7
100
AcDbLine
 10
287.2044713049779
 20
-36.98997599700863
 30
-0.000000285910333
 11
295.5903173668687
 21
-36.98997599700863
 31
-0.000000285910333
  0
TEXT
  5
CE
330
2
100
AcDbEntity
  8
KR-TEXTOS
  6
CONTINUOUS
100
AcDbText
 10
286.8652442491772
 20
-36.03582865814235
 30
-0.000000285910333
 40
2.0
  1
NOTA:
  7
DEYP
100
AcDbText
  0
LINE
  5
CF
330
2
100
AcDbEntity
  8
0
 62
     5
100
AcDbLine
 10
288.8138884138356
 20
-0.0000000000159162
 30
-0.0000002280367234
 11
298.8138884138356
 21
-0.0000000000165983
 31
-0.0000002278895181
  0
TEXT
  5
D0
330
2
100
AcDbEntity
  8
KR-TEXTOS
  6
CONTINUOUS
100
AcDbText
 10
213.0682220678047
 20
120.0968555004729
 30
-0.0000001837568333
 40
2.0
  1
HEB 260 A52d
 50
36.75973686874749
  7
DEYP
 72
     1
 11
221.6639356582204
 21
127.7660572658034
 31
-0.0000001837568333
100
AcDbText
 73
     2
  0
TEXT
  5
D1
330
2
100
AcDbEntity
  8
KR-TEXTOS
  6
CONTINUOUS
100
AcDbText
 10
209.3018572895494
 20
69.83625216857922
 30
-0.0000002464694888
 40
2.0
  1
V. MIX. SIN INT. A52d
  7
DEYP
 72
     1
 11
226.1590001466923
 21
70.83625216857922
 31
-0.0000002464694888
100
AcDbText
 73
     2
  0
TEXT
  5
D2
330
2
100
AcDbEntity
  8
KR-TEXTOS
  6
CONTINUOUS
100
AcDbText
 10
221.2529287089034
 20
58.85303648506511
 30
-0.0000002464694888
 40
2.0
  1
20.1030
  7
DEYP
 72
     1
 11
227.4434048993796
 21
59.8530364850651
 31
-0.0000002464694888
100
AcDbText
 73
     2
  0
TEXT
  5
D3
330
2
100
AcDbEntity
  8
KR-TEXTOS
  6
CONTINUOUS
100
AcDbText
 10
222.2653833838916
 20
54.03295075278106
 30
-0.0000002464694888
 40
2.0
  1
600.25
  7
DEYP
 72
     1
 11
227.5510976696059
 21
55.03295075278106
 31
-0.0000002464694888
100
AcDbText
 73
     2
  0
TEXT
  5
D4
330
2
100
AcDbEntity
  8
KR-TEXTOS
  6
CONTINUOUS
100
AcDbText
 10
222.2653833838916
 20
63.6731222173496
 30
-0.0000002464694888
 40
2.0
  1
600.25
  7
DEYP
 72
     1
 11
227.5510976696059
 21
64.6731222173496
 31
-0.0000002464694888
100
AcDbText
 73
     2
  0
CIRCLE
  5
D5
330
2
100
AcDbEntity
  8
0
  6
RAYITAS
 62
     9
100
AcDbCircle
 10
224.3953521129631
 20
106.6850982191402
 30
-0.0000002219579029
 40
4.54103961029341
  0
TEXT
  5
D6
330
2
100
AcDbEntity
  8
KR-TEXTOS
  6
CONTINUOUS
100
AcDbText
 10
152.8694629136265
 20
51.96004830871174
 30
-0.0000002464694888
 40
2.0
  1
2.0
  7
DEYP
 72
     1
 11
155.2504152945789
 21
52.96004830871175
 31
-0.0000002464694888
100
AcDbText
 73
     2
  0
TEXT
  5
D7
330
2
100
AcDbEntity
  8
KR-TEXTOS
  6
CONTINUOUS
100
AcDbText
 10
138.6786826462175
 20
56.10584939382738
 30
-0.0000002464694888
 40
2.0
  1
600.  40
  7
DEYP
 72
     1
 11
145.9643969319317
 21
57.10584939382738
 31
-0.0000002464694888
100
AcDbText
 73
     2
  0
INSERT
  5
D8
330
2
100
AcDbEntity
  8
KR-TEXTOS
  6
CONTINUOUS
100
AcDbBlockReference
  2
SIM10
 10
137.0890286968146
 20
57.10584939382738
 30
-0.0000002464694888
 41
2.0
 42
2.0
 43
2.0
  0
TEXT
  5
D9
330
2
100
AcDbEntity
  8
KR-TEXTOS
  6
CONTINUOUS
100
AcDbText
 10
136.759753038826
 20
51.96004830871174
 30
-0.0000002464694888
 40
2.0
  1
2.0
  7
DEYP
 72
     1
 11
139.1407054197784
 21
52.96004830871175
 31
-0.0000002464694888
100
AcDbText
 73
     2
  0
LINE
  5
DA
330
2
100
AcDbEntity
  8
0
 62
     5
100
AcDbLine
 10
143.9098460714644
 20
63.02002297648255
 30
-0.0000002465136504
 11
149.9098460714644
 21
63.02002297648209
 31
-0.0000002464253272
  0
INSERT
  5
DB
330
2
100
AcDbEntity
  8
KR-TEXTOS
  6
CONTINUOUS
100
AcDbBlockReference
  2
SIM10
 10
220.8593133200965
 20
55.03295075278106
 30
-0.0000002464694888
 41
2.0
 42
2.0
 43
2.0
  0
INSERT
  5
DC
330
2
100
AcDbEntity
  8
KR-TEXTOS
  6
CONTINUOUS
100
AcDbBlockReference
  2
SIM10
 10
220.8593133200965
 20
64.6731222173496
 30
-0.0000002464694888
 41
2.0
 42
2.0
 43
2.0
  0
INSERT
  5
DD
330
2
100
AcDbEntity
  8
KR-TEXTOS
  6
CONTINUOUS
100
AcDbBlockReference
  2
SIM10
 10
219.9387459122206
 20
59.8530364850651
 30
-0.0000002464694888
 41
2.0
 42
2.0
 43
2.0
  0
TEXT
  5
DE
330
2
100
AcDbEntity
  8
KR-TEXTOS
  6
CONTINUOUS
100
AcDbText
 10
163.068164778386
 20
120.0968555004729
 30
-0.0000001837568455
 40
2.0
  1
HEB 180 A52d
 50
36.75973686874749
  7
DEYP
 72
     1
 11
171.6638783688017
 21
127.7660572658034
 31
-0.0000001837568455
100
AcDbText
 73
     2
  0
TEXT
  5
DF
330
2
100
AcDbEntity
  8
KR-TEXTOS
  6
CONTINUOUS
100
AcDbText
 10
159.6302493644953
 20
101.3101304231927
 30
-0.0000002590594051
 40
2.5
  1
$10
  7
DEYP
 72
     1
 11
163.2016779359239
 21
102.5601304231927
 31
-0.0000002590594051
100
AcDbText
 73
     2
  0
TEXT
  5
E0
330
2
100
AcDbEntity
  8
KR-TEXTOS
  6
CONTINUOUS
100
AcDbText
 10
145.8339309870327
 20
113.8839115659406
 30
-0.0000001832367455
 40
2.0
  1
HEB 200 A52d
 50
90.0
  7
DEYP
 72
     1
 11
144.8339309870327
 21
125.3601020421311
 31
-0.0000001832367455
100
AcDbText
 73
     2
  0
TEXT
  5
E1
330
2
100
AcDbEntity
  8
KR-TEXTOS
  6
CONTINUOUS
100
AcDbText
 10
215.1248883951435
 20
130.3805980497577
 30
-0.0000002590594051
 40
2.5
  1
$7
  7
DEYP
 72
     1
 11
217.5058407760959
 21
131.6305980497577
 31
-0.0000002590594051
100
AcDbText
 73
     2
  0
TEXT
  5
E2
330
2
100
AcDbEntity
  8
KR-TEXTOS
  6
CONTINUOUS
100
AcDbText
 10
195.8339309870373
 20
113.5952905449364
 30
-0.0000001835472842
 40
2.0
  1
HEB 240 A52d
 50
90.0
  7
DEYP
 72
     1
 11
194.8339309870373
 21
125.0714810211268
 31
-0.0000001835472842
100
AcDbText
 73
     2
  0
LINE
  5
E3
330
2
100
AcDbEntity
  8
0
100
AcDbLine
 10
289.738729158625
 20
32.00648515027103
 30
-0.0000003576921113
 11
269.3602025861528
 21
8.913172464359149
 31
-0.0000001923813101
  0
CIRCLE
  5
E4
330
2
100
AcDbEntity
  8
0
  6
RAYITAS
 62
     9
100
AcDbCircle
 10
293.8138884138357
 20
34.01001148823729
 30
-0.0000003576921113
 40
4.54103961029341
  0
TEXT
  5
E5
330
2
100
AcDbEntity
  8
KR-TEXTOS
  6
CONTINUOUS
100
AcDbText
 10
231.4751991375974
 20
9.867319803225427
 30
-0.0000001923813101
 40
2.0
  1
V. TRANSV. MIX. CONT.
  7
DEYP
100
AcDbText
  0
LINE
  5
E6
330
2
100
AcDbEntity
  8
0
 62
     7
100
AcDbLine
 10
231.8144261933982
 20
8.913172464359149
 30
-0.0000001923813101
 11
269.3602025861528
 21
8.913172464359149
 31
-0.0000001923813101
  0
TEXT
  5
E7
330
2
100
AcDbEntity
  8
KR-TEXTOS
  6
CONTINUOUS
100
AcDbText
 10
280.9867110806942
 20
26.34716735052517
 30
-0.0000002421443926
 40
2.0
  1
(A3, B3)
 50
90.0
  7
DEYP
 72
     1
 11
279.9867110806942
 21
32.91859592195374
 31
-0.0000002421443926
100
AcDbText
 73
     2
  0
LINE
  5
E8
330
2
100
AcDbEntity
  8
0
 62
     5
100
AcDbLine
 10
290.8138884138354
 20
63.02002297647437
 30
-0.000000244351145
 11
296.8138884138354
 21
63.02002297647391
 31
-0.0000002442628218
  0
LINE
  5
E9
330
2
100
AcDbEntity
  8
7
100
AcDbLine
 10
283.5596097217403
 20
68.52002297646572
 30
-0.0000002421443926
 11
280.5596097217403
 21
68.52002297646572
 31
-0.0000002421443926
  0
LINE
  5
EA
330
2
100
AcDbEntity
  8
7
100
AcDbLine
 10
283.5596097217403
 20
68.52002297646572
 30
-0.0000002421443926
 11
280.5596097217403
 21
68.52002297646572
 31
-0.0000002421443926
  0
LINE
  5
EB
330
2
100
AcDbEntity
  8
9
100
AcDbLine
 10
282.0596097217403
 20
67.52002297646527
 30
-0.0000002421443926
 11
280.9989495499601
 21
66.45936280468572
 31
-0.0000002421443926
  0
LINE
  5
EC
330
2
100
AcDbEntity
  8
0
100
AcDbLine
 10
282.0596097217407
 20
67.52002297646573
 30
-0.0000002421443926
 11
283.1202698935205
 21
66.45936280468617
 31
-0.0000002421443926
  0
LINE
  5
ED
330
2
100
AcDbEntity
  8
7
100
AcDbLine
 10
283.5596097217403
 20
67.52002297646573
 30
-0.0000002421443926
 11
280.5596097217403
 21
67.52002297646573
 31
-0.0000002421443926
  0
LINE
  5
EE
330
2
100
AcDbEntity
  8
7
100
AcDbLine
 10
283.5596097217403
 20
67.52002297646573
 30
-0.0000002421443926
 11
280.5596097217403
 21
67.52002297646573
 31
-0.0000002421443926
  0
LINE
  5
EF
330
2
100
AcDbEntity
  8
9
100
AcDbLine
 10
282.0596097217403
 20
68.52002297646618
 30
-0.0000002421443926
 11
280.9989495499601
 21
69.58068314824572
 31
-0.0000002421443926
  0
LINE
  5
F0
330
2
100
AcDbEntity
  8
0
100
AcDbLine
 10
282.0596097217407
 20
68.52002297646572
 30
-0.0000002421443926
 11
283.1202698935205
 21
69.58068314824572
 31
-0.0000002421443926
  0
TEXT
  5
F1
330
2
100
AcDbEntity
  8
KR-TEXTOS
  6
CONTINUOUS
100
AcDbText
 10
267.8199443885803
 20
116.4267738261869
 30
-0.0000002590594051
 40
2.5
  1
$11
  7
DEYP
 72
     1
 11
271.034230102866
 21
117.6767738261869
 31
-0.0000002590594051
100
AcDbText
 73
     2
  0
TEXT
  5
F2
330
2
100
AcDbEntity
  8
KR-TEXTOS
  6
CONTINUOUS
100
AcDbText
 10
261.3102026962816
 20
119.5253977428628
 30
-0.0000001834344999
 40
2.0
  1
HEB 300 A52d
 50
38.52888901600546
  7
DEYP
 72
     1
 11
269.6650505620866
 21
127.4563160367969
 31
-0.0000001834344999
100
AcDbText
 73
     2
  0
LINE
  5
F3
330
2
100
AcDbEntity
  8
0
 62
     7
100
AcDbLine
 10
258.2877180839029
 20
94.87375277074676
 30
-0.000000192381206
 11
275.8790027432421
 21
94.87375277074676
 31
-0.000000192381206
  0
TEXT
  5
F4
330
2
100
AcDbEntity
  8
KR-TEXTOS
  6
CONTINUOUS
100
AcDbText
 10
257.9484910281023
 20
91.91960543188049
 30
-0.000000192381206
 40
2.0
  1
ARTICULADA
  7
DEYP
100
AcDbText
  0
LINE
  5
F5
330
2
100
AcDbEntity
  8
0
 62
     7
100
AcDbLine
 10
239.1994451238658
 20
84.34982647842957
 30
-0.0000001923813101
 11
275.8790027432419
 21
84.34982647842957
 31
-0.0000001923813101
  0
TEXT
  5
F6
330
2
100
AcDbEntity
  8
KR-TEXTOS
  6
CONTINUOUS
100
AcDbText
 10
238.860218068065
 20
85.30397381729585
 30
-0.0000001923813101
 40
2.0
  1
V. TRANSV. MIX. CONT.
  7
DEYP
100
AcDbText
  0
TEXT
  5
F7
330
2
100
AcDbEntity
  8
KR-TEXTOS
  6
CONTINUOUS
100
AcDbText
 10
238.860218068065
 20
81.3956791395633
 30
-0.0000001923813101
 40
2.0
  1
HEA 800 A52d
  7
DEYP
100
AcDbText
  0
TEXT
  5
F8
330
2
100
AcDbEntity
  8
KR-TEXTOS
  6
CONTINUOUS
100
AcDbText
 10
257.9484910281023
 20
95.82790010961304
 30
-0.000000192381206
 40
2.0
  1
UNIÓN
  7
DEYP
100
AcDbText
  0
TEXT
  5
F9
330
2
100
AcDbEntity
  8
KR-TEXTOS
  6
CONTINUOUS
100
AcDbText
 10
263.6107515750064
 20
129.6053852634754
 30
-0.0000002590594051
 40
2.5
  1
$8
  7
DEYP
 72
     1
 11
265.9917039559589
 21
130.8553852634754
 31
-0.0000002590594051
100
AcDbText
 73
     2
  0
TEXT
  5
FA
330
2
100
AcDbEntity
  8
KR-TEXTOS
  6
CONTINUOUS
100
AcDbText
 10
245.8339311368083
 20
113.5952905449318
 30
-0.0000001835472347
 40
2.0
  1
HEB 280 A52d
 50
90.0
  7
DEYP
 72
     1
 11
244.8339311368083
 21
125.0714810211223
 31
-0.0000001835472347
100
AcDbText
 73
     2
  0
TEXT
  5
FB
330
2
100
AcDbEntity
  8
KR-TEXTOS
  6
CONTINUOUS
100
AcDbText
 10
315.2592326180007
 20
86.58109341333966
 30
-0.0000002590594051
 40
2.5
  1
$9
  7
DEYP
 72
     1
 11
317.5806611894293
 21
87.83109341333966
 31
-0.0000002590594051
100
AcDbText
 73
     2
  0
CIRCLE
  5
FC
330
2
100
AcDbEntity
  8
0
  6
RAYITAS
 62
     9
100
AcDbCircle
 10
293.8138884138395
 20
106.0276072159011
 30
-0.0000002143190075
 40
4.54103961029341
  0
TEXT
  5
FD
330
2
100
AcDbEntity
  8
KR-TEXTOS
  6
CONTINUOUS
100
AcDbText
 10
283.0596097217408
 20
90.7476260907282
 30
-0.0000002040284003
 40
2.0
  1
A52d
 50
90.0
  7
DEYP
 72
     1
 11
282.0596097217407
 21
94.27143561453773
 31
-0.0000002040284003
100
AcDbText
 73
     2
  0
LINE
  5
FE
330
2
100
AcDbEntity
  8
0
100
AcDbLine
 10
292.0905094248248
 20
106.6850982191402
 30
-0.0000002219579029
 11
275.8790027432421
 21
94.87375277074676
 31
-0.000000192381206
  0
LWPOLYLINE
  5
FF
330
2
100
AcDbEntity
  8
0
 62
     7
100
AcDbPolyline
 90
        2
 70
     1
 43
0.3599999999999941
 38
-0.0000002219579029
 10
292.2705094248247
 20
106.6850982191402
 42
1.0
 10
291.910509424825
 20
106.6850982191402
 42
1.0
  0
LWPOLYLINE
  5
100
330
2
100
AcDbEntity
  8
0
 62
     7
100
AcDbPolyline
 90
        2
 70
     1
 43
1.033596233139957
 38
-0.0000002219579029
 10
292.6073075413944
 20
106.6850982191402
 42
1.0
 10
291.5737113082552
 20
106.6850982191402
 42
1.0
  0
LWPOLYLINE
  5
101
330
2
100
AcDbEntity
  8
9
100
AcDbPolyline
 90
        7
 70
     0
 43
0.0
 38
-0.0000001837850525
 10
288.9272931161324
 20
111.4825795366878
 10
287.8666329443526
 20
110.421919364908
 10
283.1202698935205
 20
110.421919364908
 10
282.0596097217407
 20
109.361259193128
 10
280.998949549961
 20
110.421919364908
 10
276.2831222016852
 20
110.421919364908
 10
275.2224620299055
 20
111.4825795366878
  0
LWPOLYLINE
  5
102
330
2
100
AcDbEntity
  8
9
100
AcDbPolyline
 90
        7
 70
     0
 43
0.0
 38
-0.0000001837850525
 10
288.9272931161324
 20
127.7287947694246
 10
287.8666329443526
 20
128.7894549412044
 10
283.1202698935205
 20
128.7894549412044
 10
282.0596097217407
 20
129.8501151129842
 10
280.998949549961
 20
128.7894549412044
 10
276.2831222016852
 20
128.7894549412044
 10
275.2224620299055
 20
127.7287947694246
  0
INSERT
  5
103
330
2
100
AcDbEntity
  8
KR-TEXTOS
  6
CONTINUOUS
100
AcDbBlockReference
  2
SIM10
 10
282.0596097217407
 20
114.3477843741009
 30
-0.0000002040284003
 41
2.0
 42
2.0
 43
2.0
 50
90.0
  0
TEXT
  5
104
330
2
100
AcDbEntity
  8
KR-TEXTOS
  6
CONTINUOUS
100
AcDbText
 10
283.0596097217408
 20
115.801473485515
 30
-0.0000002040284003
 40
2.0
  1
30.840
 50
90.0
  7
DEYP
 72
     1
 11
282.0596097217407
 21
121.0395687236102
 31
-0.0000002040284003
100
AcDbText
 73
     2
  0
INSERT
  5
105
330
2
100
AcDbEntity
  8
KR-TEXTOS
  6
CONTINUOUS
100
AcDbBlockReference
  2
SIM10
 10
277.2395239894563
 20
114.3477843741009
 30
-0.0000002040284003
 41
2.0
 42
2.0
 43
2.0
 50
90.0
  0
TEXT
  5
106
330
2
100
AcDbEntity
  8
KR-TEXTOS
  6
CONTINUOUS
100
AcDbText
 10
278.2395239894563
 20
115.753854437896
 30
-0.0000002040284003
 40
2.0
  1
600.80
 50
90.0
  7
DEYP
 72
     1
 11
277.2395239894563
 21
121.0395687236102
 31
-0.0000002040284003
100
AcDbText
 73
     2
  0
INSERT
  5
107
330
2
100
AcDbEntity
  8
KR-TEXTOS
  6
CONTINUOUS
100
AcDbBlockReference
  2
SIM10
 10
286.8796954540248
 20
114.3477843741009
 30
-0.0000002040284003
 41
2.0
 42
2.0
 43
2.0
 50
90.0
  0
TEXT
  5
108
330
2
100
AcDbEntity
  8
KR-TEXTOS
  6
CONTINUOUS
100
AcDbText
 10
287.8796954540248
 20
115.753854437896
 30
-0.0000002040284003
 40
2.0
  1
600.80
 50
90.0
  7
DEYP
 72
     1
 11
286.8796954540248
 21
121.0395687236102
 31
-0.0000002040284003
100
AcDbText
 73
     2
  0
CIRCLE
  5
109
330
2
100
AcDbEntity
  8
0
  6
RAYITAS
 62
     9
100
AcDbCircle
 10
-77.73854828045933
 20
65.53581056477629
 30
0.0
 40
6.054719480391213
  0
LWPOLYLINE
  5
10A
330
2
100
AcDbEntity
  8
0
 62
     5
100
AcDbPolyline
 90
        2
 70
     0
 43
1.0
 10
-77.73854828045933
 20
71.59053004516749
 10
-77.73854828045933
 20
59.48109108438507
  0
LINE
  5
10B
330
2
100
AcDbEntity
  8
7
100
AcDbLine
 10
135.3723671199079
 20
-0.0000000000077307
 30
-0.0000001108861715
 11
132.3723671199079
 21
-0.0000000000077307
 31
-0.0000001108861715
  0
LINE
  5
10C
330
2
100
AcDbEntity
  8
7
100
AcDbLine
 10
135.3723671199079
 20
-0.0000000000077307
 30
-0.0000001108861715
 11
132.3723671199079
 21
-0.0000000000077307
 31
-0.0000001108861715
  0
LINE
  5
10D
330
2
100
AcDbEntity
  8
0
100
AcDbLine
 10
133.8723671199083
 20
-0.0000000000077307
 30
-0.0000001108861715
 11
134.9330272916884
 21
1.060660171772042
 31
-0.0000001108861715
  0
TEXT
  5
10E
330
2
100
AcDbEntity
  8
KR-TEXTOS
  6
CONTINUOUS
100
AcDbText
 10
114.8117061116797
 20
95.55788299769664
 30
-0.0000001821687349
 40
2.0
  1
CONTRAFLECHA DE EJECUCION = L/1000
  7
DEYP
 72
     1
 11
146.9069442069178
 21
96.55788299769666
 31
-0.0000001821687349
100
AcDbText
 73
     2
  0
LINE
  5
10F
330
2
100
AcDbEntity
  8
9
100
AcDbLine
 10
70.68226588392372
 20
55.03295075278106
 30
-0.0000000168097115
 11
218.9316572985008
 21
55.03295075278106
 31
-0.0000000513405392
  0
LWPOLYLINE
  5
110
330
2
100
AcDbEntity
  8
0
 62
     5
100
AcDbPolyline
 90
        2
 70
     0
 43
1.0
 38
-0.0000001821687349
 10
293.8138884138357
 20
144.0350202749159
 10
0.0
 20
144.0350202749096
  0
LINE
  5
111
330
2
100
AcDbEntity
  8
9
100
AcDbLine
 10
0.5
 20
100.1241980164536
 30
0.0000000643007539
 11
134.375705829279
 21
100.1241980164536
 31
0.0000000520357423
  0
LWPOLYLINE
  5
112
330
2
100
AcDbEntity
  8
0
 62
     5
100
AcDbPolyline
 90
        2
 70
     0
 43
1.0
 38
-0.0000001821687349
 10
293.8138884138357
 20
144.0350202749159
 10
-30.0
 20
144.0350202749096
  0
LINE
  5
113
330
2
100
AcDbEntity
  8
9
100
AcDbLine
 10
133.8723671199083
 20
-0.0000000000075033
 30
-0.0000000302770653
 11
133.8723671199083
 21
67.52002297648232
 31
-0.0000001403531587
  0
LINE
  5
114
330
2
100
AcDbEntity
  8
0
100
AcDbLine
 10
-11.75427869209511
 20
-0.0000000000077307
 30
-0.0000001108861715
 11
-10.69361852031511
 21
1.060660171772042
 31
-0.0000001108861715
  0
LINE
  5
115
330
2
100
AcDbEntity
  8
7
100
AcDbLine
 10
-10.25427869209556
 20
-0.0000000000077307
 30
-0.0000001108861715
 11
-13.25427869209556
 21
-0.0000000000077307
 31
-0.0000001108861715
  0
LINE
  5
116
330
2
100
AcDbEntity
  8
7
100
AcDbLine
 10
-10.25427869209556
 20
-0.0000000000077307
 30
-0.0000001108861715
 11
-13.25427869209556
 21
-0.0000000000077307
 31
-0.0000001108861715
  0
LINE
  5
117
330
2
100
AcDbEntity
  8
9
100
AcDbLine
 10
-11.75427869209556
 20
-0.000000000007276
 30
-0.0000001108861715
 11
-12.81493886387556
 21
1.060660171772269
 31
-0.0000001108861715
  0
LINE
  5
118
330
2
100
AcDbEntity
  8
9
100
AcDbLine
 10
133.8723671199079
 20
-0.000000000007276
 30
-0.0000001108861715
 11
132.8117069481279
 21
1.060660171772269
 31
-0.0000001108861715
  0
LINE
  5
119
330
2
100
AcDbEntity
  8
9
100
AcDbLine
 10
0.5
 20
55.03295075278106
 30
0.0
 11
56.22758018754075
 21
55.03295075278106
 31
-0.0000000133475962
  0
CIRCLE
  5
11A
330
2
100
AcDbEntity
  8
0
  6
RAYITAS
 62
     9
100
AcDbCircle
 10
0.0
 20
65.53581056477629
 30
0.0
 40
6.054719480391213
  0
LINE
  5
11B
330
2
100
AcDbEntity
  8
7
100
AcDbLine
 10
0.5
 20
53.53295075278106
 30
0.0
 11
0.5
 21
56.53295075278106
 31
0.0
  0
LINE
  5
11C
330
2
100
AcDbEntity
  8
0
100
AcDbLine
 10
0.5000000000002274
 20
55.0329507527806
 30
0.0
 11
1.560660171779773
 21
53.97229058100061
 31
0.0
  0
LINE
  5
11D
330
2
100
AcDbEntity
  8
9
100
AcDbLine
 10
0.5000000000006822
 20
55.03295075278106
 30
0.0
 11
1.560660171780227
 21
56.09361092456106
 31
0.0
  0
LINE
  5
11E
330
2
100
AcDbEntity
  8
0
100
AcDbLine
 10
6.019080468413676
 20
117.8210356776831
 30
-0.0000001821686308
 11
1.72494135035572
 21
105.9642768990054
 31
-0.0000000165485055
  0
TEXT
  5
11F
330
2
100
AcDbEntity
  8
KR-TEXTOS
  6
CONTINUOUS
100
AcDbText
 10
-26.49035435976998
 20
140.4185490581176
 30
-0.0000001821687349
 40
2.0
  1
HEA 600 A52
  7
DEYP
100
AcDbText
  0
TEXT
  5
120
330
2
100
AcDbEntity
  8
KR-TEXTOS
  6
CONTINUOUS
100
AcDbText
 10
7.485319637308975
 20
114.8668883388168
 30
-0.0000001821686308
 40
2.0
  1
ARTICULADA
  7
DEYP
100
AcDbText
  0
LINE
  5
121
330
2
100
AcDbEntity
  8
0
 62
     7
100
AcDbLine
 10
6.019080468413676
 20
117.8210356776831
 30
-0.0000001821686308
 11
24.60364906548852
 21
117.8210356776831
 31
-0.0000001821686308
  0
TEXT
  5
122
330
2
100
AcDbEntity
  8
KR-TEXTOS
  6
CONTINUOUS
100
AcDbText
 10
7.485319637308975
 20
118.7751830165494
 30
-0.0000001821686308
 40
2.0
  1
UNIÓN
  7
DEYP
100
AcDbText
  0
LINE
  5
123
330
2
100
AcDbEntity
  8
7
100
AcDbLine
 10
20.00000000000034
 20
142.53502027491
 30
-0.0000001821687349
 11
20.00000000000034
 21
145.53502027491
 31
-0.0000001821687349
  0
ARC
  5
124
330
2
100
AcDbEntity
  8
0
  6
TRAZO_Y_PUNTO
100
AcDbCircle
 10
1.72494135035572
 20
105.9642768990052
 30
-0.000002373521415
 40
0.72
210
0.0000000011130604
220
-0.0000000222612086
230
0.9999999999999998
100
AcDbArc
 50
87.38596858982534
 51
92.86240522611132
  0
LINE
  5
125
330
2
100
AcDbEntity
  8
9
100
AcDbLine
 10
126.9098460714649
 20
55.03295075278152
 30
-0.0000001108861715
 11
127.9705062432444
 21
56.09361092456151
 31
-0.0000001108861715
  0
LINE
  5
126
330
2
100
AcDbEntity
  8
0
100
AcDbLine
 10
126.9098460714644
 20
55.03295075278106
 30
-0.0000001108861715
 11
127.9705062432442
 21
53.97229058100106
 31
-0.0000001108861715
  0
LINE
  5
127
330
2
100
AcDbEntity
  8
7
100
AcDbLine
 10
126.9098460714644
 20
53.53295075278151
 30
-0.0000001108861715
 11
126.9098460714644
 21
56.53295075278151
 31
-0.0000001108861715
  0
LINE
  5
128
330
2
100
AcDbEntity
  8
7
100
AcDbLine
 10
126.9098460714644
 20
53.53295075278151
 30
-0.0000001108861715
 11
126.9098460714644
 21
56.53295075278151
 31
-0.0000001108861715
  0
LINE
  5
129
330
2
100
AcDbEntity
  8
0
100
AcDbLine
 10
126.9098460714644
 20
55.03295075278106
 30
-0.0000001108861715
 11
125.8491858996847
 21
53.97229058100106
 31
-0.0000001108861715
  0
LINE
  5
12A
330
2
100
AcDbEntity
  8
9
100
AcDbLine
 10
126.909846071464
 20
55.03295075278152
 30
-0.0000001108861715
 11
125.8491858996844
 21
56.09361092456151
 31
-0.0000001108861715
  0
LINE
  5
12B
330
2
100
AcDbEntity
  8
9
100
AcDbLine
 10
0.5000000000006822
 20
100.1241980164536
 30
0.0000000643007539
 11
1.560660171780227
 21
101.1848581882338
 31
0.0000000643007539
  0
LINE
  5
12C
330
2
100
AcDbEntity
  8
0
100
AcDbLine
 10
0.5000000000002274
 20
100.1241980164532
 30
0.0000000643007539
 11
1.560660171779773
 21
99.06353784467341
 31
0.0000000643007539
  0
LINE
  5
12D
330
2
100
AcDbEntity
  8
7
100
AcDbLine
 10
0.5
 20
98.62419801645366
 30
0.0000000643007539
 11
0.5
 21
101.6241980164536
 31
0.0000000643007539
  0
LINE
  5
12E
330
2
100
AcDbEntity
  8
9
100
AcDbLine
 10
282.0596097217405
 20
-0.000000000024329
 30
-0.0000000259519691
 11
282.0596097217407
 21
89.62500828057613
 31
-0.0000001673925475
  0
LINE
  5
12F
330
2
100
AcDbEntity
  8
9
100
AcDbLine
 10
282.0596097217403
 20
-0.0000000000238742
 30
-0.0000001065610753
 11
280.9989495499601
 21
1.060660171755671
 31
-0.0000001065610753
  0
LINE
  5
130
330
2
100
AcDbEntity
  8
0
100
AcDbLine
 10
282.0596097217407
 20
-0.000000000024329
 30
-0.0000001065610753
 11
283.1202698935205
 21
1.060660171755444
 31
-0.0000001065610753
  0
LINE
  5
131
330
2
100
AcDbEntity
  8
7
100
AcDbLine
 10
283.5596097217403
 20
-0.000000000024329
 30
-0.0000001065610753
 11
280.5596097217403
 21
-0.000000000024329
 31
-0.0000001065610753
  0
LINE
  5
132
330
2
100
AcDbEntity
  8
7
100
AcDbLine
 10
283.5596097217403
 20
-0.000000000024329
 30
-0.0000001065610753
 11
280.5596097217403
 21
-0.000000000024329
 31
-0.0000001065610753
  0
LINE
  5
133
330
2
100
AcDbEntity
  8
9
100
AcDbLine
 10
159.6875471336925
 20
100.1241980164536
 30
0.0000000431661182
 11
293.3138884138358
 21
100.1241980164536
 31
-0.0000000058325901
  0
LINE
  5
134
330
2
100
AcDbEntity
  8
0
100
AcDbLine
 10
166.9098460714644
 20
55.03295075278106
 30
-0.0000001459739989
 11
167.9705062432442
 21
53.97229058100106
 31
-0.0000001459739989
  0
LINE
  5
135
330
2
100
AcDbEntity
  8
9
100
AcDbLine
 10
166.9098460714649
 20
55.03295075278152
 30
-0.0000001459739989
 11
167.9705062432444
 21
56.09361092456151
 31
-0.0000001459739989
  0
LINE
  5
136
330
2
100
AcDbEntity
  8
7
100
AcDbLine
 10
166.9098460714644
 20
53.53295075278151
 30
-0.0000001459739989
 11
166.9098460714644
 21
56.53295075278151
 31
-0.0000001459739989
  0
LINE
  5
137
330
2
100
AcDbEntity
  8
7
100
AcDbLine
 10
166.9098460714644
 20
53.53295075278151
 30
-0.0000001459739989
 11
166.9098460714644
 21
56.53295075278151
 31
-0.0000001459739989
  0
LINE
  5
138
330
2
100
AcDbEntity
  8
9
100
AcDbLine
 10
166.909846071464
 20
55.03295075278152
 30
-0.0000001459739989
 11
165.8491858996844
 21
56.09361092456151
 31
-0.0000001459739989
  0
LINE
  5
139
330
2
100
AcDbEntity
  8
0
100
AcDbLine
 10
166.9098460714644
 20
55.03295075278106
 30
-0.0000001459739989
 11
165.8491858996846
 21
53.97229058100106
 31
-0.0000001459739989
  0
CIRCLE
  5
13A
330
2
100
AcDbEntity
  8
0
  6
RAYITAS
 62
     9
100
AcDbCircle
 10
146.9040423423712
 20
65.53581056477629
 30
0.0
 40
6.054719480391213
  0
TEXT
  5
13B
330
2
100
AcDbEntity
  8
KR-TEXTOS
  6
CONTINUOUS
100
AcDbText
 10
135.5736108735845
 20
99.12419801645365
 30
-0.0000001821687349
 40
2.0
  1
HEA 800 A52d
  7
DEYP
 72
     1
 11
146.9069442069178
 21
100.1241980164536
 31
-0.0000001821687349
100
AcDbText
 73
     2
  0
LINE
  5
13C
330
2
100
AcDbEntity
  8
0
 62
     7
100
AcDbLine
 10
221.9138007380418
 20
87.79619051669811
 30
-0.0000001821686308
 11
181.1721485454584
 21
87.79619051669811
 31
-0.0000001821686308
  0
TEXT
  5
13D
330
2
100
AcDbEntity
  8
KR-TEXTOS
  6
CONTINUOUS
100
AcDbText
 10
181.1168914963191
 20
88.75033785556439
 30
-0.0000001821686308
 40
2.0
  1
PERFIL DE FORJADO MIXT.
  7
DEYP
100
AcDbText
  0
TEXT
  5
13E
330
2
100
AcDbEntity
  8
KR-TEXTOS
  6
CONTINUOUS
100
AcDbText
 10
181.1168914963191
 20
84.84204317783184
 30
-0.0000001821686308
 40
2.0
  1
HEA 800 A52
  7
DEYP
100
AcDbText
  0
LINE
  5
13F
330
2
100
AcDbEntity
  8
9
100
AcDbLine
 10
233.3863429948837
 20
55.03295075278106
 30
-0.0000000548026545
 11
293.3138884138356
 21
55.03295075278106
 31
-0.000000070133344
  0
LINE
  5
140
330
2
100
AcDbEntity
  8
0
100
AcDbLine
 10
293.3138884138356
 20
55.0329507527806
 30
-0.000000070133344
 11
292.2532282420559
 21
53.97229058100061
 31
-0.000000070133344
  0
LINE
  5
141
330
2
100
AcDbEntity
  8
9
100
AcDbLine
 10
293.3138884138352
 20
55.03295075278106
 30
-0.000000070133344
 11
292.2532282420556
 21
56.09361092456106
 31
-0.000000070133344
  0
LINE
  5
142
330
2
100
AcDbEntity
  8
7
100
AcDbLine
 10
293.3138884138356
 20
53.53295075278106
 30
-0.000000070133344
 11
293.3138884138356
 21
56.53295075278106
 31
-0.000000070133344
  0
CIRCLE
  5
143
330
2
100
AcDbEntity
  8
0
  6
RAYITAS
 62
     9
100
AcDbCircle
 10
293.8080846847424
 20
65.53581056477629
 30
0.0
 40
6.054719480391213
  0
LINE
  5
144
330
2
100
AcDbEntity
  8
7
100
AcDbLine
 10
273.8138884138362
 20
142.5350202749155
 30
-0.0000001821687349
 11
273.8138884138362
 21
145.5350202749155
 31
-0.0000001821687349
  0
LINE
  5
145
330
2
100
AcDbEntity
  8
9
100
AcDbLine
 10
293.3138884138352
 20
100.1241980164536
 30
-0.0000000058325901
 11
292.2532282420556
 21
101.1848581882338
 31
-0.0000000058325901
  0
LINE
  5
146
330
2
100
AcDbEntity
  8
0
100
AcDbLine
 10
293.3138884138356
 20
100.1241980164532
 30
-0.0000000058325901
 11
292.2532282420559
 21
99.06353784467341
 31
-0.0000000058325901
  0
LINE
  5
147
330
2
100
AcDbEntity
  8
7
100
AcDbLine
 10
293.3138884138356
 20
98.62419801645366
 30
-0.0000000058325901
 11
293.3138884138356
 21
101.6241980164536
 31
-0.0000000058325901
  0
ARC
  5
148
330
2
100
AcDbEntity
  8
0
  6
TRAZO_Y_PUNTO
100
AcDbCircle
 10
292.0889470634804
 20
105.9642768990054
 30
-0.0000027005540281
 40
0.72
210
-0.0000000011130604
220
-0.0000000222612086
230
0.9999999999999998
100
AcDbArc
 50
87.13759477388867
 51
92.61403141017465
  0
LINE
  5
149
330
2
100
AcDbEntity
  8
0
100
AcDbLine
 10
290.4214516886274
 20
224.5186774873266
 30
-0.0000001917774911
 11
275.8790027432419
 21
237.4589227690337
 31
-0.0000001280805562
  0
LINE
  5
14A
330
2
100
AcDbEntity
  8
0
100
AcDbLine
 10
289.4247270467672
 20
304.4390418489179
 30
-0.0000001837850525
 11
275.8790027432419
 21
309.201994654247
 31
-0.0000001280805562
  0
LINE
  5
14B
330
2
100
AcDbEntity
  8
0
100
AcDbLine
 10
289.8500194479165
 20
331.239546092504
 30
-0.0000003213740269
 11
275.8790027432419
 21
339.0485504336886
 31
-0.0000001280805562
  0
LINE
  5
14C
330
2
100
AcDbEntity
  8
0
  6
TRAZO_Y_PUNTO
100
AcDbLine
 10
-2.923181041763882
 20
294.8693720766716
 30
-0.0000001742467643
 11
55.00000744442354
 21
221.4999999941665
 31
-0.0000002066365992
  0
LINE
  5
14D
330
2
100
AcDbEntity
  8
0
  6
TRAZO_Y_PUNTO
100
AcDbLine
 10
119.3749833228321
 20
302.0017326503227
 30
-0.0000001676682063
 11
55.00000744442354
 21
221.4999999941665
 31
-0.0000002066365992
  0
LINE
  5
14E
330
2
100
AcDbEntity
  8
0
100
AcDbLine
 10
-32.38155889652216
 20
219.0653516335375
 30
-0.0000001768708613
 11
-36.73038804239786
 21
214.6195788390357
 31
-0.0000002168491745
  0
LINE
  5
14F
330
2
100
AcDbEntity
  8
0
 62
     7
100
AcDbLine
 10
-86.63608564795458
 20
214.6195788390357
 30
-0.0000002168491745
 11
-36.73038804239786
 21
214.6195788390357
 31
-0.0000002168491745
  0
TEXT
  5
150
330
2
100
AcDbEntity
  8
KR-TEXTOS
  6
CONTINUOUS
100
AcDbText
 10
-104.2436597456099
 20
213.3741123816043
 30
-0.0000002590594051
 40
2.5
  1
$1
  7
DEYP
 72
     1
 11
-102.2198502218004
 21
214.6241123816043
 31
-0.0000002590594051
100
AcDbText
 73
     2
  0
TEXT
  5
151
330
2
100
AcDbEntity
  8
KR-TEXTOS
  6
CONTINUOUS
100
AcDbText
 10
-86.97531270375566
 20
204.9481653512846
 30
-0.0000002168491745
 40
2.0
  1
+ UPN 120 A52
  7
DEYP
100
AcDbText
  0
TEXT
  5
152
330
2
100
AcDbEntity
  8
KR-TEXTOS
  6
CONTINUOUS
100
AcDbText
 10
-86.97531270375566
 20
208.306798425727
 30
-0.0000002168491745
 40
2.0
  1
ó HEA 500 A52
  7
DEYP
100
AcDbText
  0
TEXT
  5
153
330
2
100
AcDbEntity
  8
KR-TEXTOS
  6
CONTINUOUS
100
AcDbText
 10
-86.97531270375566
 20
215.573726177902
 30
-0.0000002168491745
 40
2.0
  1
V.B. MIX. CONT.
  7
DEYP
100
AcDbText
  0
TEXT
  5
154
330
2
100
AcDbEntity
  8
KR-TEXTOS
  6
CONTINUOUS
100
AcDbText
 10
-86.97531270375566
 20
211.6654315001694
 30
-0.0000002168491745
 40
2.0
  1
IPE 500 A52
  7
DEYP
100
AcDbText
  0
TEXT
  5
155
330
2
100
AcDbEntity
  8
KR-TEXTOS
  6
CONTINUOUS
100
AcDbText
 10
111.9427493512067
 20
246.1575231363888
 30
-0.0000002168491745
 40
2.0
  1
PERFIL DE FORJADO MIXT. CONT.
  7
DEYP
100
AcDbText
  0
LINE
  5
156
330
2
100
AcDbEntity
  8
0
 62
     7
100
AcDbLine
 10
162.5738618762472
 20
245.2033757975225
 30
-0.0000002168491745
 11
110.7543738295423
 21
245.2033757975225
 31
-0.0000002168491745
  0
LINE
  5
157
330
2
100
AcDbEntity
  8
0
 62
     7
100
AcDbLine
 10
162.5738618762489
 20
167.7383960782677
 30
-0.0000001923813101
 11
110.754373829544
 21
167.7383960782677
 31
-0.0000001923813101
  0
TEXT
  5
158
330
2
100
AcDbEntity
  8
KR-TEXTOS
  6
CONTINUOUS
100
AcDbText
 10
111.9427493512084
 20
168.692543417134
 30
-0.0000001923813101
 40
2.0
  1
PERFIL DE FORJADO MIXT. CONT.
  7
DEYP
100
AcDbText
  0
LINE
  5
159
330
2
100
AcDbEntity
  8
9
100
AcDbLine
 10
-11.75427869209465
 20
216.2440837277042
 30
-0.0000003437478867
 11
-11.75427869209465
 21
220.9999999941667
 31
-0.0000003905674734
  0
CIRCLE
  5
15A
330
2
100
AcDbEntity
  8
0
  6
RAYITAS
 62
     9
100
AcDbCircle
 10
0.0
 20
221.4999999941665
 30
-0.0000002066365992
 40
4.54103961029341
  0
TEXT
  5
15B
330
2
100
AcDbEntity
  8
KR-TEXTOS
  6
CONTINUOUS
100
AcDbText
 10
-8.68138005104879
 20
158.1154787048838
 30
-0.0000002464694888
 40
2.0
  1
SIN INT.
 50
90.0
  7
DEYP
 72
     1
 11
-9.68138005104879
 21
164.1154787048838
 31
-0.0000002464694888
100
AcDbText
 73
     2
  0
TEXT
  5
15C
330
2
100
AcDbEntity
  8
KR-TEXTOS
  6
CONTINUOUS
100
AcDbText
 10
-12.82717733314143
 20
160.5916691810742
 30
-0.0000002464694888
 40
2.0
  1
A52d
 50
90.0
  7
DEYP
 72
     1
 11
-13.82717733314143
 21
164.1154787048838
 31
-0.0000002464694888
100
AcDbText
 73
     2
  0
TEXT
  5
15D
330
2
100
AcDbEntity
  8
KR-TEXTOS
  6
CONTINUOUS
100
AcDbText
 10
-51.35836333204202
 20
157.5378509989539
 30
-0.0000001923813101
 40
2.0
  1
V. TRANSV. MIX. CONT.
  7
DEYP
100
AcDbText
  0
LINE
  5
15E
330
2
100
AcDbEntity
  8
0
 62
     7
100
AcDbLine
 10
-51.01913627624094
 20
156.5837036600876
 30
-0.0000001923813101
 11
-15.50332114371099
 21
156.5837036600876
 31
-0.0000001923813101
  0
TEXT
  5
15F
330
2
100
AcDbEntity
  8
KR-TEXTOS
  6
CONTINUOUS
100
AcDbText
 10
-51.35836333204202
 20
153.6295563212213
 30
-0.0000001923813101
 40
2.0
  1
HEA 600 A52d
  7
DEYP
100
AcDbText
  0
LINE
  5
160
330
2
100
AcDbEntity
  8
0
100
AcDbLine
 10
-11.75427869209511
 20
196.499999994167
 30
-0.0000002066365992
 11
-10.69361852031511
 21
197.5606601659468
 31
-0.0000002066365992
  0
LINE
  5
161
330
2
100
AcDbEntity
  8
0
100
AcDbLine
 10
-11.75427869209511
 20
196.499999994167
 30
-0.0000002066365992
 11
-10.69361852031511
 21
195.4393398223873
 31
-0.0000002066365992
  0
LINE
  5
162
330
2
100
AcDbEntity
  8
9
100
AcDbLine
 10
-11.75427869209556
 20
196.4999999941675
 30
-0.0000002066365992
 11
-12.81493886387556
 21
197.560660165947
 31
-0.0000002066365992
  0
LINE
  5
163
330
2
100
AcDbEntity
  8
9
100
AcDbLine
 10
-11.75427869209556
 20
196.4999999941666
 30
-0.0000002066365992
 11
-12.81493886387556
 21
195.439339822387
 31
-0.0000002066365992
  0
LINE
  5
164
330
2
100
AcDbEntity
  8
7
100
AcDbLine
 10
-10.25427869209556
 20
196.499999994167
 30
-0.0000002066365992
 11
-13.25427869209556
 21
196.499999994167
 31
-0.0000002066365992
  0
LINE
  5
165
330
2
100
AcDbEntity
  8
7
100
AcDbLine
 10
-10.25427869209556
 20
196.499999994167
 30
-0.0000002066365992
 11
-13.25427869209556
 21
196.499999994167
 31
-0.0000002066365992
  0
TEXT
  5
166
330
2
100
AcDbEntity
  8
KR-TEXTOS
  6
CONTINUOUS
100
AcDbText
 10
8.769066222081306
 20
157.5130356871213
 30
-0.0000002590594051
 40
2.5
  1
$3
  7
DEYP
 72
     1
 11
11.15001860303368
 21
158.7630356871213
 31
-0.0000002590594051
100
AcDbText
 73
     2
  0
LINE
  5
167
330
2
100
AcDbEntity
  8
0
100
AcDbLine
 10
-3.939497193617853
 20
223.758628472631
 30
-0.0000002092316826
 11
-15.50332114371099
 21
230.3885055381472
 31
-0.0000002168491745
  0
LINE
  5
168
330
2
100
AcDbEntity
  8
0
 62
     7
100
AcDbLine
 10
-51.01913627624094
 20
230.3885055381472
 30
-0.0000002168491745
 11
-15.50332114371099
 21
230.3885055381472
 31
-0.0000002168491745
  0
TEXT
  5
169
330
2
100
AcDbEntity
  8
KR-TEXTOS
  6
CONTINUOUS
100
AcDbText
 10
-51.35836333204202
 20
231.3426528770134
 30
-0.0000002168491745
 40
2.0
  1
V. TRANSV. MIX. CONT.
  7
DEYP
100
AcDbText
  0
TEXT
  5
16A
330
2
100
AcDbEntity
  8
KR-TEXTOS
  6
CONTINUOUS
100
AcDbText
 10
-51.35836333204202
 20
227.4343581992809
 30
-0.0000002168491745
 40
2.0
  1
HEA 600 A52d
  7
DEYP
100
AcDbText
  0
LINE
  5
16B
330
2
100
AcDbEntity
  8
0
100
AcDbLine
 10
-11.75427869209511
 20
220.9999999941664
 30
-0.0000002066365992
 11
-10.69361852031511
 21
219.9393398223867
 31
-0.0000002066365992
  0
LINE
  5
16C
330
2
100
AcDbEntity
  8
9
100
AcDbLine
 10
-11.75427869209556
 20
220.999999994166
 30
-0.0000002066365992
 11
-12.81493886387556
 21
219.9393398223865
 31
-0.0000002066365992
  0
LINE
  5
16D
330
2
100
AcDbEntity
  8
7
100
AcDbLine
 10
-10.25427869209556
 20
220.9999999941664
 30
-0.0000002066365992
 11
-13.25427869209556
 21
220.9999999941664
 31
-0.0000002066365992
  0
LINE
  5
16E
330
2
100
AcDbEntity
  8
7
100
AcDbLine
 10
-10.25427869209556
 20
220.9999999941664
 30
-0.0000002066365992
 11
-13.25427869209556
 21
220.9999999941664
 31
-0.0000002066365992
  0
TEXT
  5
16F
330
2
100
AcDbEntity
  8
KR-TEXTOS
  6
CONTINUOUS
100
AcDbText
 10
11.90352905714917
 20
277.9409154100207
 30
-0.0000001948148505
 40
2.0
  1
%%c219,1.12,5 A52
 50
308.055284605497
  7
DEYP
100
AcDbText
  0
CIRCLE
  5
170
330
2
100
AcDbEntity
  8
0
  6
RAYITAS
 62
     9
100
AcDbCircle
 10
90.61570971854781
 20
221.4999999941665
 30
-0.0000002066365992
 40
4.54103961029341
  0
LINE
  5
171
330
2
100
AcDbEntity
  8
0
100
AcDbLine
 10
93.28889009452652
 20
147.7058713233397
 30
-0.0000001847990274
 11
110.754373829544
 21
167.7383960782677
 31
-0.0000001923813101
  0
TEXT
  5
172
330
2
100
AcDbEntity
  8
KR-TEXTOS
  6
CONTINUOUS
100
AcDbText
 10
111.9427493512084
 20
164.7842487394014
 30
-0.0000001923813101
 40
2.0
  1
IPE 550 A52
  7
DEYP
100
AcDbText
  0
TEXT
  5
173
330
2
100
AcDbEntity
  8
KR-TEXTOS
  6
CONTINUOUS
100
AcDbText
 10
78.38781881574118
 20
252.8078829219059
 30
-0.0000001948036499
 40
2.0
  1
%%c219,1.16 A52
 50
51.10823397259784
  7
DEYP
100
AcDbText
  0
LINE
  5
174
330
2
100
AcDbEntity
  8
0
100
AcDbLine
 10
93.28889009452485
 20
225.1708510425945
 30
-0.0000002092668917
 11
110.7543738295423
 21
245.2033757975225
 31
-0.0000002168491745
  0
TEXT
  5
175
330
2
100
AcDbEntity
  8
KR-TEXTOS
  6
CONTINUOUS
100
AcDbText
 10
111.9427493512067
 20
242.2492284586562
 30
-0.0000002168491745
 40
2.0
  1
IPE 500 A52
  7
DEYP
100
AcDbText
  0
TEXT
  5
176
330
2
100
AcDbEntity
  8
KR-TEXTOS
  6
CONTINUOUS
100
AcDbText
 10
280.9867110806942
 20
283.215879546476
 30
-0.0000002421443926
 40
2.0
  1
HEA 600 A52d
 50
90.0
  7
DEYP
 72
     1
 11
279.9867110806942
 21
294.5492128798093
 31
-0.0000002421443926
100
AcDbText
 73
     2
  0
LWPOLYLINE
  5
177
330
2
100
AcDbEntity
  8
9
100
AcDbPolyline
 90
        7
 70
     0
 43
0.0
 38
-0.0000001837850525
 10
291.5460473903267
 20
285.7909651963848
 10
290.4853872185471
 20
286.8516253681645
 10
290.4853872185471
 20
303.3783816771381
 10
289.4247270467672
 20
304.4390418489179
 10
290.4853872185471
 20
305.4997020206976
 10
290.4853872185471
 20
322.4222688319219
 10
291.5460473903267
 20
323.4829290037016
  0
LINE
  5
178
330
2
100
AcDbEntity
  8
9
100
AcDbLine
 10
282.059609721741
 20
260.7499255860916
 30
-0.0000003296467387
 11
282.059609721741
 21
329.0239686139948
 31
-0.0000003862423772
  0
TEXT
  5
179
330
2
100
AcDbEntity
  8
KR-TEXTOS
  6
CONTINUOUS
100
AcDbText
 10
278.4338921581396
 20
147.903427180543
 30
-0.0000005006252396
 40
2.0
  1
A52d
  7
DEYP
 72
     1
 11
281.9577016819491
 21
148.903427180543
 31
-0.0000005006252396
100
AcDbText
 73
     2
  0
TEXT
  5
17A
330
2
100
AcDbEntity
  8
KR-TEXTOS
  6
CONTINUOUS
100
AcDbText
 10
277.0900665947717
 20
152.0492282656587
 30
-0.0000005006252396
 40
2.0
  1
HEM 900
  7
DEYP
 72
     1
 11
284.0900665947717
 21
153.0492282656587
 31
-0.0000005006252396
100
AcDbText
 73
     2
  0
CIRCLE
  5
17B
330
2
100
AcDbEntity
  8
0
  6
RAYITAS
 62
     9
100
AcDbCircle
 10
293.8138884138357
 20
221.4999999941665
 30
-0.0000002066365992
 40
4.54103961029341
  0
LINE
  5
17C
330
2
100
AcDbEntity
  8
9
100
AcDbLine
 10
282.0596097217409
 20
209.1164972640555
 30
-0.0000002868453062
 11
282.059609721741
 21
259.7499255860914
 31
-0.0000003288177906
  0
TEXT
  5
17D
330
2
100
AcDbEntity
  8
KR-TEXTOS
  6
CONTINUOUS
100
AcDbText
 10
277.8995904042955
 20
214.4059121437956
 30
-0.0000003172075301
 40
2.0
  1
25.1400
  7
DEYP
 72
     1
 11
284.0900665947717
 21
215.4059121437956
 31
-0.0000003172075301
100
AcDbText
 73
     2
  0
TEXT
  5
17E
330
2
100
AcDbEntity
  8
KR-TEXTOS
  6
CONTINUOUS
100
AcDbText
 10
283.2482132316842
 20
210.2601110586799
 30
-0.0000003172075301
 40
2.0
  1
2.0
  7
DEYP
 72
     1
 11
285.6291656126365
 21
211.2601110586799
 31
-0.0000003172075301
100
AcDbText
 73
     2
  0
INSERT
  5
17F
330
2
100
AcDbEntity
  8
KR-TEXTOS
  6
CONTINUOUS
100
AcDbBlockReference
  2
SIM10
 10
276.3185492708778
 20
215.4059121437956
 30
-0.0000003172075301
 41
2.0
 42
2.0
 43
2.0
  0
TEXT
  5
180
330
2
100
AcDbEntity
  8
KR-TEXTOS
  6
CONTINUOUS
100
AcDbText
 10
268.9816423592953
 20
154.4121845419913
 30
-0.0000002590594051
 40
2.5
  1
$4
  7
DEYP
 72
     1
 11
271.4221185497715
 21
155.6621845419913
 31
-0.0000002590594051
100
AcDbText
 73
     2
  0
TEXT
  5
181
330
2
100
AcDbEntity
  8
KR-TEXTOS
  6
CONTINUOUS
100
AcDbText
 10
280.7571235389136
 20
177.5842101970623
 30
-0.0000002040284003
 40
2.0
  1
A52d
 50
90.0
  7
DEYP
 72
     1
 11
279.7571235389136
 21
181.1080197208718
 31
-0.0000002040284003
100
AcDbText
 73
     2
  0
LINE
  5
182
330
2
100
AcDbEntity
  8
9
100
AcDbLine
 10
282.0596097217409
 20
177.0035341023387
 30
-0.0000002602253263
 11
282.0596097217409
 21
188.6276413441995
 31
-0.0000002698611079
  0
TEXT
  5
183
330
2
100
AcDbEntity
  8
KR-TEXTOS
  6
CONTINUOUS
100
AcDbText
 10
283.0596097217408
 20
162.9548924748696
 30
-0.0000002040284003
 40
2.0
  1
30.840
 50
90.0
  7
DEYP
 72
     1
 11
282.0596097217407
 21
168.1929877129648
 31
-0.0000002040284003
100
AcDbText
 73
     2
  0
TEXT
  5
184
330
2
100
AcDbEntity
  8
KR-TEXTOS
  6
CONTINUOUS
100
AcDbText
 10
287.8796954540248
 20
162.9072734272505
 30
-0.0000002040284003
 40
2.0
  1
600.80
 50
90.0
  7
DEYP
 72
     1
 11
286.8796954540248
 21
168.1929877129648
 31
-0.0000002040284003
100
AcDbText
 73
     2
  0
TEXT
  5
185
330
2
100
AcDbEntity
  8
KR-TEXTOS
  6
CONTINUOUS
100
AcDbText
 10
278.2395239894563
 20
162.9072734272505
 30
-0.0000002040284003
 40
2.0
  1
600.80
 50
90.0
  7
DEYP
 72
     1
 11
277.2395239894563
 21
168.1929877129648
 31
-0.0000002040284003
100
AcDbText
 73
     2
  0
LWPOLYLINE
  5
186
330
2
100
AcDbEntity
  8
9
100
AcDbPolyline
 90
        7
 70
     0
 43
0.0
 38
-0.0000001837850525
 10
288.9272931161324
 20
158.6359985260424
 10
287.8666329443526
 20
157.5753383542626
 10
283.1202698935205
 20
157.5753383542626
 10
282.0596097217407
 20
156.5146781824826
 10
280.998949549961
 20
157.5753383542626
 10
276.2831222016852
 20
157.5753383542626
 10
275.2224620299055
 20
158.6359985260424
  0
INSERT
  5
187
330
2
100
AcDbEntity
  8
KR-TEXTOS
  6
CONTINUOUS
100
AcDbBlockReference
  2
SIM10
 10
282.0596097217407
 20
161.5012033634554
 30
-0.0000002040284003
 41
2.0
 42
2.0
 43
2.0
 50
90.0
  0
INSERT
  5
188
330
2
100
AcDbEntity
  8
KR-TEXTOS
  6
CONTINUOUS
100
AcDbBlockReference
  2
SIM10
 10
277.2395239894563
 20
161.5012033634554
 30
-0.0000002040284003
 41
2.0
 42
2.0
 43
2.0
 50
90.0
  0
INSERT
  5
189
330
2
100
AcDbEntity
  8
KR-TEXTOS
  6
CONTINUOUS
100
AcDbBlockReference
  2
SIM10
 10
286.8796954540248
 20
161.5012033634554
 30
-0.0000002040284003
 41
2.0
 42
2.0
 43
2.0
 50
90.0
  0
LWPOLYLINE
  5
18A
330
2
100
AcDbEntity
  8
9
100
AcDbPolyline
 90
        7
 70
     0
 43
0.0
 38
-0.0000001837850525
 10
288.9272931161324
 20
174.8822137587792
 10
287.8666329443526
 20
175.942873930559
 10
283.1202698935205
 20
175.942873930559
 10
282.0596097217407
 20
177.0035341023388
 10
280.998949549961
 20
175.942873930559
 10
276.2831222016852
 20
175.942873930559
 10
275.2224620299055
 20
174.8822137587792
  0
TEXT
  5
18B
330
2
100
AcDbEntity
  8
KR-TEXTOS
  6
CONTINUOUS
100
AcDbText
 10
287.8796954540248
 20
195.0202365889674
 30
-0.0000002040284003
 40
2.0
  1
600.90
 50
90.0
  7
DEYP
 72
     1
 11
286.8796954540248
 21
200.3059508746817
 31
-0.0000002040284003
100
AcDbText
 73
     2
  0
TEXT
  5
18C
330
2
100
AcDbEntity
  8
KR-TEXTOS
  6
CONTINUOUS
100
AcDbText
 10
283.0596097217408
 20
195.0678556365864
 30
-0.0000002040284003
 40
2.0
  1
35.840
 50
90.0
  7
DEYP
 72
     1
 11
282.0596097217407
 21
200.3059508746817
 31
-0.0000002040284003
100
AcDbText
 73
     2
  0
TEXT
  5
18D
330
2
100
AcDbEntity
  8
KR-TEXTOS
  6
CONTINUOUS
100
AcDbText
 10
278.2395239894563
 20
195.0202365889674
 30
-0.0000002040284003
 40
2.0
  1
600.90
 50
90.0
  7
DEYP
 72
     1
 11
277.2395239894563
 21
200.3059508746817
 31
-0.0000002040284003
100
AcDbText
 73
     2
  0
LWPOLYLINE
  5
18E
330
2
100
AcDbEntity
  8
9
100
AcDbPolyline
 90
        7
 70
     0
 43
0.0
 38
-0.0000001837850525
 10
288.9272931161324
 20
190.7489616877592
 10
287.8666329443526
 20
189.6883015159794
 10
283.1202698935205
 20
189.6883015159794
 10
282.0596097217407
 20
188.6276413441994
 10
280.998949549961
 20
189.6883015159794
 10
276.2831222016852
 20
189.6883015159794
 10
275.2224620299055
 20
190.7489616877592
  0
LINE
  5
18F
330
2
100
AcDbEntity
  8
0
100
AcDbLine
 10
282.0596097217407
 20
186.5673065775561
 30
-0.0000001974752295
 11
283.1202698935205
 21
185.5066464057763
 31
-0.0000001974752295
  0
LINE
  5
190
330
2
100
AcDbEntity
  8
9
100
AcDbLine
 10
282.0596097217403
 20
186.5673065775556
 30
-0.0000001974752295
 11
280.9989495499601
 21
185.5066464057761
 31
-0.0000001974752295
  0
LINE
  5
191
330
2
100
AcDbEntity
  8
7
100
AcDbLine
 10
283.5596097217403
 20
186.5673065775561
 30
-0.0000001974752295
 11
280.5596097217403
 21
186.5673065775561
 31
-0.0000001974752295
  0
LINE
  5
192
330
2
100
AcDbEntity
  8
7
100
AcDbLine
 10
283.5596097217403
 20
186.5673065775561
 30
-0.0000001974752295
 11
280.5596097217403
 21
186.5673065775561
 31
-0.0000001974752295
  0
LINE
  5
193
330
2
100
AcDbEntity
  8
9
100
AcDbLine
 10
282.0596097217399
 20
186.5673065775565
 30
-0.0000001974752295
 11
280.9989495499596
 21
187.6279667493361
 31
-0.0000001974752295
  0
LINE
  5
194
330
2
100
AcDbEntity
  8
7
100
AcDbLine
 10
283.5596097217398
 20
186.5673065775561
 30
-0.0000001974752295
 11
280.5596097217398
 21
186.5673065775561
 31
-0.0000001974752295
  0
LINE
  5
195
330
2
100
AcDbEntity
  8
7
100
AcDbLine
 10
283.5596097217398
 20
186.5673065775561
 30
-0.0000001974752295
 11
280.5596097217398
 21
186.5673065775561
 31
-0.0000001974752295
  0
LINE
  5
196
330
2
100
AcDbEntity
  8
0
100
AcDbLine
 10
282.0596097217403
 20
186.5673065775561
 30
-0.0000001974752295
 11
283.12026989352
 21
187.6279667493356
 31
-0.0000001974752295
  0
INSERT
  5
197
330
2
100
AcDbEntity
  8
KR-TEXTOS
  6
CONTINUOUS
100
AcDbBlockReference
  2
SIM10
 10
282.0596097217407
 20
193.6141665251723
 30
-0.0000002040284003
 41
2.0
 42
2.0
 43
2.0
 50
90.0
  0
INSERT
  5
198
330
2
100
AcDbEntity
  8
KR-TEXTOS
  6
CONTINUOUS
100
AcDbBlockReference
  2
SIM10
 10
277.2395239894563
 20
193.6141665251723
 30
-0.0000002040284003
 41
2.0
 42
2.0
 43
2.0
 50
90.0
  0
INSERT
  5
199
330
2
100
AcDbEntity
  8
KR-TEXTOS
  6
CONTINUOUS
100
AcDbBlockReference
  2
SIM10
 10
286.8796954540248
 20
193.6141665251723
 30
-0.0000002040284003
 41
2.0
 42
2.0
 43
2.0
 50
90.0
  0
LWPOLYLINE
  5
19A
330
2
100
AcDbEntity
  8
9
100
AcDbPolyline
 90
        7
 70
     0
 43
0.0
 38
-0.0000001837850525
 10
288.9272931161324
 20
206.995176920496
 10
287.8666329443526
 20
208.0558370922758
 10
283.1202698935205
 20
208.0558370922758
 10
282.0596097217407
 20
209.1164972640556
 10
280.998949549961
 20
208.0558370922758
 10
276.2831222016852
 20
208.0558370922758
 10
275.2224620299055
 20
206.995176920496
  0
LINE
  5
19B
330
2
100
AcDbEntity
  8
7
100
AcDbLine
 10
283.5596097217405
 20
260.7499255860914
 30
-0.0000003292322646
 11
280.5596097217405
 21
260.7499255860914
 31
-0.0000003292322646
  0
LINE
  5
19C
330
2
100
AcDbEntity
  8
7
100
AcDbLine
 10
283.5596097217405
 20
260.7499255860914
 30
-0.0000003292322646
 11
280.5596097217405
 21
260.7499255860914
 31
-0.0000003292322646
  0
LINE
  5
19D
330
2
100
AcDbEntity
  8
7
100
AcDbLine
 10
283.5596097217405
 20
259.7499255860914
 30
-0.0000003292322646
 11
280.5596097217405
 21
259.7499255860914
 31
-0.0000003292322646
  0
LINE
  5
19E
330
2
100
AcDbEntity
  8
7
100
AcDbLine
 10
283.5596097217405
 20
259.7499255860914
 30
-0.0000003292322646
 11
280.5596097217405
 21
259.7499255860914
 31
-0.0000003292322646
  0
LINE
  5
19F
330
2
100
AcDbEntity
  8
0
100
AcDbLine
 10
282.059609721741
 20
260.7499255860914
 30
-0.0000003292322646
 11
283.1202698935208
 21
261.8105857578711
 31
-0.0000003292322646
  0
LINE
  5
1A0
330
2
100
AcDbEntity
  8
9
100
AcDbLine
 10
282.0596097217405
 20
260.7499255860918
 30
-0.0000003292322646
 11
280.9989495499603
 21
261.8105857578714
 31
-0.0000003292322646
  0
LINE
  5
1A1
330
2
100
AcDbEntity
  8
9
100
AcDbLine
 10
282.0596097217405
 20
259.7499255860909
 30
-0.0000003292322646
 11
280.9989495499603
 21
258.6892654143114
 31
-0.0000003292322646
  0
LINE
  5
1A2
330
2
100
AcDbEntity
  8
0
100
AcDbLine
 10
282.059609721741
 20
259.7499255860914
 30
-0.0000003292322646
 11
283.1202698935208
 21
258.6892654143116
 31
-0.0000003292322646
  0
TEXT
  5
1A3
330
2
100
AcDbEntity
  8
KR-TEXTOS
  6
CONTINUOUS
100
AcDbText
 10
280.9867110806942
 20
235.497962159033
 30
-0.0000002421443926
 40
2.0
  1
HEM 600 A52d
 50
90.0
  7
DEYP
 72
     1
 11
279.9867110806942
 21
247.1170097780807
 31
-0.0000002421443926
100
AcDbText
 73
     2
  0
TEXT
  5
1A4
330
2
100
AcDbEntity
  8
KR-TEXTOS
  6
CONTINUOUS
100
AcDbText
 10
280.9867110806942
 20
223.395915516012
 30
-0.0000002421443926
 40
2.0
  1
CONT.
 50
90.0
  7
DEYP
 72
     1
 11
279.9867110806942
 21
227.6816298017263
 31
-0.0000002421443926
100
AcDbText
 73
     2
  0
LINE
  5
1A5
330
2
100
AcDbEntity
  8
0
100
AcDbLine
 10
282.0596097217403
 20
221.9999999941671
 30
-0.0000001974752295
 11
283.12026989352
 21
223.0606601659467
 31
-0.0000001974752295
  0
LINE
  5
1A6
330
2
100
AcDbEntity
  8
7
100
AcDbLine
 10
283.5596097217398
 20
221.9999999941671
 30
-0.0000001974752295
 11
280.5596097217398
 21
221.9999999941671
 31
-0.0000001974752295
  0
LINE
  5
1A7
330
2
100
AcDbEntity
  8
7
100
AcDbLine
 10
283.5596097217398
 20
221.9999999941671
 30
-0.0000001974752295
 11
280.5596097217398
 21
221.9999999941671
 31
-0.0000001974752295
  0
LINE
  5
1A8
330
2
100
AcDbEntity
  8
9
100
AcDbLine
 10
282.0596097217399
 20
221.9999999941676
 30
-0.0000001974752295
 11
280.9989495499596
 21
223.0606601659471
 31
-0.0000001974752295
  0
LINE
  5
1A9
330
2
100
AcDbEntity
  8
9
100
AcDbLine
 10
282.0596097217401
 20
220.9999999941494
 30
-0.000000202311503
 11
280.9989495499598
 21
219.9393398223699
 31
-0.000000202311503
  0
LINE
  5
1AA
330
2
100
AcDbEntity
  8
7
100
AcDbLine
 10
283.5596097217401
 20
220.9999999941499
 30
-0.000000202311503
 11
280.5596097217401
 21
220.9999999941499
 31
-0.000000202311503
  0
LINE
  5
1AB
330
2
100
AcDbEntity
  8
7
100
AcDbLine
 10
283.5596097217401
 20
220.9999999941499
 30
-0.000000202311503
 11
280.5596097217401
 21
220.9999999941499
 31
-0.000000202311503
  0
LINE
  5
1AC
330
2
100
AcDbEntity
  8
0
100
AcDbLine
 10
282.0596097217405
 20
220.9999999941499
 30
-0.000000202311503
 11
283.1202698935203
 21
219.9393398223701
 31
-0.000000202311503
  0
CIRCLE
  5
1AD
330
2
100
AcDbEntity
  8
0
  6
RAYITAS
 62
     9
100
AcDbCircle
 10
293.8138884138357
 20
260.2499255860914
 30
-0.0000002796101745
 40
4.54103961029341
  0
CIRCLE
  5
1AE
330
2
100
AcDbEntity
  8
0
  6
RAYITAS
 62
     9
100
AcDbCircle
 10
293.8138884138357
 20
280.2499255860914
 30
-0.0000002767699432
 40
4.54103961029341
  0
TEXT
  5
1AF
330
2
100
AcDbEntity
  8
KR-TEXTOS
  6
CONTINUOUS
100
AcDbText
 10
280.9867110806942
 20
263.9676345839345
 30
-0.0000002421443926
 40
2.0
  1
CONT.
 50
90.0
  7
DEYP
 72
     1
 11
279.9867110806942
 21
268.2533488696487
 31
-0.0000002421443926
100
AcDbText
 73
     2
  0
LINE
  5
1B0
330
2
100
AcDbEntity
  8
0
100
AcDbLine
 10
282.0596097217414
 20
329.0239686139952
 30
-0.0000003862423772
 11
283.1202698935212
 21
327.9633084422155
 31
-0.0000003862423772
  0
LINE
  5
1B1
330
2
100
AcDbEntity
  8
9
100
AcDbLine
 10
282.059609721741
 20
329.0239686139948
 30
-0.0000003862423772
 11
280.9989495499607
 21
327.9633084422152
 31
-0.0000003862423772
  0
LINE
  5
1B2
330
2
100
AcDbEntity
  8
7
100
AcDbLine
 10
283.559609721741
 20
329.0239686139952
 30
-0.0000003862423772
 11
280.559609721741
 21
329.0239686139952
 31
-0.0000003862423772
  0
LINE
  5
1B3
330
2
100
AcDbEntity
  8
7
100
AcDbLine
 10
283.559609721741
 20
329.0239686139952
 30
-0.0000003862423772
 11
280.559609721741
 21
329.0239686139952
 31
-0.0000003862423772
  0
TEXT
  5
1B4
330
2
100
AcDbEntity
  8
KR-GRUESA
  6
CONTINUOUS
 62
     5
100
AcDbText
 10
190.3212371651923
 20
378.7948879119846
 30
-0.0000001923813101
 40
3.5
  1
PÓRTICO 2 . BLOQUE SUR
  7
ROMANS
 72
     1
 11
226.237903831859
 21
378.7948879119846
 31
-0.0000001923813101
100
AcDbText
  0
LINE
  5
1B6
330
2
100
AcDbEntity
  8
0
 62
     7
100
AcDbLine
 10
190.8706869271541
 20
377.5057529359894
 30
-0.0000001923813101
 11
261.7535569634369
 21
377.5057529359894
 31
-0.0000001923813101
  0
CIRCLE
  5
1B7
330
2
100
AcDbEntity
  8
0
  6
RAYITAS
 62
     9
100
AcDbCircle
 10
293.8138884138357
 20
329.023968613995
 30
-0.0000003762154179
 40
4.54103961029341
  0
TEXT
  5
1B8
330
2
100
AcDbEntity
  8
KR-TEXTOS
  6
CONTINUOUS
100
AcDbText
 10
-70.55474203515405
 20
297.4424192347857
 30
-0.0000001280805562
 40
2.0
  1
CONTRAFLECHA
  7
DEYP
100
AcDbText
  0
TEXT
  5
1B9
330
2
100
AcDbEntity
  8
KR-TEXTOS
  6
CONTINUOUS
100
AcDbText
 10
-59.03404642114576
 20
209.9828709365647
 30
-0.0000001238093948
 40
2.0
  1
SEGUN VANOS
  7
DEYP
 72
     1
 11
-48.31976070686005
 21
210.9828709365647
 31
-0.0000001238093948
100
AcDbText
 73
     2
  0
LINE
  5
1BA
330
2
100
AcDbEntity
  8
0
 62
     7
100
AcDbLine
 10
-41.36647244711389
 20
296.4882718959195
 30
-0.0000001280805562
 11
-71.25892832168915
 21
296.4882718959195
 31
-0.0000001280805562
  0
LWPOLYLINE
  5
1BB
330
2
100
AcDbEntity
  8
0
100
AcDbPolyline
 90
        4
 70
     0
 43
0.0
 38
-0.0000001821687349
 10
-93.66802461601741
 20
201.1844175774181
 10
-98.66802461601743
 20
201.1844175774181
 10
-98.6680246160181
 20
228.0638071857906
 10
-93.66802461601787
 20
228.0638071857907
  0
LWPOLYLINE
  5
1BC
330
2
100
AcDbEntity
  8
9
100
AcDbPolyline
 90
        7
 70
     0
 43
0.0
 38
-0.0000001238093948
 10
-61.27615933023003
 20
208.3235514996697
 10
-60.67953798360372
 20
208.9201728462957
 10
-60.67953798360372
 20
210.3862495899387
 10
-60.08291663697765
 20
210.9828709365647
 10
-60.67953798360372
 20
211.579492283191
 10
-60.67953798360372
 20
213.0455690268334
 10
-61.27615933023003
 20
213.6421903734596
  0
TEXT
  5
1BD
330
2
100
AcDbEntity
  8
KR-TEXTOS
  6
CONTINUOUS
100
AcDbText
 10
-70.55474203515427
 20
293.5341245570532
 30
-0.0000001280805562
 40
2.0
  1
= 35 mm
  7
DEYP
100
AcDbText
  0
LINE
  5
1BE
330
2
100
AcDbEntity
  8
9
100
AcDbLine
 10
155.1193876869069
 20
213.3330135027492
 30
0.0000002296597773
 11
293.3138884138358
 21
213.3330135027492
 31
0.0000001763361448
  0
LINE
  5
1BF
330
2
100
AcDbEntity
  8
9
100
AcDbLine
 10
165.4227382329309
 20
228.4413093438695
 30
0.0000002253348531
 11
293.3138884138358
 21
228.4413093438695
 31
0.0000001763361448
  0
TEXT
  5
1C0
330
2
100
AcDbEntity
  8
KR-TEXTOS
  6
CONTINUOUS
100
AcDbText
 10
130.049801349775
 20
227.4413093438695
 30
0.0
 40
2.0
  1
V. MIX. SIN INT. A52d
  7
DEYP
 72
     1
 11
146.9069442069178
 21
228.4413093438695
 31
0.0
100
AcDbText
 73
     2
  0
TEXT
  5
1C1
330
2
100
AcDbEntity
  8
KR-TEXTOS
  6
CONTINUOUS
100
AcDbText
 10
114.8117061116797
 20
203.4774924756222
 30
0.0
 40
2.0
  1
CONTRAFLECHA DE EJECUCION = L/1000
  7
DEYP
 72
     1
 11
146.9069442069178
 21
204.4774924756223
 31
0.0
100
AcDbText
 73
     2
  0
TEXT
  5
1C2
330
2
100
AcDbEntity
  8
KR-TEXTOS
  6
CONTINUOUS
100
AcDbText
 10
133.8275084990969
 20
300.6295848930513
 30
-0.0000001280805562
 40
2.0
  1
A
  7
DEYP
100
AcDbText
  0
LWPOLYLINE
  5
1C3
330
2
100
AcDbEntity
  8
0
 62
     7
100
AcDbPolyline
 90
        2
 70
     1
 43
0.7199999999999882
 38
-0.0000001695788186
 10
134.2925490407506
 20
304.3683720508898
 42
-1.0
 10
135.0125490407499
 20
304.3683720508898
 42
-1.0
  0
LINE
  5
1C4
330
2
100
AcDbEntity
  8
0
  6
TRAZO_Y_PUNTO
100
AcDbLine
 10
293.8138884138357
 20
329.0239686139952
 30
-0.0000001695788186
 11
55.12737278750091
 21
292.0491702269225
 31
-0.0000001695788186
  0
LINE
  5
1C5
330
2
100
AcDbEntity
  8
9
100
AcDbLine
 10
155.3399060666931
 20
310.6088212996494
 30
-0.0000001695788186
 11
55.27911292289991
 21
295.1084582262101
 31
-0.0000001695788186
  0
LINE
  5
1C6
330
2
100
AcDbEntity
  8
9
100
AcDbLine
 10
0.5
 20
150.9763296246124
 30
0.0000000643007539
 11
134.375705829279
 21
150.9763296246124
 31
0.0000000520357423
  0
TEXT
  5
1C7
330
2
100
AcDbEntity
  8
KR-TEXTOS
  6
CONTINUOUS
100
AcDbText
 10
51.43990901702863
 20
287.9897773379984
 30
-0.0000001280805562
 40
2.0
  1
CONT.
  7
DEYP
100
AcDbText
  0
LINE
  5
1C8
330
2
100
AcDbEntity
  8
0
  6
BYBLOCK
 62
     7
100
AcDbLine
 10
24.72133122007392
 20
220.8249999941672
 30
0.0
 11
24.72133122007392
 21
197.174999994167
 31
0.0
  0
TEXT
  5
1C9
330
2
100
AcDbEntity
  8
KR-TEXTOS
  6
CONTINUOUS
100
AcDbText
 10
-26.49035435976998
 20
217.8835287773745
 30
0.0
 40
2.0
  1
HEA 600 A52
  7
DEYP
100
AcDbText
  0
CIRCLE
  5
1CA
330
2
100
AcDbEntity
  8
0
  6
RAYITAS
 62
     9
100
AcDbCircle
 10
-30.0
 20
221.4999999941665
 30
-0.0000001549774494
 40
3.405779707720057
  0
LWPOLYLINE
  5
1CB
330
2
100
AcDbEntity
  8
9
100
AcDbPolyline
 90
        7
 70
     0
 43
0.0
 38
-0.0000001238093948
 10
-4.89239902679651
 20
214.1285671132379
 10
-5.953059198576283
 20
215.1892272850179
 10
-10.69942224940837
 20
215.1892272850179
 10
-11.76008242118814
 20
216.2498874567977
 10
-12.82074259296791
 20
215.1892272850179
 10
-17.53656994124367
 20
215.1892272850179
 10
-18.59723011302344
 20
214.1285671132379
  0
LWPOLYLINE
  5
1CC
330
2
100
AcDbEntity
  8
9
100
AcDbPolyline
 90
        7
 70
     0
 43
0.0
 38
-0.0000001238093948
 10
-4.89239902679651
 20
200.3314659257423
 10
-5.953059198576283
 20
199.2708057539623
 10
-10.69942224940837
 20
199.2708057539623
 10
-11.76008242118814
 20
198.2101455821825
 10
-12.82074259296791
 20
199.2708057539623
 10
-17.53656994124367
 20
199.2708057539623
 10
-18.59723011302344
 20
200.3314659257423
  0
INSERT
  5
1CD
330
2
100
AcDbEntity
  8
KR-TEXTOS
  6
CONTINUOUS
100
AcDbBlockReference
  2
SIM10
 10
-16.58016815347241
 20
201.6765290800681
 30
-0.0000001440527426
 41
2.0
 42
2.0
 43
2.0
 50
90.0
  0
TEXT
  5
1CE
330
2
100
AcDbEntity
  8
KR-TEXTOS
  6
CONTINUOUS
100
AcDbText
 10
-15.58016815347241
 20
203.0825991438632
 30
-0.0000001440527426
 40
2.0
  1
600.90
 50
90.0
  7
DEYP
 72
     1
 11
-16.58016815347241
 21
208.3683134295774
 31
-0.0000001440527426
100
AcDbText
 73
     2
  0
INSERT
  5
1CF
330
2
100
AcDbEntity
  8
KR-TEXTOS
  6
CONTINUOUS
100
AcDbBlockReference
  2
SIM10
 10
-6.939996688903875
 20
201.6765290800681
 30
-0.0000001440527426
 41
2.0
 42
2.0
 43
2.0
 50
90.0
  0
INSERT
  5
1D0
330
2
100
AcDbEntity
  8
KR-TEXTOS
  6
CONTINUOUS
100
AcDbBlockReference
  2
SIM10
 10
-11.76008242118837
 20
201.6765290800681
 30
-0.0000001440527426
 41
2.0
 42
2.0
 43
2.0
 50
90.0
  0
TEXT
  5
1D1
330
2
100
AcDbEntity
  8
KR-TEXTOS
  6
CONTINUOUS
100
AcDbText
 10
-5.939996688903875
 20
203.0825991438632
 30
-0.0000001440527426
 40
2.0
  1
600.90
 50
90.0
  7
DEYP
 72
     1
 11
-6.939996688903875
 21
208.3683134295774
 31
-0.0000001440527426
100
AcDbText
 73
     2
  0
TEXT
  5
1D2
330
2
100
AcDbEntity
  8
KR-TEXTOS
  6
CONTINUOUS
100
AcDbText
 10
-10.76008242118837
 20
203.1302181914822
 30
-0.0000001440527426
 40
2.0
  1
35.840
 50
90.0
  7
DEYP
 72
     1
 11
-11.76008242118837
 21
208.3683134295774
 31
-0.0000001440527426
100
AcDbText
 73
     2
  0
TEXT
  5
1D3
330
2
100
AcDbEntity
  8
KR-TEXTOS
  6
CONTINUOUS
100
AcDbText
 10
4.433140317830748
 20
152.0492282656587
 30
-0.0000001819259548
 40
2.0
  1
HEM 900
  7
DEYP
 72
     1
 11
11.43314031783074
 21
153.0492282656587
 31
-0.0000001819259548
100
AcDbText
 73
     2
  0
TEXT
  5
1D4
330
2
100
AcDbEntity
  8
KR-TEXTOS
  6
CONTINUOUS
100
AcDbText
 10
6.687205728678345
 20
147.903427180543
 30
-0.0000001819259548
 40
2.0
  1
A52d
  7
DEYP
 72
     1
 11
10.21101525248786
 21
148.903427180543
 31
-0.0000001819259548
100
AcDbText
 73
     2
  0
LINE
  5
1D5
330
2
100
AcDbEntity
  8
7
100
AcDbLine
 10
20.00000000000022
 20
149.4763296246128
 30
0.0000000002427801
 11
20.00000000000022
 21
152.4763296246128
 31
0.0000000002427801
  0
LINE
  5
1D6
330
2
100
AcDbEntity
  8
7
100
AcDbLine
 10
20.00000000000022
 20
149.4763296246128
 30
0.0000000002427801
 11
20.00000000000022
 21
152.4763296246128
 31
0.0000000002427801
  0
LINE
  5
1D7
330
2
100
AcDbEntity
  8
0
100
AcDbLine
 10
20.00000000000022
 20
150.9763296246124
 30
0.0000000002427801
 11
21.06066017177977
 21
149.9156694528323
 31
0.0000000002427801
  0
LINE
  5
1D8
330
2
100
AcDbEntity
  8
0
100
AcDbLine
 10
20.00000000000022
 20
150.9763296246124
 30
0.0000000002427801
 11
18.93933982822022
 21
149.9156694528323
 31
0.0000000002427801
  0
LINE
  5
1D9
330
2
100
AcDbEntity
  8
9
100
AcDbLine
 10
20.00000000000068
 20
150.9763296246128
 30
0.0000000002427801
 11
21.06066017178022
 21
152.0369897963928
 31
0.0000000002427801
  0
LINE
  5
1DA
330
2
100
AcDbEntity
  8
9
100
AcDbLine
 10
19.99999999999977
 20
150.9763296246128
 30
0.0000000002427801
 11
18.93933982822022
 21
152.0369897963928
 31
0.0000000002427801
  0
TEXT
  5
1DB
330
2
100
AcDbEntity
  8
KR-TEXTOS
  6
CONTINUOUS
100
AcDbText
 10
5.242664127354558
 20
214.4059121437956
 30
0.0
 40
2.0
  1
25.1400
  7
DEYP
 72
     1
 11
11.43314031783074
 21
215.4059121437956
 31
0.0
100
AcDbText
 73
     2
  0
INSERT
  5
1DC
330
2
100
AcDbEntity
  8
KR-TEXTOS
  6
CONTINUOUS
100
AcDbBlockReference
  2
SIM10
 10
3.661622993936816
 20
215.4059121437956
 30
0.0
 41
2.0
 42
2.0
 43
2.0
  0
TEXT
  5
1DD
330
2
100
AcDbEntity
  8
KR-TEXTOS
  6
CONTINUOUS
100
AcDbText
 10
7.830062871535487
 20
210.2601110586799
 30
0.0
 40
2.0
  1
2.0
  7
DEYP
 72
     1
 11
10.21101525248786
 21
211.2601110586799
 31
0.0
100
AcDbText
 73
     2
  0
LINE
  5
1DE
330
2
100
AcDbEntity
  8
0
  6
BYBLOCK
 62
     7
100
AcDbLine
 10
23.06983321411064
 20
196.499999994167
 30
0.0
 11
26.34133122007358
 21
196.499999994167
 31
0.0
  0
INSERT
  5
1DF
330
2
100
AcDbEntity
  8
0
  6
BYBLOCK
 62
     1
100
AcDbBlockReference
  2
COTA
 10
24.72133122007392
 20
196.499999994167
 30
0.0
 41
0.6750000000000114
 42
0.6750000000000114
 43
0.6749999999999888
 50
270.0
  0
MTEXT
  5
1E0
330
2
100
AcDbEntity
  8
0
  6
BYBLOCK
 62
     2
100
AcDbMText
 10
30.53711852097023
 20
205.8496358413674
 30
0.0
 40
1.79999999999997
 41
0.0
 71
     5
 72
     1
  1
A EJES
  7
ROMANS
1001
ACAD
1000
MTEXTBEGIN
1070
    73
1070
     1
1070
    44
1040
1.0
1070
    74
1070
     0
1000
MTEXTEND
  0
MTEXT
  5
1E1
330
2
100
AcDbEntity
  8
0
  6
BYBLOCK
 62
     2
100
AcDbMText
 10
30.53711852097023
 20
209.2511884349239
 30
0.0
 40
1.79999999999997
 41
0.0
 71
     5
 72
     1
  1
2.500
  7
ROMANS
1001
ACAD
1000
MTEXTBEGIN
1070
    73
1070
     1
1070
    44
1040
1.0
1070
    74
1070
     0
1000
MTEXTEND
  0
LWPOLYLINE
  5
1E2
330
2
100
AcDbEntity
  8
0
 62
     5
100
AcDbPolyline
 90
        2
 70
     0
 43
1.0
 10
0.0
 20
221.4999999941665
 10
-30.0
 20
221.4999999941665
  0
TEXT
  5
1E3
330
2
100
AcDbEntity
  8
KR-TEXTOS
  6
CONTINUOUS
100
AcDbText
 10
-26.57505208222687
 20
222.8773521391453
 30
0.0
 40
2.0
  1
V. MIX. CONT.
  7
DEYP
100
AcDbText
  0
INSERT
  5
1E4
330
2
100
AcDbEntity
  8
0
  6
BYBLOCK
 62
     1
100
AcDbBlockReference
  2
COTA
 10
24.72133122007392
 20
221.4999999941671
 30
0.0
 41
0.6750000000000114
 42
0.6750000000000114
 43
0.6749999999999888
 50
90.0
  0
LINE
  5
1E5
330
2
100
AcDbEntity
  8
0
  6
BYBLOCK
 62
     7
100
AcDbLine
 10
23.06983321411064
 20
221.4999999941671
 30
0.0
 11
26.34133122007358
 21
221.4999999941671
 31
0.0
  0
LINE
  5
1E6
330
2
100
AcDbEntity
  8
7
100
AcDbLine
 10
0.5
 20
149.4763296246123
 30
0.0000000643007539
 11
0.5
 21
152.4763296246123
 31
0.0000000643007539
  0
LINE
  5
1E7
330
2
100
AcDbEntity
  8
0
100
AcDbLine
 10
0.5000000000002274
 20
150.9763296246119
 30
0.0000000643007539
 11
1.560660171779773
 21
149.9156694528321
 31
0.0000000643007539
  0
LINE
  5
1E8
330
2
100
AcDbEntity
  8
9
100
AcDbLine
 10
0.5000000000006822
 20
150.9763296246124
 30
0.0000000643007539
 11
1.560660171780227
 21
152.0369897963926
 31
0.0000000643007539
  0
LINE
  5
1E9
330
2
100
AcDbEntity
  8
9
100
AcDbLine
 10
19.99999999999977
 20
213.3330135027497
 30
0.0000001821687349
 11
18.93933982822022
 21
214.3936736745297
 31
0.0000001821687349
  0
LINE
  5
1EA
330
2
100
AcDbEntity
  8
0
100
AcDbLine
 10
20.00000000000022
 20
213.3330135027492
 30
0.0000001821687349
 11
18.93933982822022
 21
212.2723533309692
 31
0.0000001821687349
  0
LINE
  5
1EB
330
2
100
AcDbEntity
  8
0
100
AcDbLine
 10
20.00000000000022
 20
213.3330135027492
 30
0.0000001821687349
 11
21.06066017177977
 21
212.2723533309692
 31
0.0000001821687349
  0
LINE
  5
1EC
330
2
100
AcDbEntity
  8
9
100
AcDbLine
 10
20.00000000000068
 20
213.3330135027497
 30
0.0000001821687349
 11
21.06066017178022
 21
214.3936736745297
 31
0.0000001821687349
  0
LINE
  5
1ED
330
2
100
AcDbEntity
  8
7
100
AcDbLine
 10
20.00000000000022
 20
211.8330135027497
 30
0.0000001821687349
 11
20.00000000000022
 21
214.8330135027497
 31
0.0000001821687349
  0
LINE
  5
1EE
330
2
100
AcDbEntity
  8
7
100
AcDbLine
 10
20.00000000000022
 20
211.8330135027497
 30
0.0000001821687349
 11
20.00000000000022
 21
214.8330135027497
 31
0.0000001821687349
  0
LINE
  5
1EF
330
2
100
AcDbEntity
  8
9
100
AcDbLine
 10
55.22089453205308
 20
295.0481649739963
 30
-0.0000001695788186
 11
28.42025286245075
 21
296.3501890586133
 31
-0.0000001695788186
  0
LINE
  5
1F0
330
2
100
AcDbEntity
  8
0
  6
TRAZO_Y_PUNTO
100
AcDbLine
 10
55.12737278750091
 20
292.0491702269225
 30
-0.0000001695788186
 11
-36.24633878304803
 21
296.4882718959197
 31
-0.0000001695788186
  0
TEXT
  5
1F1
330
2
100
AcDbEntity
  8
KR-TEXTOS
  6
CONTINUOUS
100
AcDbText
 10
-6.160184053730337
 20
297.028990393398
 30
-0.0000001695788186
 40
2.0
  1
HEA 500 A52d CONT.
 50
357.2186532608954
  7
DEYP
 72
     1
 11
10.53537367434751
 21
297.219069130235
 31
-0.0000001695788186
100
AcDbText
 73
     2
  0
LINE
  5
1F2
330
2
100
AcDbEntity
  8
9
100
AcDbLine
 10
-7.072130118860286
 20
298.0744737989498
 30
-0.0000001695788186
 11
-36.2463387830478
 21
299.4918101000257
 31
-0.0000001695788186
  0
LINE
  5
1F3
330
2
100
AcDbEntity
  8
0
100
AcDbLine
 10
-36.24633878304825
 20
299.4918101000248
 30
-0.0000001695788186
 11
-35.22717326123756
 21
298.3912186048946
 31
-0.0000001695788186
  0
LINE
  5
1F4
330
2
100
AcDbEntity
  8
9
100
AcDbLine
 10
-36.24633878304758
 20
299.4918101000253
 30
-0.0000001695788186
 11
-35.14574728791808
 21
300.5109756218364
 31
-0.0000001695788186
  0
LWPOLYLINE
  5
1F5
330
2
100
AcDbEntity
  8
0
 62
     7
100
AcDbPolyline
 90
        2
 70
     1
 43
0.7199999999999882
 38
-0.0000001695788186
 10
-36.6063387830477
 20
296.4882718959197
 42
-1.0
 10
-35.88633878304836
 20
296.4882718959197
 42
-1.0
  0
TEXT
  5
1F6
330
2
100
AcDbEntity
  8
KR-TEXTOS
  6
CONTINUOUS
100
AcDbText
 10
-38.3480400647827
 20
298.3321714298524
 30
-0.0000001280805562
 40
2.0
  1
A
  7
DEYP
100
AcDbText
  0
LWPOLYLINE
  5
1F7
330
2
100
AcDbEntity
  8
0
 62
     7
100
AcDbPolyline
 90
        2
 70
     1
 43
0.7199999999999882
 38
-0.0000001695788186
 10
54.76737278750125
 20
292.0491702269225
 42
-1.0
 10
55.48737278750059
 20
292.0491702269225
 42
-1.0
  0
LINE
  5
1F8
330
2
100
AcDbEntity
  8
9
100
AcDbLine
 10
55.279112922899
 20
295.108458226211
 30
-0.0000001695788186
 11
54.20004843883998
 21
296.1503890488872
 31
-0.0000001695788186
  0
LINE
  5
1F9
330
2
100
AcDbEntity
  8
9
100
AcDbLine
 10
55.27911292289946
 20
295.1084582262108
 30
-0.0000001695788186
 11
56.14081308675349
 21
296.3362500764908
 31
-0.0000001695788186
  0
LINE
  5
1FA
330
2
100
AcDbEntity
  8
0
100
AcDbLine
 10
55.27911292289968
 20
295.1084582262105
 30
-0.0000001695788186
 11
54.23718210022321
 21
294.0293937421513
 31
-0.0000001695788186
  0
LINE
  5
1FB
330
2
100
AcDbEntity
  8
0
100
AcDbLine
 10
55.279112922899
 20
295.1084582262101
 30
-0.0000001695788186
 11
56.50690477317903
 21
294.2467580623556
 31
-0.0000001695788186
  0
TEXT
  5
1FC
330
2
100
AcDbEntity
  8
KR-TEXTOS
  6
CONTINUOUS
100
AcDbText
 10
54.27008759629143
 20
297.5335336156099
 30
-0.0000001280805562
 40
2.0
  1
A
  7
DEYP
100
AcDbText
  0
LINE
  5
1FD
330
2
100
AcDbEntity
  8
0
  6
TRAZO_Y_PUNTO
100
AcDbLine
 10
240.9985724750868
 20
320.8423767320225
 30
-0.000000169773254
 11
293.8138884138357
 21
260.2499255860916
 31
-0.0000000729735753
  0
LINE
  5
1FE
330
2
100
AcDbEntity
  8
9
100
AcDbLine
 10
159.6875471336925
 20
150.9763296246124
 30
0.0000000431661182
 11
293.3138884138358
 21
150.9763296246124
 31
-0.0000000058325901
  0
INSERT
  5
1FF
330
2
100
AcDbEntity
  8
KR-TEXTOS
  6
CONTINUOUS
100
AcDbBlockReference
  2
SIM10
 10
141.6072573803221
 20
218.1530992350337
 30
0.0
 41
2.0
 42
2.0
 43
2.0
  0
TEXT
  5
200
330
2
100
AcDbEntity
  8
KR-TEXTOS
  6
CONTINUOUS
100
AcDbText
 10
143.0133274441172
 20
217.1530992350337
 30
0.0
 40
2.0
  1
600.50
  7
DEYP
 72
     1
 11
148.2990417298315
 21
218.1530992350337
 31
0.0
100
AcDbText
 73
     2
  0
TEXT
  5
201
330
2
100
AcDbEntity
  8
KR-TEXTOS
  6
CONTINUOUS
100
AcDbText
 10
135.4307537307273
 20
149.9763296246124
 30
-0.0000001821687349
 40
2.0
  1
HEB 900 A52d
  7
DEYP
 72
     1
 11
146.9069442069178
 21
150.9763296246124
 31
-0.0000001821687349
100
AcDbText
 73
     2
  0
TEXT
  5
202
330
2
100
AcDbEntity
  8
KR-TEXTOS
  6
CONTINUOUS
100
AcDbText
 10
142.0008727691289
 20
212.3330135027492
 30
0.0
 40
2.0
  1
20.1400
  7
DEYP
 72
     1
 11
148.1913489596052
 21
213.3330135027492
 31
0.0
100
AcDbText
 73
     2
  0
TEXT
  5
203
330
2
100
AcDbEntity
  8
KR-TEXTOS
  6
CONTINUOUS
100
AcDbText
 10
143.0133274441172
 20
207.5129277704652
 30
0.0
 40
2.0
  1
600.50
  7
DEYP
 72
     1
 11
148.2990417298315
 21
208.5129277704652
 31
0.0
100
AcDbText
 73
     2
  0
INSERT
  5
204
330
2
100
AcDbEntity
  8
KR-TEXTOS
  6
CONTINUOUS
100
AcDbBlockReference
  2
SIM10
 10
140.6866899724461
 20
213.3330135027492
 30
0.0
 41
2.0
 42
2.0
 43
2.0
  0
INSERT
  5
205
330
2
100
AcDbEntity
  8
KR-TEXTOS
  6
CONTINUOUS
100
AcDbBlockReference
  2
SIM10
 10
141.6072573803221
 20
208.5129277704652
 30
0.0
 41
2.0
 42
2.0
 43
2.0
  0
LINE
  5
206
330
2
100
AcDbEntity
  8
0
  6
BYBLOCK
 62
     7
100
AcDbLine
 10
267.9507590410663
 20
220.8249999941672
 30
0.0
 11
267.9507590410663
 21
187.242306577556
 31
0.0
  0
LINE
  5
207
330
2
100
AcDbEntity
  8
0
100
AcDbLine
 10
296.5833187630666
 20
147.633811222299
 30
-0.0000001679777333
 11
304.3694113846362
 21
157.7516030092717
 31
-0.0000001280805562
  0
LINE
  5
208
330
2
100
AcDbEntity
  8
0
100
AcDbLine
 10
273.8138884138361
 20
150.9763296246119
 30
-0.0000000713823186
 11
272.7532282420566
 21
149.9156694528319
 31
-0.0000000713823186
  0
LINE
  5
209
330
2
100
AcDbEntity
  8
9
100
AcDbLine
 10
273.8138884138356
 20
150.9763296246124
 30
-0.0000000713823186
 11
272.7532282420561
 21
152.0369897963924
 31
-0.0000000713823186
  0
INSERT
  5
20A
330
2
100
AcDbEntity
  8
0
  6
BYBLOCK
 62
     1
100
AcDbBlockReference
  2
COTA
 10
267.9507590410663
 20
186.5673065775561
 30
0.0
 41
-0.6750000000000114
 42
0.6750000000000114
 43
0.6749999999999888
 50
90.0
  0
LINE
  5
20B
330
2
100
AcDbEntity
  8
0
  6
BYBLOCK
 62
     7
100
AcDbLine
 10
269.6022570470296
 20
186.5673065775561
 30
0.0
 11
266.3307590410667
 21
186.5673065775561
 31
0.0
  0
MTEXT
  5
20C
330
2
100
AcDbEntity
  8
0
  6
BYBLOCK
 62
     2
100
AcDbMText
 10
262.13497174017
 20
206.3355713611147
 30
0.0
 40
1.79999999999997
 41
0.0
 71
     5
 72
     1
  1
2.500
  7
ROMANS
1001
ACAD
1000
MTEXTBEGIN
1070
    73
1070
     1
1070
    44
1040
1.0
1070
    74
1070
     0
1000
MTEXTEND
  0
MTEXT
  5
20D
330
2
100
AcDbEntity
  8
0
  6
BYBLOCK
 62
     2
100
AcDbMText
 10
262.13497174017
 20
202.9340187675582
 30
0.0
 40
1.79999999999997
 41
0.0
 71
     5
 72
     1
  1
A EJES
  7
ROMANS
1001
ACAD
1000
MTEXTBEGIN
1070
    73
1070
     1
1070
    44
1040
1.0
1070
    74
1070
     0
1000
MTEXTEND
  0
LINE
  5
20E
330
2
100
AcDbEntity
  8
7
100
AcDbLine
 10
273.8138884138361
 20
149.4763296246123
 30
-0.0000000713823186
 11
273.8138884138361
 21
152.4763296246123
 31
-0.0000000713823186
  0
LINE
  5
20F
330
2
100
AcDbEntity
  8
7
100
AcDbLine
 10
273.8138884138361
 20
149.4763296246123
 30
-0.0000000713823186
 11
273.8138884138361
 21
152.4763296246123
 31
-0.0000000713823186
  0
LINE
  5
210
330
2
100
AcDbEntity
  8
0
100
AcDbLine
 10
273.8138884138361
 20
150.9763296246119
 30
-0.0000000713823186
 11
274.8745485856161
 21
149.9156694528319
 31
-0.0000000713823186
  0
LINE
  5
211
330
2
100
AcDbEntity
  8
9
100
AcDbLine
 10
273.8138884138365
 20
150.9763296246124
 30
-0.0000000713823186
 11
274.8745485856161
 21
152.0369897963924
 31
-0.0000000713823186
  0
LINE
  5
212
330
2
100
AcDbEntity
  8
0
100
AcDbLine
 10
293.3138884138356
 20
150.9763296246119
 30
-0.0000000058325901
 11
292.2532282420559
 21
149.9156694528321
 31
-0.0000000058325901
  0
LINE
  5
213
330
2
100
AcDbEntity
  8
7
100
AcDbLine
 10
293.3138884138356
 20
149.4763296246123
 30
-0.0000000058325901
 11
293.3138884138356
 21
152.4763296246123
 31
-0.0000000058325901
  0
LINE
  5
214
330
2
100
AcDbEntity
  8
9
100
AcDbLine
 10
293.3138884138352
 20
150.9763296246124
 30
-0.0000000058325901
 11
292.2532282420556
 21
152.0369897963926
 31
-0.0000000058325901
  0
LINE
  5
215
330
2
100
AcDbEntity
  8
0
 62
     7
100
AcDbLine
 10
239.1994451238658
 20
260.2499255860914
 30
-0.0000001280805562
 11
289.2728488035422
 21
260.2499255860914
 31
-0.0000001280805562
  0
LINE
  5
216
330
2
100
AcDbEntity
  8
0
 62
     7
100
AcDbLine
 10
239.1994451238658
 20
280.2499255860914
 30
-0.0000001280805562
 11
289.2728488035422
 21
280.2499255860914
 31
-0.0000001280805562
  0
LINE
  5
217
330
2
100
AcDbEntity
  8
0
 62
     7
100
AcDbLine
 10
239.1994451238658
 20
237.4589227690337
 30
-0.0000001280805562
 11
275.8790027432419
 21
237.4589227690337
 31
-0.0000001280805562
  0
TEXT
  5
218
330
2
100
AcDbEntity
  8
KR-TEXTOS
  6
CONTINUOUS
100
AcDbText
 10
238.860218068065
 20
238.4130701079
 30
-0.0000001280805562
 40
2.0
  1
V. TRANSV. MIX. CONT.
  7
DEYP
100
AcDbText
  0
TEXT
  5
219
330
2
100
AcDbEntity
  8
KR-TEXTOS
  6
CONTINUOUS
100
AcDbText
 10
238.860218068065
 20
261.2040729249577
 30
-0.0000001280805562
 40
2.0
  1
V. TRANSV. MIX. CONT.
  7
DEYP
100
AcDbText
  0
TEXT
  5
21A
330
2
100
AcDbEntity
  8
KR-TEXTOS
  6
CONTINUOUS
100
AcDbText
 10
238.860218068065
 20
234.5047754301674
 30
-0.0000001280805562
 40
2.0
  1
HEB 700 A52d
  7
DEYP
100
AcDbText
  0
TEXT
  5
21B
330
2
100
AcDbEntity
  8
KR-TEXTOS
  6
CONTINUOUS
100
AcDbText
 10
238.860218068065
 20
281.2040729249577
 30
-0.0000001280805562
 40
2.0
  1
V. TRANSV. CONT.
  7
DEYP
100
AcDbText
  0
TEXT
  5
21C
330
2
100
AcDbEntity
  8
KR-TEXTOS
  6
CONTINUOUS
100
AcDbText
 10
238.860218068065
 20
257.2957782472251
 30
-0.0000001280805562
 40
2.0
  1
HEA 600 A52d
  7
DEYP
100
AcDbText
  0
TEXT
  5
21D
330
2
100
AcDbEntity
  8
KR-TEXTOS
  6
CONTINUOUS
100
AcDbText
 10
238.860218068065
 20
277.2957782472251
 30
-0.0000001280805562
 40
2.0
  1
IPE 330 A52d
  7
DEYP
100
AcDbText
  0
TEXT
  5
21E
330
2
100
AcDbEntity
  8
KR-TEXTOS
  6
CONTINUOUS
100
AcDbText
 10
299.311954228282
 20
279.5335265071175
 30
-0.0000001280805562
 40
2.0
  1
A
  7
DEYP
100
AcDbText
  0
INSERT
  5
21F
330
2
100
AcDbEntity
  8
0
  6
BYBLOCK
 62
     1
100
AcDbBlockReference
  2
COTA
 10
267.9507590410663
 20
221.4999999941671
 30
0.0
 41
-0.6750000000000114
 42
0.6750000000000114
 43
0.6749999999999888
 50
270.0
  0
LINE
  5
220
330
2
100
AcDbEntity
  8
0
  6
BYBLOCK
 62
     7
100
AcDbLine
 10
269.6022570470296
 20
221.4999999941671
 30
0.0
 11
266.3307590410667
 21
221.4999999941671
 31
0.0
  0
LINE
  5
221
330
2
100
AcDbEntity
  8
0
 62
     5
100
AcDbLine
 10
290.8138884138354
 20
280.2499255860918
 30
-0.0000000701775056
 11
296.8138884138354
 21
280.2499255860914
 31
-0.0000000700891824
  0
LWPOLYLINE
  5
222
330
2
100
AcDbEntity
  8
0
 62
     7
100
AcDbPolyline
 90
        2
 70
     1
 43
1.033596233139957
 38
-0.000000070133344
 10
293.2970902972661
 20
280.2499255860914
 42
-1.0
 10
294.3306865304052
 20
280.2499255860914
 42
-1.0
  0
LINE
  5
223
330
2
100
AcDbEntity
  8
9
100
AcDbLine
 10
273.8138884138356
 20
213.3330135027492
 30
0.0000001120353909
 11
272.7532282420561
 21
214.3936736745292
 31
0.0000001120353909
  0
LINE
  5
224
330
2
100
AcDbEntity
  8
0
100
AcDbLine
 10
273.8138884138361
 20
213.3330135027488
 30
0.0000001120353909
 11
272.7532282420566
 21
212.2723533309688
 31
0.0000001120353909
  0
LINE
  5
225
330
2
100
AcDbEntity
  8
0
100
AcDbLine
 10
273.8138884138361
 20
213.3330135027488
 30
0.0000001120353909
 11
274.8745485856161
 21
212.2723533309688
 31
0.0000001120353909
  0
LINE
  5
226
330
2
100
AcDbEntity
  8
9
100
AcDbLine
 10
273.8138884138365
 20
213.3330135027492
 30
0.0000001120353909
 11
274.8745485856161
 21
214.3936736745292
 31
0.0000001120353909
  0
LINE
  5
227
330
2
100
AcDbEntity
  8
7
100
AcDbLine
 10
273.8138884138361
 20
211.8330135027493
 30
0.0000001120353909
 11
273.8138884138361
 21
214.8330135027492
 31
0.0000001120353909
  0
LINE
  5
228
330
2
100
AcDbEntity
  8
7
100
AcDbLine
 10
273.8138884138361
 20
211.8330135027493
 30
0.0000001120353909
 11
273.8138884138361
 21
214.8330135027492
 31
0.0000001120353909
  0
LINE
  5
229
330
2
100
AcDbEntity
  8
0
100
AcDbLine
 10
293.3138884138356
 20
213.3330135027488
 30
0.0000001763361448
 11
292.2532282420559
 21
212.2723533309688
 31
0.0000001763361448
  0
LINE
  5
22A
330
2
100
AcDbEntity
  8
9
100
AcDbLine
 10
293.3138884138352
 20
213.3330135027492
 30
0.0000001763361448
 11
292.2532282420556
 21
214.3936736745292
 31
0.0000001763361448
  0
LINE
  5
22B
330
2
100
AcDbEntity
  8
7
100
AcDbLine
 10
293.3138884138356
 20
211.8330135027493
 30
0.0000001763361448
 11
293.3138884138356
 21
214.8330135027492
 31
0.0000001763361448
  0
LINE
  5
22C
330
2
100
AcDbEntity
  8
0
100
AcDbLine
 10
293.3138884138356
 20
228.441309343869
 30
0.0000001763361448
 11
292.2532282420559
 21
227.380649172089
 31
0.0000001763361448
  0
LINE
  5
22D
330
2
100
AcDbEntity
  8
9
100
AcDbLine
 10
293.3138884138352
 20
228.4413093438695
 30
0.0000001763361448
 11
292.2532282420556
 21
229.5019695156495
 31
0.0000001763361448
  0
LINE
  5
22E
330
2
100
AcDbEntity
  8
7
100
AcDbLine
 10
293.3138884138356
 20
226.9413093438695
 30
0.0000001763361448
 11
293.3138884138356
 21
229.9413093438695
 31
0.0000001763361448
  0
LINE
  5
22F
330
2
100
AcDbEntity
  8
9
100
AcDbLine
 10
293.8546878626791
 20
332.0660708518355
 30
-0.0000001685024332
 11
189.9960531129004
 21
315.9773861996973
 31
-0.0000001695788186
  0
TEXT
  5
230
330
2
100
AcDbEntity
  8
KR-TEXTOS
100
AcDbText
 10
157.9311695643431
 20
366.1007443126907
 30
-0.0000001280805562
 40
2.0
  1
VER RESTO DEFINICIÓN DE PERFILES Y ARMADURAS EN PLANOS DE PLANTA Y DETALLES
  7
ROMANS
 72
     1
 11
226.3121219452955
 21
367.1007443126907
 31
-0.0000001280805562
100
AcDbText
 73
     2
  0
TEXT
  5
231
330
2
100
AcDbEntity
  8
KR-TEXTOS
  6
CONTINUOUS
100
AcDbText
 10
156.866329927716
 20
309.8333514510723
 30
-0.0000001695788186
 40
2.0
  1
IPE 500 A52d CONT.
 50
8.805666862702679
  7
DEYP
 72
     1
 11
172.665831599601
 21
313.2927710056794
 31
-0.0000001695788186
100
AcDbText
 73
     2
  0
LWPOLYLINE
  5
232
330
2
100
AcDbEntity
  8
0
 62
     7
100
AcDbPolyline
 90
        2
 70
     1
 43
0.7199999999999882
 38
-0.0000001695788186
 10
213.8177252939999
 20
316.6875738748569
 42
-1.0
 10
214.5377252939993
 20
316.6875738748569
 42
-1.0
  0
TEXT
  5
233
330
2
100
AcDbEntity
  8
KR-TEXTOS
  6
CONTINUOUS
100
AcDbText
 10
213.3189552569461
 20
312.9467358188908
 30
-0.0000001280805562
 40
2.0
  1
A
  7
DEYP
100
AcDbText
  0
LINE
  5
234
330
2
100
AcDbEntity
  8
0
 62
     7
100
AcDbLine
 10
239.1994451238658
 20
309.201994654247
 30
-0.0000001280805562
 11
275.8790027432419
 21
309.201994654247
 31
-0.0000001280805562
  0
LINE
  5
235
330
2
100
AcDbEntity
  8
0
 62
     7
100
AcDbLine
 10
239.1994451238658
 20
339.0485504336886
 30
-0.0000001280805562
 11
275.8790027432419
 21
339.0485504336886
 31
-0.0000001280805562
  0
TEXT
  5
236
330
2
100
AcDbEntity
  8
KR-TEXTOS
  6
CONTINUOUS
100
AcDbText
 10
238.860218068065
 20
310.1561419931133
 30
-0.0000001280805562
 40
2.0
  1
CELOSIA TRANSV.
  7
DEYP
100
AcDbText
  0
TEXT
  5
237
330
2
100
AcDbEntity
  8
KR-TEXTOS
  6
CONTINUOUS
100
AcDbText
 10
257.2172556249813
 20
304.8437524910612
 30
-0.0000001280805562
 40
2.0
  1
%%c200.8 A52
 50
311.0788601439965
  7
DEYP
100
AcDbText
  0
TEXT
  5
238
330
2
100
AcDbEntity
  8
KR-TEXTOS
  6
CONTINUOUS
100
AcDbText
 10
238.860218068065
 20
340.0026977725549
 30
-0.0000001280805562
 40
2.0
  1
V. TRANSV. CONT.
  7
DEYP
100
AcDbText
  0
TEXT
  5
239
330
2
100
AcDbEntity
  8
KR-TEXTOS
  6
CONTINUOUS
100
AcDbText
 10
238.860218068065
 20
336.0944030948223
 30
-0.0000001280805562
 40
2.0
  1
HEB 160 A52d
  7
DEYP
100
AcDbText
  0
LWPOLYLINE
  5
23A
330
2
100
AcDbEntity
  8
0
 62
     7
100
AcDbPolyline
 90
        2
 70
     1
 43
0.3599999999999941
 38
-0.0000001695788186
 10
293.6338884138358
 20
329.023968613995
 42
-1.0
 10
293.9938884138355
 20
329.023968613995
 42
-1.0
  0
LWPOLYLINE
  5
23B
330
2
100
AcDbEntity
  8
0
 62
     7
100
AcDbPolyline
 90
        2
 70
     1
 43
1.033596233139957
 38
-0.0000001695788186
 10
293.2970902972661
 20
329.023968613995
 42
-1.0
 10
294.3306865304052
 20
329.023968613995
 42
-1.0
  0
TEXT
  5
23C
330
2
100
AcDbEntity
  8
KR-TEXTOS
  6
CONTINUOUS
100
AcDbText
 10
292.9396784436044
 20
333.9605702965004
 30
-0.0000001280805562
 40
2.0
  1
A
  7
DEYP
100
AcDbText
  0
LINE
  5
23D
330
2
100
AcDbEntity
  8
9
100
AcDbLine
 10
0.5
 20
213.3330135027492
 30
0.0000002464694888
 11
138.4755913534013
 21
213.3330135027492
 31
0.0000002331218926
  0
LINE
  5
23E
330
2
100
AcDbEntity
  8
9
100
AcDbLine
 10
0.5
 20
228.4413093438695
 30
0.0000002464694888
 11
128.3911501809047
 21
228.4413093438695
 31
0.0000002342044772
  0
LINE
  5
23F
330
2
100
AcDbEntity
  8
7
100
AcDbLine
 10
0.5
 20
211.8330135027493
 30
0.0000002464694888
 11
0.5
 21
214.8330135027492
 31
0.0000002464694888
  0
LINE
  5
240
330
2
100
AcDbEntity
  8
0
100
AcDbLine
 10
0.5000000000002274
 20
213.3330135027488
 30
0.0000002464694888
 11
1.560660171779773
 21
212.2723533309688
 31
0.0000002464694888
  0
LINE
  5
241
330
2
100
AcDbEntity
  8
9
100
AcDbLine
 10
0.5000000000006822
 20
213.3330135027492
 30
0.0000002464694888
 11
1.560660171780227
 21
214.3936736745292
 31
0.0000002464694888
  0
LINE
  5
242
330
2
100
AcDbEntity
  8
7
100
AcDbLine
 10
0.5
 20
226.9413093438695
 30
0.0000002464694888
 11
0.5
 21
229.9413093438695
 31
0.0000002464694888
  0
LINE
  5
243
330
2
100
AcDbEntity
  8
0
100
AcDbLine
 10
0.5000000000002274
 20
228.441309343869
 30
0.0000002464694888
 11
1.560660171779773
 21
227.380649172089
 31
0.0000002464694888
  0
LINE
  5
244
330
2
100
AcDbEntity
  8
9
100
AcDbLine
 10
0.5000000000006822
 20
228.4413093438695
 30
0.0000002464694888
 11
1.560660171780227
 21
229.5019695156495
 31
0.0000002464694888
  0
LINE
  5
245
330
2
100
AcDbEntity
  8
0
 62
     5
100
AcDbLine
 10
397.8138884138359
 20
148.0350202749182
 30
-0.000000386374274
 11
397.8138884138359
 21
140.0350202749182
 31
-0.000000386374274
  0
CIRCLE
  5
246
330
2
100
AcDbEntity
  8
0
  6
RAYITAS
 62
     9
100
AcDbCircle
 10
397.8138884138354
 20
144.0350202749182
 30
-0.000000407049567
 40
6.054719480391213
  0
LINE
  5
247
330
2
100
AcDbEntity
  8
0
  6
TRAZOS
100
AcDbLine
 10
399.8138884138354
 20
307.8989686139982
 30
-0.000000386374274
 11
399.8138884138359
 21
106.0275216257048
 31
-0.000000386374274
  0
LINE
  5
248
330
2
100
AcDbEntity
  8
0
100
AcDbLine
 10
408.8686078942266
 20
221.4999999941753
 30
-0.000000386374274
 11
408.8686078942271
 21
106.0275216257048
 31
-0.0000003782888973
  0
LWPOLYLINE
  5
249
330
2
100
AcDbEntity
  8
0
  6
TRAZOS
 62
     5
100
AcDbPolyline
 90
        2
 70
     0
 43
1.0
 38
-0.0000002464694888
 10
333.8138884138373
 20
68.0200229764898
 10
333.8138884138371
 20
-0.0000000000165983
  0
LINE
  5
24A
330
2
100
AcDbEntity
  8
0
  6
TRAZOS
100
AcDbLine
 10
399.8138884138359
 20
68.02002297649119
 30
-0.000000386374274
 11
399.8138884138359
 21
-0.0000000000161435
 31
-0.000000386374274
  0
TEXT
  5
24B
330
2
100
AcDbEntity
  8
KR-TEXTOS
  6
CONTINUOUS
100
AcDbText
 10
321.9567455566928
 20
-27.25016336449618
 30
-0.0000004042992656
 40
2.0
  1
MODIFICACION DE ARQUITECTURA
  7
DEYP
 72
     1
 11
346.8138884138356
 21
-26.25016336449618
 31
-0.0000004042992656
100
AcDbText
 73
     2
  0
TEXT
  5
24C
330
2
100
AcDbEntity
  8
KR-TEXTOS
  6
CONTINUOUS
100
AcDbText
 10
331.0043646043118
 20
-23.70317790877413
 30
-0.0000004042992656
 40
2.0
  1
ZONA PENDIENTE DE
  7
DEYP
 72
     1
 11
346.8138884138356
 21
-22.70317790877413
 31
-0.0000004042992656
100
AcDbText
 73
     2
  0
TEXT
  5
24D
330
2
100
AcDbEntity
  8
KR-TEXTOS
  6
CONTINUOUS
100
AcDbText
 10
343.6234122233595
 20
-20.13072946913769
 30
-0.0000004042992656
 40
2.0
  1
@50
  7
DEYP
 72
     1
 11
346.8138884138356
 21
-19.13072946913769
 31
-0.0000004042992656
100
AcDbText
 73
     2
  0
LINE
  5
24E
330
2
100
AcDbEntity
  8
0
100
AcDbLine
 10
394.8138884138359
 20
-0.0000000000159162
 30
-0.0000004506360704
 11
404.8138884138358
 21
-0.0000000000165983
 31
-0.0000004504888651
  0
LINE
  5
24F
330
2
100
AcDbEntity
  8
0
 62
     7
100
AcDbLine
 10
408.8686078942262
 20
-0.0000000000165983
 30
-0.0000003448760116
 11
468.7275755425791
 21
-0.0000000000165983
 31
-0.0000003448760116
  0
LINE
  5
250
330
2
100
AcDbEntity
  8
0
100
AcDbLine
 10
399.8138884138358
 20
-11.75086762144849
 30
-0.0000003274085955
 11
399.8138884138358
 21
-16.75086762144849
 31
-0.0000003274085955
  0
LINE
  5
251
330
2
100
AcDbEntity
  8
0
 62
     5
100
AcDbLine
 10
328.813888413837
 20
-0.0000000000162572
 30
-0.0000002465430915
 11
338.8138884138371
 21
-0.0000000000169393
 31
-0.0000002463958862
  0
TEXT
  5
252
330
2
100
AcDbEntity
  8
KR-TEXTOS
  6
CONTINUOUS
100
AcDbText
 10
419.7389638516508
 20
0.9541473388496797
 30
-0.0000003448760116
 40
2.0
  1
CARA SUPERIOR DE ENCEPADOS
  7
DEYP
100
AcDbText
  0
LINE
  5
253
330
2
100
AcDbEntity
  8
0
100
AcDbLine
 10
408.8686078942266
 20
68.02002297649119
 30
-0.000000386374274
 11
408.8686078942271
 21
34.01001148824593
 31
-0.0000003782888973
  0
CIRCLE
  5
254
330
2
100
AcDbEntity
  8
0
  6
RAYITAS
 62
     9
100
AcDbCircle
 10
397.8138884138354
 20
34.01001148824593
 30
-0.000000386374274
 40
6.054719480391213
  0
LINE
  5
255
330
2
100
AcDbEntity
  8
0
 62
     5
100
AcDbLine
 10
397.8138884138354
 20
38.01001148824593
 30
-0.000000386374274
 11
397.8138884138359
 21
30.01001148824594
 31
-0.000000386374274
  0
CIRCLE
  5
256
330
2
100
AcDbEntity
  8
0
  6
RAYITAS
 62
     9
100
AcDbCircle
 10
397.8138884138354
 20
68.02002297649119
 30
-0.000000386374274
 40
6.054719480391213
  0
LINE
  5
257
330
2
100
AcDbEntity
  8
0
 62
     5
100
AcDbLine
 10
397.8138884138354
 20
72.02002297649119
 30
-0.000000386374274
 11
397.8138884138354
 21
64.02002297649119
 31
-0.000000386374274
  0
LINE
  5
258
330
2
100
AcDbEntity
  8
0
100
AcDbLine
 10
403.8686078942267
 20
68.02002297649119
 30
-0.000000386374274
 11
408.8686078942266
 21
68.02002297649119
 31
-0.000000386374274
  0
CIRCLE
  5
259
330
2
100
AcDbEntity
  8
0
  6
RAYITAS
 62
     9
100
AcDbCircle
 10
397.8138884138354
 20
106.0275216257048
 30
-0.0000004391999437
 40
6.054719480391213
  0
LINE
  5
25A
330
2
100
AcDbEntity
  8
0
 62
     5
100
AcDbLine
 10
397.8138884138359
 20
110.0275216257048
 30
-0.000000386374274
 11
397.8138884138354
 21
102.0275216257048
 31
-0.000000386374274
  0
LINE
  5
25B
330
2
100
AcDbEntity
  8
0
  6
TRAZOS
100
AcDbLine
 10
449.5245205934841
 20
68.89929742728464
 30
-0.000000386374274
 11
449.5245205934841
 21
57.46957687318058
 31
-0.000000386374274
  0
CIRCLE
  5
25C
330
2
100
AcDbEntity
  8
0
  6
RAYITAS
 62
     9
100
AcDbCircle
 10
447.5245205934836
 20
63.18443715023272
 30
-0.000000386374274
 40
6.054719480391213
  0
LINE
  5
25D
330
2
100
AcDbEntity
  8
0
 62
     5
100
AcDbLine
 10
447.5245205934836
 20
67.18443715023273
 30
-0.000000386374274
 11
447.5245205934836
 21
59.18443715023272
 31
-0.000000386374274
  0
LINE
  5
25E
330
2
100
AcDbEntity
  8
0
 62
     7
100
AcDbLine
 10
411.7486113228203
 20
144.0350202749182
 30
-0.0000003448760116
 11
419.5753243342676
 21
144.0350202749182
 31
-0.0000003448760116
  0
LINE
  5
25F
330
2
100
AcDbEntity
  8
0
 62
     7
100
AcDbLine
 10
411.7486113228203
 20
68.02002297649119
 30
-0.0000003448760116
 11
421.0814465614719
 21
68.02002297649119
 31
-0.0000003448760116
  0
LINE
  5
260
330
2
100
AcDbEntity
  8
0
 62
     7
100
AcDbLine
 10
411.7486113228208
 20
34.01001148824593
 30
-0.0000003448760116
 11
454.5291534582845
 21
34.01001148824593
 31
-0.0000003448760116
  0
LINE
  5
261
330
2
100
AcDbEntity
  8
0
 62
     7
100
AcDbLine
 10
408.8686078942262
 20
51.01501723236856
 30
-0.0000003448760116
 11
476.8660393402281
 21
51.01501723236856
 31
-0.0000003448760116
  0
LINE
  5
262
330
2
100
AcDbEntity
  8
0
 62
     7
100
AcDbLine
 10
411.7486113228203
 20
106.0275216257048
 30
-0.0000003367906348
 11
454.5291534582845
 21
106.0275216257048
 31
-0.0000003367906348
  0
LINE
  5
263
330
2
100
AcDbEntity
  8
0
100
AcDbLine
 10
403.8686078942271
 20
34.01001148824593
 30
-0.0000003782888973
 11
408.8686078942271
 21
34.01001148824593
 31
-0.0000003782888973
  0
LWPOLYLINE
  5
264
330
2
100
AcDbEntity
  8
0
  6
TRAZOS
 62
     5
100
AcDbPolyline
 90
        2
 70
     0
 43
1.0
 38
-0.0000002941321288
 10
333.8138884138357
 20
144.0350202749098
 10
333.8138884138354
 20
106.0275216256959
  0
LINE
  5
265
330
2
100
AcDbEntity
  8
0
100
AcDbLine
 10
403.8686078942271
 20
106.0275216257048
 30
-0.0000003782888973
 11
408.8686078942271
 21
106.0275216257048
 31
-0.0000003782888973
  0
TEXT
  5
266
330
2
100
AcDbEntity
  8
KR-TEXTOS
  6
CONTINUOUS
100
AcDbText
 10
419.7389638516508
 20
51.96916457123484
 30
-0.0000003448760116
 40
2.0
  1
APOYOS EN DILATACION EN SOPORTE
  7
DEYP
100
AcDbText
  0
TEXT
  5
267
330
2
100
AcDbEntity
  8
KR-TEXTOS
  6
CONTINUOUS
100
AcDbText
 10
419.7389638516508
 20
48.06086989350228
 30
-0.0000003448760116
 40
2.0
  1
DE HORMIGON ARMADO DE SOTANOS
  7
DEYP
100
AcDbText
  0
TEXT
  5
268
330
2
100
AcDbEntity
  8
KR-TEXTOS
  6
CONTINUOUS
100
AcDbText
 10
415.4309591746857
 20
31.05586414937965
 30
-0.0000003367906348
 40
2.0
  1
1%%D) TERMINACION DE P.B.
  7
DEYP
100
AcDbText
  0
TEXT
  5
269
330
2
100
AcDbEntity
  8
KR-TEXTOS
  6
CONTINUOUS
100
AcDbText
 10
415.4309591746857
 20
34.96415882711221
 30
-0.0000003367906348
 40
2.0
  1
M%%C : APUNTALADA HASTA:
  7
DEYP
100
AcDbText
  0
TEXT
  5
26A
330
2
100
AcDbEntity
  8
KR-TEXTOS
  6
CONTINUOUS
100
AcDbText
 10
415.4309591746857
 20
27.25381524633962
 30
-0.0000003367906348
 40
2.0
  1
2%%D) UNION DE TIRANTES
  7
DEYP
100
AcDbText
  0
TEXT
  5
26B
330
2
100
AcDbEntity
  8
KR-TEXTOS
  6
CONTINUOUS
100
AcDbText
 10
415.4309591746857
 20
68.97417031535747
 30
-0.0000003448760116
 40
2.0
  1
P.B.
  7
DEYP
100
AcDbText
  0
LWPOLYLINE
  5
26C
330
2
100
AcDbEntity
  8
0
 62
     5
100
AcDbPolyline
 90
        2
 70
     0
 43
1.0
 38
-0.0000002464694888
 10
447.5245205934836
 20
63.18443715023272
 10
441.4698011130924
 20
63.18443715023272
  0
TEXT
  5
26D
330
2
100
AcDbEntity
  8
KR-TEXTOS
  6
CONTINUOUS
100
AcDbText
 10
415.4309591746857
 20
103.0733742868385
 30
-0.0000003367906348
 40
2.0
  1
1%%D) TERMINACION DE P1
  7
DEYP
100
AcDbText
  0
TEXT
  5
26E
330
2
100
AcDbEntity
  8
KR-TEXTOS
  6
CONTINUOUS
100
AcDbText
 10
415.4309591746857
 20
99.27132538379851
 30
-0.0000003367906348
 40
2.0
  1
2%%D) UNION DE TIRANTES
  7
DEYP
100
AcDbText
  0
TEXT
  5
26F
330
2
100
AcDbEntity
  8
KR-TEXTOS
  6
CONTINUOUS
100
AcDbText
 10
415.4309591746857
 20
106.9816689645711
 30
-0.0000003367906348
 40
2.0
  1
M1 : APUNTALADA HASTA:
  7
DEYP
100
AcDbText
  0
TEXT
  5
270
330
2
100
AcDbEntity
  8
KR-TEXTOS
  6
CONTINUOUS
100
AcDbText
 10
415.4309591746857
 20
144.9891676137845
 30
-0.0000003448760116
 40
2.0
  1
P1
  7
DEYP
100
AcDbText
  0
LWPOLYLINE
  5
271
330
2
100
AcDbEntity
  8
0
100
AcDbPolyline
 90
        2
 70
     1
 43
0.5
 38
-0.0000001574507535
 10
408.6186078942266
 20
51.01501723236856
 42
1.0
 10
409.1186078942266
 20
51.01501723236856
 42
1.0
  0
LINE
  5
272
330
2
100
AcDbEntity
  8
0
100
AcDbLine
 10
408.8686078942266
 20
307.8989686139982
 30
-0.0000003941112873
 11
408.8686078942266
 21
260.2499255861002
 31
-0.000000386374274
  0
LINE
  5
273
330
2
100
AcDbEntity
  8
0
 62
     5
100
AcDbLine
 10
397.8138884138354
 20
225.4999999941753
 30
-0.000000386374274
 11
397.8138884138354
 21
217.4999999941753
 31
-0.000000386374274
  0
CIRCLE
  5
274
330
2
100
AcDbEntity
  8
0
  6
RAYITAS
 62
     9
100
AcDbCircle
 10
397.8138884138354
 20
221.4999999941753
 30
-0.000000386374274
 40
6.054719480391213
  0
LINE
  5
275
330
2
100
AcDbEntity
  8
0
 62
     5
100
AcDbLine
 10
397.8138884138354
 20
186.7675101345469
 30
-0.000000386374274
 11
397.8138884138354
 21
178.7675101345469
 31
-0.000000386374274
  0
CIRCLE
  5
276
330
2
100
AcDbEntity
  8
0
  6
RAYITAS
 62
     9
100
AcDbCircle
 10
397.8138884138359
 20
182.7675101345469
 30
-0.0000004192834989
 40
6.054719480391213
  0
CIRCLE
  5
277
330
2
100
AcDbEntity
  8
0
  6
RAYITAS
 62
     9
100
AcDbCircle
 10
397.8138884138354
 20
260.2499255861002
 30
-0.000000386374274
 40
6.054719480391213
  0
LINE
  5
278
330
2
100
AcDbEntity
  8
0
100
AcDbLine
 10
403.8686078942267
 20
221.4999999941753
 30
-0.000000386374274
 11
408.8686078942266
 21
221.4999999941756
 31
-0.000000386374274
  0
LINE
  5
279
330
2
100
AcDbEntity
  8
0
 62
     5
100
AcDbLine
 10
397.8138884138354
 20
264.2499255861002
 30
-0.000000386374274
 11
397.8138884138354
 21
256.2499255861002
 31
-0.000000386374274
  0
LINE
  5
27A
330
2
100
AcDbEntity
  8
0
100
AcDbLine
 10
403.8686078942267
 20
260.2499255861002
 30
-0.000000386374274
 11
408.8686078942266
 21
260.2499255861002
 31
-0.000000386374274
  0
LINE
  5
27B
330
2
100
AcDbEntity
  8
0
 62
     7
100
AcDbLine
 10
411.7486113228203
 20
260.2499255861002
 30
-0.0000003448760116
 11
419.5753243342676
 21
260.2499255861002
 31
-0.0000003448760116
  0
LINE
  5
27C
330
2
100
AcDbEntity
  8
0
 62
     7
100
AcDbLine
 10
411.7486113228203
 20
221.4999999941756
 30
-0.0000003448760116
 11
419.5753243342676
 21
221.4999999941756
 31
-0.0000003448760116
  0
LINE
  5
27D
330
2
100
AcDbEntity
  8
0
 62
     7
100
AcDbLine
 10
411.7486113228203
 20
182.7675101345469
 30
-0.0000003448760116
 11
454.529153458284
 21
182.7675101345469
 31
-0.0000003448760116
  0
LINE
  5
27E
330
2
100
AcDbEntity
  8
0
 62
     7
100
AcDbLine
 10
408.8686078942262
 20
163.7637608099401
 30
-0.0000003448760116
 11
488.989810080114
 21
163.7637608099401
 31
-0.0000003448760116
  0
LINE
  5
27F
330
2
100
AcDbEntity
  8
0
 62
     7
100
AcDbLine
 10
408.8686078942262
 20
284.0744471000492
 30
-0.0000003529613883
 11
476.7794346128805
 21
284.0744471000492
 31
-0.0000003529613883
  0
TEXT
  5
280
330
2
100
AcDbEntity
  8
KR-TEXTOS
  6
CONTINUOUS
100
AcDbText
 10
419.7389638516508
 20
164.7179081488063
 30
-0.0000003448760116
 40
2.0
  1
APOYOS EN DILATACION SOBRE ENCAVALLADA
  7
DEYP
100
AcDbText
  0
TEXT
  5
281
330
2
100
AcDbEntity
  8
KR-TEXTOS
  6
CONTINUOUS
100
AcDbText
 10
415.4309591746852
 20
176.0113138926405
 30
-0.0000003448760116
 40
2.0
  1
2%%D) UNION DE TIRANTES
  7
DEYP
100
AcDbText
  0
TEXT
  5
282
330
2
100
AcDbEntity
  8
KR-TEXTOS
  6
CONTINUOUS
100
AcDbText
 10
415.4309591746852
 20
179.8133627956806
 30
-0.0000003448760116
 40
2.0
  1
1%%D) TERMINACION DE P2
  7
DEYP
100
AcDbText
  0
TEXT
  5
283
330
2
100
AcDbEntity
  8
KR-TEXTOS
  6
CONTINUOUS
100
AcDbText
 10
415.4309591746857
 20
183.7216574734132
 30
-0.0000003448760116
 40
2.0
  1
M2 : APUNTALADA HASTA:
  7
DEYP
100
AcDbText
  0
TEXT
  5
284
330
2
100
AcDbEntity
  8
KR-TEXTOS
  6
CONTINUOUS
100
AcDbText
 10
419.7389638516508
 20
285.0285944389155
 30
-0.0000003529613883
 40
2.0
  1
APOYOS EN DILATACION EN SOPORTE
  7
DEYP
100
AcDbText
  0
TEXT
  5
285
330
2
100
AcDbEntity
  8
KR-TEXTOS
  6
CONTINUOUS
100
AcDbText
 10
415.4309591746857
 20
222.4541473330418
 30
-0.0000003448760116
 40
2.0
  1
P2
  7
DEYP
100
AcDbText
  0
TEXT
  5
286
330
2
100
AcDbEntity
  8
KR-TEXTOS
  6
CONTINUOUS
100
AcDbText
 10
419.7389638516508
 20
281.1202997611829
 30
-0.0000003529613883
 40
2.0
  1
METALICO DE CUBIERTA
  7
DEYP
100
AcDbText
  0
TEXT
  5
287
330
2
100
AcDbEntity
  8
KR-TEXTOS
  6
CONTINUOUS
100
AcDbText
 10
415.4309591746857
 20
261.2040729249665
 30
-0.0000003448760116
 40
2.0
  1
M3
  7
DEYP
100
AcDbText
  0
LINE
  5
288
330
2
100
AcDbEntity
  8
9
100
AcDbLine
 10
397.8138884138349
 20
310.9602327141087
 30
-0.0000003940273734
 11
362.4782691450907
 21
318.1377803780717
 31
-0.0000003173270604
  0
LINE
  5
289
330
2
100
AcDbEntity
  8
0
 62
     7
100
AcDbLine
 10
398.8138884138354
 20
332.2251862822202
 30
-0.000000579280494
 11
406.1897560121294
 21
332.2251862822202
 31
-0.000000579280494
  0
TEXT
  5
28A
330
2
100
AcDbEntity
  8
KR-TEXTOS
  6
CONTINUOUS
100
AcDbText
 10
400.5392686253433
 20
333.1793336210864
 30
-0.000000579280494
 40
2.0
  1
J.D.
  7
DEYP
100
AcDbText
  0
LINE
  5
28B
330
2
100
AcDbEntity
  8
0
100
AcDbLine
 10
398.8138884138354
 20
326.4020159982926
 30
-0.000000579280494
 11
398.8138884138354
 21
332.2251862822202
 31
-0.000000579280494
  0
LINE
  5
28C
330
2
100
AcDbEntity
  8
0
100
AcDbLine
 10
398.813888413835
 20
326.4020159982926
 30
-0.000000579280494
 11
397.753228242055
 21
327.4626761700722
 31
-0.000000579280494
  0
LINE
  5
28D
330
2
100
AcDbEntity
  8
9
100
AcDbLine
 10
398.8138884138354
 20
326.4020159982931
 30
-0.000000579280494
 11
399.8745485856159
 21
327.4626761700726
 31
-0.000000579280494
  0
LWPOLYLINE
  5
28E
330
2
100
AcDbEntity
  8
0
 62
     7
100
AcDbPolyline
 90
        2
 70
     1
 43
0.7199999999999882
 38
-0.0000003953236256
 10
397.4538884138353
 20
307.898968613998
 42
-1.0
 10
398.1738884138346
 20
307.898968613998
 42
-1.0
  0
CIRCLE
  5
28F
330
2
100
AcDbEntity
  8
0
  6
RAYITAS
 62
     9
100
AcDbCircle
 10
397.8138884138349
 20
307.8989686139982
 30
-0.0000003953236256
 40
6.054719480391213
  0
LINE
  5
290
330
2
100
AcDbEntity
  8
0
100
AcDbLine
 10
397.8138884138349
 20
311.8989686139982
 30
-0.0000003872382489
 11
397.8138884138349
 21
303.8989686139982
 31
-0.0000003872382489
  0
LINE
  5
291
330
2
100
AcDbEntity
  8
0
100
AcDbLine
 10
397.8138884138349
 20
323.8892125196727
 30
-0.0000003872382489
 11
397.8138884138349
 21
320.1392125196728
 31
-0.0000003872382489
  0
LINE
  5
292
330
2
100
AcDbEntity
  8
0
100
AcDbLine
 10
399.8138884138354
 20
323.8892125196727
 30
-0.0000003872382489
 11
399.813888413835
 21
320.1392125196728
 31
-0.0000003872382489
  0
LINE
  5
293
330
2
100
AcDbEntity
  8
0
100
AcDbLine
 10
403.8686078942261
 20
307.8989686139982
 30
-0.0000003953236256
 11
408.8686078942262
 21
307.8989686139982
 31
-0.0000003953236256
  0
LINE
  5
294
330
2
100
AcDbEntity
  8
0
 62
     7
100
AcDbLine
 10
411.7486113228203
 20
307.8989686139982
 30
-0.0000003538253632
 11
421.0814465614714
 21
307.8989686139982
 31
-0.0000003538253632
  0
TEXT
  5
295
330
2
100
AcDbEntity
  8
KR-TEXTOS
  6
CONTINUOUS
100
AcDbText
 10
329.6704230351316
 20
323.7325146835771
 30
-0.0000002808987386
 40
2.0
  1
IPE 500 A52d CONT.
 50
348.6882441414162
  7
DEYP
 72
     1
 11
345.6958433819406
 21
321.546710611211
 31
-0.0000002808987386
100
AcDbText
 73
     2
  0
LWPOLYLINE
  5
296
330
2
100
AcDbEntity
  8
0
 62
     7
100
AcDbPolyline
 90
        2
 70
     1
 43
0.7199999999999882
 38
-0.0000002820192347
 10
345.4538884138362
 20
318.5287492716133
 42
-1.0
 10
346.1738884138355
 20
318.5287492716133
 42
-1.0
  0
TEXT
  5
297
330
2
100
AcDbEntity
  8
KR-TEXTOS
  6
CONTINUOUS
100
AcDbText
 10
415.4309591746852
 20
308.8531159528645
 30
-0.0000003538253632
 40
2.0
  1
P.C.
  7
DEYP
100
AcDbText
  0
LWPOLYLINE
  5
298
330
2
100
AcDbEntity
  8
0
  6
TRAZOS
 62
     5
100
AcDbPolyline
 90
        2
 70
     0
 43
1.0
 38
-0.000000147401837
 10
323.8138884138356
 20
221.4999999941667
 10
323.8138884138356
 20
182.7675101345382
  0
LWPOLYLINE
  5
299
330
2
100
AcDbEntity
  8
0
100
AcDbPolyline
 90
        2
 70
     1
 43
0.5
 38
-0.0000001574507535
 10
408.6186078942266
 20
163.7637608099401
 42
1.0
 10
409.1186078942266
 20
163.7637608099401
 42
1.0
  0
LWPOLYLINE
  5
29A
330
2
100
AcDbEntity
  8
0
100
AcDbPolyline
 90
        2
 70
     1
 43
0.5
 38
-0.0000001655361303
 10
408.6186078942266
 20
284.0744471000492
 42
1.0
 10
409.1186078942266
 20
284.0744471000492
 42
1.0
  0
TEXT
  5
29B
330
2
100
AcDbEntity
  8
KR-TEXTOS
  6
CONTINUOUS
100
AcDbText
 10
345.0778148048896
 20
314.6769130503848
 30
-0.0000001280805562
 40
2.0
  1
A
  7
DEYP
100
AcDbText
  0
TEXT
  5
29C
330
2
100
AcDbEntity
  8
KR-TEXTOS
  6
CONTINUOUS
100
AcDbText
 10
394.3176098823439
 20
304.9569657892084
 30
-0.0000001289445311
 40
2.0
  1
A
  7
DEYP
100
AcDbText
  0
ENDSEC
  0
SECTION
  2
OBJECTS
  0
DICTIONARY
  5
7
330
0
100
AcDbDictionary
  3
ACAD_GROUP
350
1F
  3
ACAD_LAYOUT
350
B
  3
ACAD_MLINESTYLE
350
20
  3
ACAD_PLOTSETTINGS
350
21
  3
ACAD_PLOTSTYLENAME
350
6
  3
ACDBVARIABLEDICTIONARY
350
29F
  3
ACDBHEADERROUNDTRIPXREC
350
2AE
  0
DICTIONARY
  5
2CF
330
2
100
AcDbDictionary
280
     1
  3
ACAD_LAYOUTSELFREF
360
2D0
  0
DICTIONARY
  5
2D1
330
C
100
AcDbDictionary
280
     1
  3
ACAD_LAYOUTSELFREF
360
2D2
  0
DICTIONARY
  5
1F
102
{ACAD_REACTORS
330
7
102
}
330
7
100
AcDbDictionary
  0
DICTIONARY
  5
B
102
{ACAD_REACTORS
330
7
102
}
330
7
100
AcDbDictionary
  0
DICTIONARY
  5
20
102
{ACAD_REACTORS
330
7
102
}
330
7
100
AcDbDictionary
  3
STANDARD
350
29
  0
DICTIONARY
  5
21
102
{ACAD_REACTORS
330
7
102
}
330
7
100
AcDbDictionary
  0
ACDBDICTIONARYWDFLT
  5
6
102
{ACAD_REACTORS
330
7
102
}
330
7
100
AcDbDictionary
281
     1
  3
Normal
350
5
100
AcDbDictionaryWithDefault
340
5
  0
DICTIONARY
  5
29F
102
{ACAD_REACTORS
330
7
102
}
330
7
100
AcDbDictionary
  3
DIMASSOC
350
2A1
  3
HIDETEXT
350
2A0
  0
DICTIONARY
  5
2AE
102
{ACAD_REACTORS
330
7
102
}
330
7
100
AcDbDictionary
  3
TSTACKALIGN
350
2AF
  3
TSTACKSIZE
350
2B0
  3
HYPERLINKBASE
350
2B1
  3
STYLESHEET
350
2B2
  3
LAYOUTDICT
350
2B3
  3
PLOTSETDICT
350
2B4
  3
PLOTSTYLNAMDICT
350
2B5
  3
LWETCUNION
350
2B6
  3
INSUNITS
350
2B7
  3
CEPSNTYPE
350
2B8
  3
FINGERPRINTGUID
350
2B9
  3
VERSIONGUID
350
2BA
  3
PSVPSCALE
350
2BB
  3
DIMSTYLEDATA
350
2BC
  3
PUCSORTHOREF
350
2BD
  3
PUCSORTHOVIEW
350
2BE
  3
PUCSBASE
350
2BF
  3
PUCSORGTOP
350
2C0
  3
PUCSORGBOTTOM
350
2C1
  3
PUCSORGLEFT
350
2C2
  3
PUCSORGRIGHT
350
2C3
  3
PUCSORGFRONT
350
2C4
  3
PUCSORGBACK
350
2C5
  3
UCSORTHOREF
350
2C6
  3
UCSORTHOVIEW
350
2C7
  3
UCSBASE
350
2C8
  3
UCSORGTOP
350
2C9
  3
UCSORGBOTTOM
350
2CA
  3
UCSORGLEFT
350
2CB
  3
UCSORGRIGHT
350
2CC
  3
UCSORGFRONT
350
2CD
  3
UCSORGBACK
350
2CE
  0
XRECORD
  5
2D0
102
{ACAD_REACTORS
330
2CF
102
}
330
2CF
100
AcDbXrecord
340
2
  0
XRECORD
  5
2D2
102
{ACAD_REACTORS
330
2D1
102
}
330
2D1
100
AcDbXrecord
340
C
  0
MLINESTYLE
  5
29
102
{ACAD_REACTORS
330
20
102
}
330
20
100
AcDbMlineStyle
  2
STANDARD
 70
     0
  3

 62
   256
 51
90.0
 52
90.0
 71
     2
 49
0.5
 62
   256
  6
BYLAYER
 49
-0.5
 62
   256
  6
BYLAYER
  0
ACDBPLACEHOLDER
  5
5
102
{ACAD_REACTORS
330
6
102
}
330
6
100
AcDbPlaceHolder
280
     0
  0
DICTIONARYVAR
  5
2A1
102
{ACAD_REACTORS
330
29F
102
}
330
29F
100
DictionaryVariables
280
     0
  1
1
  0
DICTIONARYVAR
  5
2A0
102
{ACAD_REACTORS
330
29F
102
}
330
29F
100
DictionaryVariables
280
     0
  1
1
  0
XRECORD
  5
2AF
102
{ACAD_REACTORS
330
2AE
102
}
330
2AE
100
AcDbXrecord
 90
        1
  0
XRECORD
  5
2B0
102
{ACAD_REACTORS
330
2AE
102
}
330
2AE
100
AcDbXrecord
 90
       70
  0
XRECORD
  5
2B1
102
{ACAD_REACTORS
330
2AE
102
}
330
2AE
100
AcDbXrecord
  1

  0
XRECORD
  5
2B2
102
{ACAD_REACTORS
330
2AE
102
}
330
2AE
100
AcDbXrecord
  1

  0
XRECORD
  5
2B3
102
{ACAD_REACTORS
330
2AE
102
}
330
2AE
100
AcDbXrecord
340
B
  0
XRECORD
  5
2B4
102
{ACAD_REACTORS
330
2AE
102
}
330
2AE
100
AcDbXrecord
340
21
  0
XRECORD
  5
2B5
102
{ACAD_REACTORS
330
2AE
102
}
330
2AE
100
AcDbXrecord
340
6
  0
XRECORD
  5
2B6
102
{ACAD_REACTORS
330
2AE
102
}
330
2AE
100
AcDbXrecord
 90
    10781
  0
XRECORD
  5
2B7
102
{ACAD_REACTORS
330
2AE
102
}
330
2AE
100
AcDbXrecord
 90
        0
  0
XRECORD
  5
2B8
102
{ACAD_REACTORS
330
2AE
102
}
330
2AE
100
AcDbXrecord
 90
        0
  0
XRECORD
  5
2B9
102
{ACAD_REACTORS
330
2AE
102
}
330
2AE
100
AcDbXrecord
  1
{27CD6D89-4702-11D7-B009-93383F344F2B}
  0
XRECORD
  5
2BA
102
{ACAD_REACTORS
330
2AE
102
}
330
2AE
100
AcDbXrecord
  1
{F5BB8485-4703-11D7-B009-93383F344F2B}
  0
XRECORD
  5
2BB
102
{ACAD_REACTORS
330
2AE
102
}
330
2AE
100
AcDbXrecord
 40
0.0
  0
XRECORD
  5
2BC
102
{ACAD_REACTORS
330
2AE
102
}
330
2AE
100
AcDbXrecord
1000
DSTYLE
1002
{
1070
   279
 70
     2
1070
   341
340
22
1070
   342
340
22
1070
   343
340
22
1070
   344
340
22
1002
}
  0
XRECORD
  5
2BD
102
{ACAD_REACTORS
330
2AE
102
}
330
2AE
100
AcDbXrecord
340
0
  0
XRECORD
  5
2BE
102
{ACAD_REACTORS
330
2AE
102
}
330
2AE
100
AcDbXrecord
 70
     0
  0
XRECORD
  5
2BF
102
{ACAD_REACTORS
330
2AE
102
}
330
2AE
100
AcDbXrecord
340
0
  0
XRECORD
  5
2C0
102
{ACAD_REACTORS
330
2AE
102
}
330
2AE
100
AcDbXrecord
 10
0.0
 20
0.0
 30
0.0
  0
XRECORD
  5
2C1
102
{ACAD_REACTORS
330
2AE
102
}
330
2AE
100
AcDbXrecord
 10
0.0
 20
0.0
 30
0.0
  0
XRECORD
  5
2C2
102
{ACAD_REACTORS
330
2AE
102
}
330
2AE
100
AcDbXrecord
 10
0.0
 20
0.0
 30
0.0
  0
XRECORD
  5
2C3
102
{ACAD_REACTORS
330
2AE
102
}
330
2AE
100
AcDbXrecord
 10
0.0
 20
0.0
 30
0.0
  0
XRECORD
  5
2C4
102
{ACAD_REACTORS
330
2AE
102
}
330
2AE
100
AcDbXrecord
 10
0.0
 20
0.0
 30
0.0
  0
XRECORD
  5
2C5
102
{ACAD_REACTORS
330
2AE
102
}
330
2AE
100
AcDbXrecord
 10
0.0
 20
0.0
 30
0.0
  0
XRECORD
  5
2C6
102
{ACAD_REACTORS
330
2AE
102
}
330
2AE
100
AcDbXrecord
340
0
  0
XRECORD
  5
2C7
102
{ACAD_REACTORS
330
2AE
102
}
330
2AE
100
AcDbXrecord
 70
     0
  0
XRECORD
  5
2C8
102
{ACAD_REACTORS
330
2AE
102
}
330
2AE
100
AcDbXrecord
340
0
  0
XRECORD
  5
2C9
102
{ACAD_REACTORS
330
2AE
102
}
330
2AE
100
AcDbXrecord
 10
0.0
 20
0.0
 30
0.0
  0
XRECORD
  5
2CA
102
{ACAD_REACTORS
330
2AE
102
}
330
2AE
100
AcDbXrecord
 10
0.0
 20
0.0
 30
0.0
  0
XRECORD
  5
2CB
102
{ACAD_REACTORS
330
2AE
102
}
330
2AE
100
AcDbXrecord
 10
0.0
 20
0.0
 30
0.0
  0
XRECORD
  5
2CC
102
{ACAD_REACTORS
330
2AE
102
}
330
2AE
100
AcDbXrecord
 10
0.0
 20
0.0
 30
0.0
  0
XRECORD
  5
2CD
102
{ACAD_REACTORS
330
2AE
102
}
330
2AE
100
AcDbXrecord
 10
0.0
 20
0.0
 30
0.0
  0
XRECORD
  5
2CE
102
{ACAD_REACTORS
330
2AE
102
}
330
2AE
100
AcDbXrecord
 10
0.0
 20
0.0
 30
0.0
  0
ENDSEC
  0
EOF
