  0
SECTION
  2
HEADER
  9
$ACADVER
  1
AC1014
  9
$ACADMAINTVER
 70
     9
  9
$DWGCODEPAGE
  3
ANSI_1252
  9
$INSBASE
 10
0.0
 20
0.0
 30
0.0
  9
$EXTMIN
 10
-104.24365974561
 20
-73.844132527323
 30
-0.0000004506360704
  9
$EXTMAX
 10
488.9898100801139
 20
382.9615545786513
 30
0.0000002464694888
  9
$LIMMIN
 10
0.0
 20
0.0
  9
$LIMMAX
 10
420.0
 20
297.0
  9
$ORTHOMODE
 70
     0
  9
$REGENMODE
 70
     1
  9
$FILLMODE
 70
     1
  9
$QTEXTMODE
 70
     0
  9
$MIRRTEXT
 70
     0
  9
$DRAGMODE
 70
     2
  9
$LTSCALE
 40
10.0
  9
$OSMODE
 70
    37
  9
$ATTMODE
 70
     1
  9
$TEXTSIZE
 40
2.0
  9
$TRACEWID
 40
1.0
  9
$TEXTSTYLE
  7
DEYP
  9
$CLAYER
  8
0
  9
$CELTYPE
  6
BYLAYER
  9
$CECOLOR
 62
   256
  9
$CELTSCALE
 40
1.0
  9
$DELOBJ
 70
     1
  9
$DISPSILH
 70
     0
  9
$DIMSCALE
 40
1.0
  9
$DIMASZ
 40
0.75
  9
$DIMEXO
 40
5.0
  9
$DIMDLI
 40
6.0
  9
$DIMRND
 40
0.0
  9
$DIMDLE
 40
2.0
  9
$DIMEXE
 40
1.8
  9
$DIMTP
 40
0.0
  9
$DIMTM
 40
0.0
  9
$DIMTXT
 40
2.0
  9
$DIMCEN
 40
1.5
  9
$DIMTSZ
 40
0.0
  9
$DIMTOL
 70
     0
  9
$DIMLIM
 70
     0
  9
$DIMTIH
 70
     0
  9
$DIMTOH
 70
     0
  9
$DIMSE1
 70
     0
  9
$DIMSE2
 70
     0
  9
$DIMTAD
 70
     0
  9
$DIMZIN
 70
     0
  9
$DIMBLK
  1
COTA
  9
$DIMASO
 70
     1
  9
$DIMSHO
 70
     1
  9
$DIMPOST
  1

  9
$DIMAPOST
  1

  9
$DIMALT
 70
     0
  9
$DIMALTD
 70
     2
  9
$DIMALTF
 40
25.4
  9
$DIMLFAC
 40
1.0
  9
$DIMTOFL
 70
     0
  9
$DIMTVP
 40
1.0
  9
$DIMTIX
 70
     1
  9
$DIMSOXD
 70
     0
  9
$DIMSAH
 70
     1
  9
$DIMBLK1
  1
COTA
  9
$DIMBLK2
  1
COTA
  9
$DIMSTYLE
  2
COTA1
  9
$DIMCLRD
 70
     1
  9
$DIMCLRE
 70
     1
  9
$DIMCLRT
 70
     1
  9
$DIMTFAC
 40
1.0
  9
$DIMGAP
 40
0.09
  9
$DIMJUST
 70
     0
  9
$DIMSD1
 70
     0
  9
$DIMSD2
 70
     0
  9
$DIMTOLJ
 70
     1
  9
$DIMTZIN
 70
     0
  9
$DIMALTZ
 70
     0
  9
$DIMALTTZ
 70
     0
  9
$DIMFIT
 70
     5
  9
$DIMUPT
 70
     0
  9
$DIMUNIT
 70
     2
  9
$DIMDEC
 70
     3
  9
$DIMTDEC
 70
     3
  9
$DIMALTU
 70
     2
  9
$DIMALTTD
 70
     2
  9
$DIMTXSTY
  7
ROMANS
  9
$DIMAUNIT
 70
     0
  9
$LUNITS
 70
     2
  9
$LUPREC
 70
     4
  9
$SKETCHINC
 40
1.0
  9
$FILLETRAD
 40
0.0
  9
$AUNITS
 70
     0
  9
$AUPREC
 70
     0
  9
$MENU
  1
.
  9
$ELEVATION
 40
0.0
  9
$PELEVATION
 40
0.0
  9
$THICKNESS
 40
0.0
  9
$LIMCHECK
 70
     0
  9
$BLIPMODE
 70
     0
  9
$CHAMFERA
 40
10.0
  9
$CHAMFERB
 40
10.0
  9
$CHAMFERC
 40
20.0
  9
$CHAMFERD
 40
0.0
  9
$SKPOLY
 70
     0
  9
$TDCREATE
 40
2452237.366010300
  9
$TDUPDATE
 40
2452695.528954224
  9
$TDINDWG
 40
0.9601695255
  9
$TDUSRTIMER
 40
0.9601695255
  9
$USRTIMER
 70
     1
  9
$ANGBASE
 50
0.0
  9
$ANGDIR
 70
     0
  9
$PDMODE
 70
     0
  9
$PDSIZE
 40
0.0
  9
$PLINEWID
 40
1.0
  9
$COORDS
 70
     1
  9
$SPLFRAME
 70
     0
  9
$SPLINETYPE
 70
     6
  9
$SPLINESEGS
 70
     8
  9
$ATTDIA
 70
     0
  9
$ATTREQ
 70
     1
  9
$HANDLING
 70
  4097
  9
$HANDSEED
  5
2C8
  9
$SURFTAB1
 70
     6
  9
$SURFTAB2
 70
     6
  9
$SURFTYPE
 70
     6
  9
$SURFU
 70
     6
  9
$SURFV
 70
     6
  9
$UCSNAME
  2

  9
$UCSORG
 10
0.0
 20
0.0
 30
0.0
  9
$UCSXDIR
 10
1.0
 20
0.0
 30
0.0
  9
$UCSYDIR
 10
0.0
 20
1.0
 30
0.0
  9
$PUCSNAME
  2

  9
$PUCSORG
 10
0.0
 20
0.0
 30
0.0
  9
$PUCSXDIR
 10
1.0
 20
0.0
 30
0.0
  9
$PUCSYDIR
 10
0.0
 20
1.0
 30
0.0
  9
$USERI1
 70
     0
  9
$USERI2
 70
     0
  9
$USERI3
 70
     0
  9
$USERI4
 70
     0
  9
$USERI5
 70
     0
  9
$USERR1
 40
1.0
  9
$USERR2
 40
1.0
  9
$USERR3
 40
0.0
  9
$USERR4
 40
0.0
  9
$USERR5
 40
0.0
  9
$WORLDVIEW
 70
     1
  9
$SHADEDGE
 70
     3
  9
$SHADEDIF
 70
    70
  9
$TILEMODE
 70
     1
  9
$MAXACTVP
 70
    48
  9
$PINSBASE
 10
0.0
 20
0.0
 30
0.0
  9
$PLIMCHECK
 70
     0
  9
$PEXTMIN
 10
1.000000000000000E+20
 20
1.000000000000000E+20
 30
1.000000000000000E+20
  9
$PEXTMAX
 10
-1.000000000000000E+20
 20
-1.000000000000000E+20
 30
-1.000000000000000E+20
  9
$PLIMMIN
 10
0.0
 20
0.0
  9
$PLIMMAX
 10
420.0
 20
297.0
  9
$UNITMODE
 70
     0
  9
$VISRETAIN
 70
     1
  9
$PLINEGEN
 70
     0
  9
$PSLTSCALE
 70
     1
  9
$TREEDEPTH
 70
  3020
  9
$PICKSTYLE
 70
     1
  9
$CMLSTYLE
  2
STANDARD
  9
$CMLJUST
 70
     0
  9
$CMLSCALE
 40
20.0
  9
$PROXYGRAPHICS
 70
     1
  9
$MEASUREMENT
 70
     0
  0
ENDSEC
  0
SECTION
  2
CLASSES
  0
CLASS
  1
LWPOLYLINE
  2
AcDbPolyline
  3
AutoCAD 2000
 90
        0
280
     0
281
     1
  0
CLASS
  1
HATCH
  2
AcDbHatch
  3
AutoCAD 2000
 90
        0
280
     0
281
     1
  0
CLASS
  1
XRECORD
  2
AcDbXrecord
  3
AutoCAD 2000
 90
        0
280
     0
281
     0
  0
CLASS
  1
DICTIONARYVAR
  2
AcDbDictionaryVar
  3
AutoCAD 2000
 90
        0
280
     0
281
     0
  0
CLASS
  1
IDBUFFER
  2
AcDbIdBuffer
  3
AutoCAD 2000
 90
        0
280
     0
281
     0
  0
CLASS
  1
SPATIAL_FILTER
  2
AcDbSpatialFilter
  3
AutoCAD 2000
 90
        0
280
     0
281
     0
  0
CLASS
  1
ACDBDICTIONARYWDFLT
  2
AcDbDictionaryWithDefault
  3
AutoCAD 2000
 90
        0
280
     0
281
     0
  0
CLASS
  1
ACDBPLACEHOLDER
  2
AcDbPlaceHolder
  3
AutoCAD 2000
 90
        0
280
     0
281
     0
  0
CLASS
  1
LAYOUT
  2
AcDbLayout
  3
AutoCAD 2000
 90
        0
280
     0
281
     0
  0
CLASS
  1
LONG_TRANSACTION
  2
AcDbLongTransaction
  3
AutoCAD 2000
 90
        0
280
     0
281
     0
  0
CLASS
  1
LWPOLYLINE
  2
AcDbPolyline
  3
AutoCAD 2000
 90
        0
280
     0
281
     1
  0
CLASS
  1
HATCH
  2
AcDbHatch
  3
AutoCAD 2000
 90
        0
280
     0
281
     1
  0
CLASS
  1
XRECORD
  2
AcDbXrecord
  3
AutoCAD 2000
 90
        0
280
     0
281
     0
  0
ENDSEC
  0
SECTION
  2
TABLES
  0
TABLE
  2
VPORT
  5
19
330
0
100
AcDbSymbolTable
 70
     2
  0
VPORT
  5
2A2
330
19
100
AcDbSymbolTableRecord
100
AcDbViewportTableRecord
  2
*ACTIVE
 70
     0
 10
0.0
 20
0.0
 11
1.0
 21
1.0
 12
192.3760995901842
 22
162.3551887618829
 13
0.0
 23
0.0
 14
10.0
 24
10.0
 15
10.0
 25
10.0
 16
0.0
 26
0.0
 36
1.0
 17
0.0
 27
0.0
 37
0.0
 40
477.9592166469973
 41
1.676282051282051
 42
50.0
 43
0.0
 44
0.0
 50
0.0
 51
0.0
 71
     0
 72
 20000
 73
     1
 74
     1
 75
     0
 76
     0
 77
     0
 78
     0
  0
ENDTAB
  0
TABLE
  2
LTYPE
  5
14
330
0
100
AcDbSymbolTable
 70
     6
  0
LTYPE
  5
15
330
14
100
AcDbSymbolTableRecord
100
AcDbLinetypeTableRecord
  2
BYBLOCK
 70
     0
  3

 72
    65
 73
     0
 40
0.0
  0
LTYPE
  5
16
330
14
100
AcDbSymbolTableRecord
100
AcDbLinetypeTableRecord
  2
BYLAYER
 70
     0
  3

 72
    65
 73
     0
 40
0.0
  0
LTYPE
  5
8
330
14
100
AcDbSymbolTableRecord
100
AcDbLinetypeTableRecord
  2
CONTINUOUS
 70
     0
  3
Solid line
 72
    65
 73
     0
 40
0.0
  0
LTYPE
  5
33
330
14
100
AcDbSymbolTableRecord
100
AcDbLinetypeTableRecord
  2
CONTINUA
 70
     0
  3
Linea ininterrumpida
 72
    65
 73
     0
 40
0.0
  0
LTYPE
  5
75
330
14
100
AcDbSymbolTableRecord
100
AcDbLinetypeTableRecord
  2
CENTRO
 70
     0
  3
____ _ ____ _ ____ _ ____ _ ____ _ ____ _ __
 72
    65
 73
     4
 40
2.0
 49
1.25
 74
     0
 49
-0.25
 74
     0
 49
0.25
 74
     0
 49
-0.25
 74
     0
  0
LTYPE
  5
37
330
14
100
AcDbSymbolTableRecord
100
AcDbLinetypeTableRecord
  2
RAYITAS
 70
     0
  3
_ _ _ _ _ _ _ _ _ _ _ _ _ _ _ _ _ _ _ _ _ _
 72
    65
 73
     2
 40
0.375
 49
0.25
 74
     0
 49
-0.125
 74
     0
  0
LTYPE
  5
3A
330
14
100
AcDbSymbolTableRecord
100
AcDbLinetypeTableRecord
  2
TRAZOS
 70
     0
  3
__ __ __ __ __ __ __ __ __ __ __ __ __ __ __ __
 72
    65
 73
     2
 40
0.75
 49
0.5
 74
     0
 49
-0.25
 74
     0
  0
LTYPE
  5
170
330
14
100
AcDbSymbolTableRecord
100
AcDbLinetypeTableRecord
  2
TRAZO_Y_PUNTO
 70
     0
  3
__ . __ . __ . __ . __ . __ . __ . __ . __ . __
 72
    65
 73
     4
 40
1.0
 49
0.5
 74
     0
 49
-0.25
 74
     0
 49
0.0
 74
     0
 49
-0.25
 74
     0
  0
ENDTAB
  0
TABLE
  2
LAYER
  5
10
330
0
100
AcDbSymbolTable
 70
     5
  0
LAYER
  5
4
330
10
100
AcDbSymbolTableRecord
100
AcDbLayerTableRecord
  2
0
 70
     0
 62
     7
  6
CONTINUOUS
  0
LAYER
  5
74
330
10
100
AcDbSymbolTableRecord
100
AcDbLayerTableRecord
  2
7
 70
     0
 62
     7
  6
CENTRO
  0
LAYER
  5
32
330
10
100
AcDbSymbolTableRecord
100
AcDbLayerTableRecord
  2
9
 70
     0
 62
     7
  6
CONTINUA
  0
LAYER
  5
21F
330
10
100
AcDbSymbolTableRecord
100
AcDbLayerTableRecord
  2
KR-GRUESA
 70
     0
 62
     6
  6
CONTINUOUS
  0
LAYER
  5
2F
330
10
100
AcDbSymbolTableRecord
100
AcDbLayerTableRecord
  2
KR-TEXTOS
 70
     0
 62
     2
  6
CONTINUOUS
  0
ENDTAB
  0
TABLE
  2
STYLE
  5
11
330
0
100
AcDbSymbolTable
 70
     4
  0
STYLE
  5
12
330
11
100
AcDbSymbolTableRecord
100
AcDbTextStyleTableRecord
  2
STANDARD
 70
     0
 40
0.0
 41
1.0
 50
0.0
 71
     0
 42
2.5
  3
txt
  4

  0
STYLE
  5
22
330
11
100
AcDbSymbolTableRecord
100
AcDbTextStyleTableRecord
  2
ROMANS
 70
     0
 40
2.0
 41
1.0
 50
0.0
 71
     0
 42
2.0
  3
romans.shx
  4

  0
STYLE
  5
2A
330
11
100
AcDbSymbolTableRecord
100
AcDbTextStyleTableRecord
  2
DEYP
 70
     0
 40
0.0
 41
1.0
 50
0.0
 71
     0
 42
2.0
  3
romans.shx
  4

  0
STYLE
  5
7C
330
11
100
AcDbSymbolTableRecord
100
AcDbTextStyleTableRecord
  2
SYMATH
 70
     0
 40
1.0
 41
1.0
 50
0.0
 71
     0
 42
1.0
  3
SYMATH
  4

  0
ENDTAB
  0
TABLE
  2
VIEW
  5
17
330
0
100
AcDbSymbolTable
 70
     0
  0
ENDTAB
  0
TABLE
  2
UCS
  5
18
330
0
100
AcDbSymbolTable
 70
     0
  0
ENDTAB
  0
TABLE
  2
APPID
  5
1B
330
0
100
AcDbSymbolTable
 70
     1
  0
APPID
  5
1C
330
1B
100
AcDbSymbolTableRecord
100
AcDbRegAppTableRecord
  2
ACAD
 70
     0
  0
ENDTAB
  0
TABLE
  2
DIMSTYLE
  5
1D
330
0
100
AcDbSymbolTable
 70
     1
  0
DIMSTYLE
105
2C
330
1D
100
AcDbSymbolTableRecord
100
AcDbDimStyleTableRecord
  2
COTA1
 70
     0
  3

  4

  5
COTA
  6
COTA
  7
COTA
 40
1.0
 41
0.75
 42
5.0
 43
6.0
 44
1.8
 45
0.0
 46
2.0
 47
0.0
 48
0.0
140
2.0
141
1.5
142
0.0
143
25.4
144
1.0
145
1.0
146
1.0
147
0.09
 71
     0
 72
     0
 73
     0
 74
     0
 75
     0
 76
     0
 77
     0
 78
     0
170
     0
171
     2
172
     0
173
     1
174
     1
175
     0
176
     1
177
     1
178
     1
270
     2
271
     3
272
     3
273
     2
274
     2
340
22
275
     0
280
     0
281
     0
282
     0
283
     1
284
     0
285
     0
286
     0
287
     5
288
     0
  0
ENDTAB
  0
TABLE
  2
BLOCK_RECORD
  5
1
330
0
100
AcDbSymbolTable
 70
     2
  0
BLOCK_RECORD
  5
2
102
{ACAD_XDICTIONARY
360
2C4
102
}
330
1
100
AcDbSymbolTableRecord
100
AcDbBlockTableRecord
  2
*MODEL_SPACE
  0
BLOCK_RECORD
  5
C
102
{ACAD_XDICTIONARY
360
2C6
102
}
330
1
100
AcDbSymbolTableRecord
100
AcDbBlockTableRecord
  2
*PAPER_SPACE
  0
BLOCK_RECORD
  5
23
330
1
100
AcDbSymbolTableRecord
100
AcDbBlockTableRecord
  2
COTA
  0
BLOCK_RECORD
  5
7A
330
1
100
AcDbSymbolTableRecord
100
AcDbBlockTableRecord
  2
SIM10
  0
ENDTAB
  0
ENDSEC
  0
SECTION
  2
BLOCKS
  0
BLOCK
  5
3
330
2
100
AcDbEntity
  8
0
100
AcDbBlockBegin
  2
*MODEL_SPACE
 70
     0
 10
0.0
 20
0.0
 30
0.0
  3
*MODEL_SPACE
  1

  0
ENDBLK
  5
9
330
2
100
AcDbEntity
  8
0
100
AcDbBlockEnd
  0
BLOCK
  5
D
330
C
100
AcDbEntity
 67
     1
  8
0
100
AcDbBlockBegin
  2
*PAPER_SPACE
 70
     0
 10
0.0
 20
0.0
 30
0.0
  3
*PAPER_SPACE
  1

  0
ENDBLK
  5
E
330
C
100
AcDbEntity
 67
     1
  8
0
100
AcDbBlockEnd
  0
BLOCK
  5
28
330
23
100
AcDbEntity
  8
0
100
AcDbBlockBegin
  2
COTA
 70
     0
 10
0.0
 20
0.0
 30
0.0
  3
COTA
  1

  0
LINE
  5
24
330
23
100
AcDbEntity
  8
0
  6
CONTINUOUS
 62
     4
100
AcDbLine
 10
-0.707106781186667
 20
-0.707106781186667
 30
0.0
 11
0.0
 21
0.0
 31
0.0
  0
LINE
  5
25
330
23
100
AcDbEntity
  8
0
  6
CONTINUOUS
 62
     4
100
AcDbLine
 10
0.0
 20
0.0
 30
0.0
 11
0.707106781186667
 21
0.707106781186667
 31
0.0
  0
LINE
  5
26
330
23
100
AcDbEntity
  8
0
  6
CONTINUOUS
 62
     7
100
AcDbLine
 10
-1.0
 20
0.0
 30
0.0
 11
0.0
 21
0.0
 31
0.0
  0
LINE
  5
27
330
23
100
AcDbEntity
  8
0
  6
CONTINUOUS
 62
     7
100
AcDbLine
 10
0.0
 20
0.0
 30
0.0
 11
1.5
 21
0.0
 31
0.0
  0
ENDBLK
  5
29
330
23
100
AcDbEntity
  8
0
100
AcDbBlockEnd
  0
BLOCK
  5
7D
330
7A
100
AcDbEntity
  8
0
100
AcDbBlockBegin
  2
SIM10
 70
     0
 10
0.0
 20
0.0
 30
0.0
  3
SIM10
  1

  0
TEXT
  5
7B
330
7A
100
AcDbEntity
  8
0
  6
CONTINUOUS
 62
     0
100
AcDbText
 10
-0.6190476190476188
 20
-0.4285714285714286
 30
0.0
 40
1.0
  1
K
  7
SYMATH
 72
     4
 11
0.0
 21
0.0
 31
0.0
100
AcDbText
  0
ENDBLK
  5
7E
330
7A
100
AcDbEntity
  8
0
100
AcDbBlockEnd
  0
ENDSEC
  0
SECTION
  2
ENTITIES
  0
LWPOLYLINE
  5
2D
330
2
100
AcDbEntity
  8
0
100
AcDbPolyline
 90
        4
 70
     0
 43
0.0
 38
-0.0000003643374698
 10
-93.66802461601741
 20
123.7194378581611
 10
-98.66802461601743
 20
123.7194378581611
 10
-98.6680246160181
 20
150.5988274665337
 10
-93.66802461601787
 20
150.5988274665338
  0
TEXT
  5
2E
330
2
100
AcDbEntity
  8
KR-TEXTOS
  6
CONTINUOUS
100
AcDbText
 10
-86.97531270375566
 20
138.1087464586451
 30
-0.0000003990179094
 40
2.0
  1
V.B. MIX. CONT.
  7
DEYP
100
AcDbText
  0
LINE
  5
30
330
2
100
AcDbEntity
  8
0
100
AcDbLine
 10
-32.38155889652216
 20
141.6003719142805
 30
-0.0000003590395962
 11
-36.73038804239786
 21
137.1545991197788
 31
-0.0000003990179094
  0
LINE
  5
31
330
2
100
AcDbEntity
  8
9
100
AcDbLine
 10
282.0596097217407
 20
129.9619374169635
 30
-0.0000002155070287
 11
282.0596097217405
 21
171.0014429762484
 31
-0.0000002513363663
  0
LINE
  5
34
330
2
100
AcDbEntity
  8
0
  6
CONTINUOUS
 62
     4
100
AcDbLine
 10
246.9068297778548
 20
144.0350202749004
 30
-0.0000001817731886
 11
246.9068297778548
 21
106.6850126289273
 31
-0.0000002219579578
  0
LINE
  5
35
330
2
100
AcDbEntity
  8
0
  6
CONTINUOUS
 62
     4
100
AcDbLine
 10
246.9068297778548
 20
106.6850126289273
 30
-0.0000002219579578
 11
293.8138884138357
 21
144.0350202749159
 31
-0.0000001821687349
  0
CIRCLE
  5
36
330
2
100
AcDbEntity
  8
0
  6
RAYITAS
 62
     9
100
AcDbCircle
 10
397.8138884138353
 20
144.0350202749182
 30
-0.000000407049567
 40
6.054719480391213
  0
LINE
  5
38
330
2
100
AcDbEntity
  8
0
100
AcDbLine
 10
408.8686078942265
 20
221.4999999941753
 30
-0.000000386374274
 11
408.868607894227
 21
106.0275216257048
 31
-0.0000003782888973
  0
LINE
  5
39
330
2
100
AcDbEntity
  8
0
  6
TRAZOS
100
AcDbLine
 10
399.8138884138353
 20
299.2353618325692
 30
-0.000000386374274
 11
399.8138884138358
 21
106.0275216257048
 31
-0.000000386374274
  0
LINE
  5
3B
330
2
100
AcDbEntity
  8
9
100
AcDbLine
 10
-11.75427869209488
 20
116.2719495856242
 30
-0.0000002198321249
 11
-11.75427869209488
 21
171.8038946932886
 31
-0.0000003103643745
  0
LINE
  5
3C
330
2
100
AcDbEntity
  8
0
  6
CONTINUOUS
 62
     4
100
AcDbLine
 10
196.9068296280793
 20
144.0350202749096
 30
-0.0000001817732502
 11
196.9068296280884
 21
106.6850126289273
 31
-0.000000221957995
  0
LINE
  5
3D
330
2
100
AcDbEntity
  8
0
  6
CONTINUOUS
 62
     4
100
AcDbLine
 10
146.9068296280793
 20
144.0350202749096
 30
-0.0000001817732259
 11
146.9068296280793
 21
106.6850126289364
 31
-0.000000221957995
  0
LINE
  5
3E
330
2
100
AcDbEntity
  8
0
  6
CONTINUOUS
 62
     4
100
AcDbLine
 10
96.90682962807933
 20
144.0350202749096
 30
-0.0000001817732759
 11
96.90682962807933
 21
106.6850126289273
 31
-0.000000221957995
  0
LINE
  5
3F
330
2
100
AcDbEntity
  8
0
  6
CONTINUOUS
 62
     4
100
AcDbLine
 10
46.90682962807932
 20
144.0350202749096
 30
-0.0000001817732258
 11
46.90682962807932
 21
106.6850126289273
 31
-0.000000221957995
  0
LINE
  5
40
330
2
100
AcDbEntity
  8
0
  6
CONTINUOUS
 62
     4
100
AcDbLine
 10
96.90682962807933
 20
106.6850126289273
 30
-0.000000221957995
 11
46.90682962807932
 21
144.0350202749096
 31
-0.0000001817732887
  0
LINE
  5
41
330
2
100
AcDbEntity
  8
0
  6
CONTINUOUS
 62
     4
100
AcDbLine
 10
96.90682962807933
 20
144.0350202749096
 30
-0.0000001817732759
 11
146.9069442069167
 21
106.6850126289273
 31
-0.0000002219580322
  0
LINE
  5
42
330
2
100
AcDbEntity
  8
0
  6
CONTINUOUS
 62
     4
100
AcDbLine
 10
146.9069442069167
 20
106.6850126289273
 30
-0.0000002219580322
 11
196.9068296280793
 21
144.0350202749096
 31
-0.0000001817732502
  0
LINE
  5
43
330
2
100
AcDbEntity
  8
0
  6
CONTINUOUS
 62
     4
100
AcDbLine
 10
46.90682962807932
 20
106.6850126289273
 30
-0.000000221957995
 11
0.0
 21
144.0350202749096
 31
-0.0000001821687349
  0
LINE
  5
44
330
2
100
AcDbEntity
  8
0
  6
CONTINUOUS
 62
     4
100
AcDbLine
 10
196.9068296280884
 20
106.6850126289273
 30
-0.000000221957995
 11
246.9068297778548
 21
144.0350202749096
 31
-0.0000001817732374
  0
LWPOLYLINE
  5
45
330
2
100
AcDbEntity
  8
0
 62
     5
100
AcDbPolyline
 90
        2
 70
     0
 43
1.0
 38
-0.000000070133344
 10
293.8138884138357
 20
303.5876855059875
 10
293.8138884138357
 20
-0.0000000000161435
  0
LWPOLYLINE
  5
46
330
2
100
AcDbEntity
  8
0
 62
     5
100
AcDbPolyline
 90
        3
 70
     0
 10
293.8138884138357
 20
221.499999994173
 40
1.0
 41
1.0
 10
0.0
 20
221.4999999941665
 40
1.0
 41
1.0
 10
0.0
 20
0.0
 40
0.0
 41
0.0
  0
LINE
  5
47
330
2
100
AcDbEntity
  8
0
100
AcDbLine
 10
277.5659438608304
 20
64.6731222173496
 30
-0.0000000273180084
 11
276.4320794848113
 21
71.14692584286991
 31
-0.0000001821687349
  0
LINE
  5
48
330
2
100
AcDbEntity
  8
0
100
AcDbLine
 10
117.0464562356814
 20
64.6731222173496
 30
-0.0000000273180084
 11
118.1803206117006
 21
71.14692584286991
 31
-0.0000001821687349
  0
LINE
  5
49
330
2
100
AcDbEntity
  8
9
100
AcDbLine
 10
121.3033267941168
 20
38.51349172363478
 30
-0.0000000930645841
 11
121.3033267941168
 21
67.52002297648232
 31
-0.0000001403531587
  0
LINE
  5
4A
330
2
100
AcDbEntity
  8
9
100
AcDbLine
 10
282.0596097217405
 20
38.51349172363331
 30
-0.0000000865470917
 11
282.0596097217407
 21
89.89783842372412
 31
-0.0000001673925475
  0
LINE
  5
4B
330
2
100
AcDbEntity
  8
9
100
AcDbLine
 10
-11.75427869209534
 20
38.51349172363478
 30
-0.0000000930645841
 11
-11.75427869209534
 21
95.78309366576787
 31
-0.0000001864296893
  0
LINE
  5
4C
330
2
100
AcDbEntity
  8
0
100
AcDbLine
 10
289.6310759239345
 20
69.91898587479614
 30
-0.0000000448198307
 11
275.8790027432419
 21
84.34982647842957
 31
-0.0000001923813101
  0
LINE
  5
4D
330
2
100
AcDbEntity
  8
0
100
AcDbLine
 10
6.019080468413449
 20
117.8209500874702
 30
-0.0000001821687349
 11
1.724941350355493
 21
105.9641913087925
 31
-0.0000000165486096
  0
LWPOLYLINE
  5
4E
330
2
100
AcDbEntity
  8
0
100
AcDbPolyline
 90
        4
 70
     0
 43
0.0
 38
-0.0000003643374698
 10
288.6750501200101
 20
-11.75086762144871
 10
288.6750501200101
 20
-16.75086762144871
 10
4.699915538736831
 20
-16.7508676214494
 10
4.699915538736604
 20
-11.75086762144917
  0
TEXT
  5
4F
330
2
100
AcDbEntity
  8
KR-TEXTOS
  6
CONTINUOUS
100
AcDbText
 10
95.83393098703254
 20
113.5952049547235
 30
-0.0000001835474011
 40
2.0
  1
HEB 240 A52d
 50
90.0
  7
DEYP
 72
     1
 11
94.83393098703254
 21
125.0713954309139
 31
-0.0000001835474011
100
AcDbText
 73
     2
  0
CIRCLE
  5
50
330
2
100
AcDbEntity
  8
0
  6
RAYITAS
 62
     9
100
AcDbCircle
 10
95.52373216970455
 20
68.02002297648465
 30
-0.0000002464694888
 40
4.54103961029341
  0
TEXT
  5
51
330
2
100
AcDbEntity
  8
KR-TEXTOS
  6
CONTINUOUS
100
AcDbText
 10
85.25651842740575
 20
76.9945974991499
 30
-0.0000002464694888
 40
2.0
  1
4.0-   12%%C12/0.200   -3.0
  7
DEYP
 72
     1
 11
108.54223271312
 21
77.99459749914991
 31
-0.0000002464694888
100
AcDbText
 73
     2
  0
LINE
  5
52
330
2
100
AcDbEntity
  8
0
 62
     4
100
AcDbLine
 10
138.54223271312
 20
76.02002297648255
 30
-0.0000002464694888
 11
68.54223271312003
 21
76.02002297648255
 31
-0.0000002464694888
  0
LWPOLYLINE
  5
53
330
2
100
AcDbEntity
  8
0
 62
     5
100
AcDbPolyline
 90
        2
 70
     0
 43
1.0
 38
-0.0000002464694888
 10
293.8138884138357
 20
68.02002297648894
 10
0.0058037290932589
 20
68.02002297648255
  0
LWPOLYLINE
  5
54
330
2
100
AcDbEntity
  8
0
 62
     5
100
AcDbPolyline
 90
        2
 70
     0
 43
1.0
 38
-0.000000221958007
 10
0.0
 20
106.6850126289273
 10
293.8138884138357
 20
106.6850126289273
  0
TEXT
  5
55
330
2
100
AcDbEntity
  8
KR-TEXTOS
100
AcDbText
 10
80.72867442819916
 20
-52.89175157494105
 30
-0.0000001280805562
 40
2.0
  1
V. TRANSV.
  7
ROMANS
 11
80.72867442819916
 21
-51.89175157494105
 31
-0.0000001280805562
100
AcDbText
 73
     2
  0
TEXT
  5
56
330
2
100
AcDbEntity
  8
KR-TEXTOS
  6
CONTINUOUS
100
AcDbText
 10
-104.6008026027528
 20
135.9091326623474
 30
-0.00000044122814
 40
2.5
  1
$2
  7
DEYP
 72
     1
 11
-102.2198502218004
 21
137.1591326623474
 31
-0.00000044122814
100
AcDbText
 73
     2
  0
TEXT
  5
57
330
2
100
AcDbEntity
  8
KR-TEXTOS
  6
CONTINUOUS
100
AcDbText
 10
25.28210960894617
 20
129.8358210676588
 30
-0.00000044122814
 40
2.5
  1
$5
  7
DEYP
 72
     1
 11
27.66306198989855
 21
131.0858210676588
 31
-0.00000044122814
100
AcDbText
 73
     2
  0
TEXT
  5
58
330
2
100
AcDbEntity
  8
KR-TEXTOS
  6
CONTINUOUS
100
AcDbText
 10
73.90379130011175
 20
130.510634345514
 30
-0.00000044122814
 40
2.5
  1
$6
  7
DEYP
 72
     1
 11
76.28474368106413
 21
131.760634345514
 31
-0.00000044122814
100
AcDbText
 73
     2
  0
TEXT
  5
59
330
2
100
AcDbEntity
  8
KR-TEXTOS
100
AcDbText
 10
80.72867442819916
 20
-58.12984681303624
 30
-0.0000001280805562
 40
2.0
  1
V. MIX.
  7
ROMANS
 11
80.72867442819916
 21
-57.12984681303623
 31
-0.0000001280805562
100
AcDbText
 73
     2
  0
TEXT
  5
5A
330
2
100
AcDbEntity
  8
KR-TEXTOS
100
AcDbText
 10
80.72867442819916
 20
-68.60603728922661
 30
-0.0000001280805562
 40
2.0
  1
SIN INT.
  7
ROMANS
 11
80.72867442819916
 21
-67.6060372892266
 31
-0.0000001280805562
100
AcDbText
 73
     2
  0
TEXT
  5
5B
330
2
100
AcDbEntity
  8
KR-TEXTOS
100
AcDbText
 10
80.72867442819916
 20
-63.36794205113142
 30
-0.0000001280805562
 40
2.0
  1
V. CONT.
  7
ROMANS
 11
80.72867442819916
 21
-62.36794205113142
 31
-0.0000001280805562
100
AcDbText
 73
     2
  0
TEXT
  5
5C
330
2
100
AcDbEntity
  8
KR-TEXTOS
100
AcDbText
 10
80.72867442819916
 20
-73.84413252732179
 30
-0.0000001280805562
 40
2.0
  1
A
  7
ROMANS
 11
80.72867442819916
 21
-72.84413252732178
 31
-0.0000001280805562
100
AcDbText
 73
     2
  0
TEXT
  5
5D
330
2
100
AcDbEntity
  8
KR-TEXTOS
100
AcDbText
 10
80.72867442819916
 20
-47.65365633684587
 30
-0.0000001280805562
 40
2.0
  1
V.B.
  7
ROMANS
 11
80.72867442819916
 21
-46.65365633684587
 31
-0.0000001280805562
100
AcDbText
 73
     2
  0
TEXT
  5
5E
330
2
100
AcDbEntity
  8
KR-TEXTOS
  6
CONTINUOUS
100
AcDbText
 10
-59.03404642114576
 20
132.5178912173078
 30
-0.0000003059781297
 40
2.0
  1
SEGUN VANOS
  7
DEYP
 72
     1
 11
-48.31976070686005
 21
133.5178912173078
 31
-0.0000003059781297
100
AcDbText
 73
     2
  0
LINE
  5
5F
330
2
100
AcDbEntity
  8
0
 62
     7
100
AcDbLine
 10
-86.63608564795458
 20
137.1545991197788
 30
-0.0000003990179094
 11
-36.73038804239786
 21
137.1545991197788
 31
-0.0000003990179094
  0
TEXT
  5
60
330
2
100
AcDbEntity
  8
KR-TEXTOS
  6
CONTINUOUS
100
AcDbText
 10
-86.97531270375566
 20
130.8418187064701
 30
-0.0000003990179094
 40
2.0
  1
ó HEA 500 A52
  7
DEYP
100
AcDbText
  0
TEXT
  5
61
330
2
100
AcDbEntity
  8
KR-TEXTOS
  6
CONTINUOUS
100
AcDbText
 10
-86.97531270375566
 20
134.2004517809125
 30
-0.0000003990179094
 40
2.0
  1
IPE 500 A52
  7
DEYP
100
AcDbText
  0
TEXT
  5
62
330
2
100
AcDbEntity
  8
KR-TEXTOS
  6
CONTINUOUS
100
AcDbText
 10
-86.97531270375566
 20
127.4831856320276
 30
-0.0000003990179094
 40
2.0
  1
+ UPN 120 A52
  7
DEYP
100
AcDbText
  0
LWPOLYLINE
  5
63
330
2
100
AcDbEntity
  8
9
100
AcDbPolyline
 90
        7
 70
     0
 43
0.0
 38
-0.0000003059781297
 10
-61.27615933023003
 20
130.8585717804128
 10
-60.67953798360372
 20
131.4551931270388
 10
-60.67953798360372
 20
132.9212698706818
 10
-60.08291663697765
 20
133.5178912173078
 10
-60.67953798360372
 20
134.114512563934
 10
-60.67953798360372
 20
135.5805893075765
 10
-61.27615933023003
 20
136.1772106542027
  0
LINE
  5
64
330
2
100
AcDbEntity
  8
0
 62
     7
100
AcDbLine
 10
-52.87439018027635
 20
24.92439539673091
 30
-0.0000002583359006
 11
-0.5577683453989267
 21
24.92439539673091
 31
-0.0000002583359006
  0
TEXT
  5
65
330
2
100
AcDbEntity
  8
KR-TEXTOS
  6
CONTINUOUS
100
AcDbText
 10
-52.7881437486094
 20
21.97024805786463
 30
-0.0000002583359006
 40
2.0
  1
EN EL MURO
  7
DEYP
100
AcDbText
  0
TEXT
  5
66
330
2
100
AcDbEntity
  8
KR-TEXTOS
  6
CONTINUOUS
100
AcDbText
 10
-52.7881437486094
 20
25.87854273559719
 30
-0.0000002583359006
 40
2.0
  1
FUSTE MACLADO
  7
DEYP
100
AcDbText
  0
LINE
  5
67
330
2
100
AcDbEntity
  8
0
100
AcDbLine
 10
-0.5577683453984719
 20
24.92439539673046
 30
-0.0000002583359006
 11
-1.618428517178017
 21
23.86373522495046
 31
-0.0000002583359006
  0
LINE
  5
68
330
2
100
AcDbEntity
  8
9
100
AcDbLine
 10
-0.5577683453989267
 20
24.92439539673091
 30
-0.0000002583359006
 11
-1.618428517178472
 21
25.98505556851091
 31
-0.0000002583359006
  0
TEXT
  5
69
330
2
100
AcDbEntity
  8
KR-TEXTOS
  6
CONTINUOUS
100
AcDbText
 10
-69.23607020276904
 20
59.33166322591
 30
-0.0000001923813101
 40
2.0
  1
SOPORTES DE SOTANOS
  7
DEYP
100
AcDbText
  0
TEXT
  5
6A
330
2
100
AcDbEntity
  8
KR-TEXTOS
  6
CONTINUOUS
100
AcDbText
 10
-69.23607020276904
 20
66.48995790364256
 30
-0.0000001923813101
 40
2.0
  1
APOYOS ARTICULADOS DE
  7
DEYP
100
AcDbText
  0
TEXT
  5
6B
330
2
100
AcDbEntity
  8
KR-TEXTOS
  6
CONTINUOUS
100
AcDbText
 10
-69.23607020276904
 20
62.58166322591001
 30
-0.0000001923813101
 40
2.0
  1
ESTRUCTURA METALICA SOBRE
  7
DEYP
100
AcDbText
  0
LINE
  5
6C
330
2
100
AcDbEntity
  8
0
 62
     7
100
AcDbLine
 10
-68.89684314696797
 20
65.53581056477629
 30
-0.0000001923813101
 11
-15.37093266301781
 21
65.53581056477629
 31
-0.0000001923813101
  0
LWPOLYLINE
  5
6D
330
2
100
AcDbEntity
  8
0
 62
     5
100
AcDbPolyline
 90
        2
 70
     0
 43
1.0
 38
-0.0000002464694888
 10
-72.2169256312959
 20
68.02002297648255
 10
-77.73274455136607
 20
68.02002297648255
  0
LINE
  5
6E
330
2
100
AcDbEntity
  8
0
 62
     5
100
AcDbLine
 10
-80.73854828045979
 20
63.02002297649119
 30
-0.0000002486762412
 11
-74.73854828045978
 21
63.02002297649074
 31
-0.000000248587918
  0
LINE
  5
6F
330
2
100
AcDbEntity
  8
9
100
AcDbLine
 10
-11.75427869209579
 20
67.520022976483
 30
-0.0000002464694888
 11
-12.81493886387579
 21
68.58068314826255
 31
-0.0000002464694888
  0
LINE
  5
70
330
2
100
AcDbEntity
  8
0
100
AcDbLine
 10
-11.75427869209534
 20
67.52002297648255
 30
-0.0000002464694888
 11
-10.69361852031533
 21
68.58068314826209
 31
-0.0000002464694888
  0
LINE
  5
71
330
2
100
AcDbEntity
  8
0
 62
     5
100
AcDbLine
 10
-5.0
 20
0.0000000000006821
 30
-0.0000002323618197
 11
5.0
 21
0.0
 31
-0.0000002322146144
  0
LINE
  5
72
330
2
100
AcDbEntity
  8
0
 62
     5
100
AcDbLine
 10
-3.000000000000454
 20
63.02002297649119
 30
-0.0000002486762412
 11
2.999999999999545
 21
63.02002297649074
 31
-0.000000248587918
  0
LINE
  5
73
330
2
100
AcDbEntity
  8
7
100
AcDbLine
 10
-10.25427869209579
 20
67.52002297648255
 30
-0.0000002464694888
 11
-13.25427869209579
 21
67.52002297648255
 31
-0.0000002464694888
  0
LINE
  5
76
330
2
100
AcDbEntity
  8
7
100
AcDbLine
 10
-10.25427869209579
 20
67.52002297648255
 30
-0.0000002464694888
 11
-13.25427869209579
 21
67.52002297648255
 31
-0.0000002464694888
  0
LINE
  5
77
330
2
100
AcDbEntity
  8
9
100
AcDbLine
 10
-11.75427869209579
 20
67.5200229764821
 30
-0.0000002464694888
 11
-12.81493886387579
 21
66.45936280470255
 31
-0.0000002464694888
  0
LINE
  5
78
330
2
100
AcDbEntity
  8
0
100
AcDbLine
 10
-11.75427869209534
 20
67.52002297648255
 30
-0.0000002464694888
 11
-10.69361852031533
 21
66.45936280470255
 31
-0.0000002464694888
  0
INSERT
  5
79
330
2
100
AcDbEntity
  8
KR-TEXTOS
  6
CONTINUOUS
100
AcDbBlockReference
  2
SIM10
 10
57.23466880126034
 20
59.8530364850651
 30
-0.0000002464694888
 41
2.0
 42
2.0
 43
2.0
  0
INSERT
  5
7F
330
2
100
AcDbEntity
  8
KR-TEXTOS
  6
CONTINUOUS
100
AcDbBlockReference
  2
SIM10
 10
58.15523620913655
 20
64.6731222173496
 30
-0.0000002464694888
 41
2.0
 42
2.0
 43
2.0
  0
INSERT
  5
80
330
2
100
AcDbEntity
  8
KR-TEXTOS
  6
CONTINUOUS
100
AcDbBlockReference
  2
SIM10
 10
58.15523620913655
 20
55.03295075278106
 30
-0.0000002464694888
 41
2.0
 42
2.0
 43
2.0
  0
TEXT
  5
81
330
2
100
AcDbEntity
  8
KR-TEXTOS
  6
CONTINUOUS
100
AcDbText
 10
58.54885159794317
 20
58.85303648506511
 30
-0.0000002464694888
 40
2.0
  1
20.1030
  7
DEYP
 72
     1
 11
64.73932778841936
 21
59.8530364850651
 31
-0.0000002464694888
100
AcDbText
 73
     2
  0
TEXT
  5
82
330
2
100
AcDbEntity
  8
KR-TEXTOS
  6
CONTINUOUS
100
AcDbText
 10
59.56130627293163
 20
63.6731222173496
 30
-0.0000002464694888
 40
2.0
  1
600.25
  7
DEYP
 72
     1
 11
64.84702055864591
 21
64.6731222173496
 31
-0.0000002464694888
100
AcDbText
 73
     2
  0
TEXT
  5
83
330
2
100
AcDbEntity
  8
KR-TEXTOS
  6
CONTINUOUS
100
AcDbText
 10
59.56130627293163
 20
54.03295075278106
 30
-0.0000002464694888
 40
2.0
  1
600.25
  7
DEYP
 72
     1
 11
64.84702055864591
 21
55.03295075278106
 31
-0.0000002464694888
100
AcDbText
 73
     2
  0
LINE
  5
84
330
2
100
AcDbEntity
  8
7
100
AcDbLine
 10
-10.25427869209579
 20
-0.0000000000077307
 30
-0.0000001108861715
 11
-13.25427869209579
 21
-0.0000000000077307
 31
-0.0000001108861715
  0
LINE
  5
85
330
2
100
AcDbEntity
  8
7
100
AcDbLine
 10
-10.25427869209579
 20
-0.0000000000077307
 30
-0.0000001108861715
 11
-13.25427869209579
 21
-0.0000000000077307
 31
-0.0000001108861715
  0
LINE
  5
86
330
2
100
AcDbEntity
  8
9
100
AcDbLine
 10
-11.75427869209579
 20
-0.000000000007276
 30
-0.0000001108861715
 11
-12.81493886387579
 21
1.060660171772269
 31
-0.0000001108861715
  0
LINE
  5
87
330
2
100
AcDbEntity
  8
0
100
AcDbLine
 10
-11.75427869209534
 20
-0.0000000000077307
 30
-0.0000001108861715
 11
-10.69361852031533
 21
1.060660171772042
 31
-0.0000001108861715
  0
LINE
  5
88
330
2
100
AcDbEntity
  8
7
100
AcDbLine
 10
88.36758902656811
 20
47.19543399176768
 30
-0.0000001108861715
 11
88.36758902656811
 21
50.19543399176768
 31
-0.0000001108861715
  0
LINE
  5
89
330
2
100
AcDbEntity
  8
7
100
AcDbLine
 10
88.36758902656811
 20
47.19543399176768
 30
-0.0000001108861715
 11
88.36758902656811
 21
50.19543399176768
 31
-0.0000001108861715
  0
LINE
  5
8A
330
2
100
AcDbEntity
  8
9
100
AcDbLine
 10
88.36758902656857
 20
48.69543399176769
 30
-0.0000001108861715
 11
89.4282491983481
 21
49.75609416354768
 31
-0.0000001108861715
  0
LINE
  5
8B
330
2
100
AcDbEntity
  8
0
100
AcDbLine
 10
88.36758902656811
 20
48.69543399176723
 30
-0.0000001108861715
 11
89.42824919834766
 21
47.63477381998723
 31
-0.0000001108861715
  0
LINE
  5
8C
330
2
100
AcDbEntity
  8
0
100
AcDbLine
 10
88.54223271312003
 20
64.6731222173496
 30
-0.0000001108861715
 11
87.48157254134003
 21
63.6124620455696
 31
-0.0000001108861715
  0
LINE
  5
8D
330
2
100
AcDbEntity
  8
9
100
AcDbLine
 10
88.54223271311957
 20
64.67312221735006
 30
-0.0000001108861715
 11
87.48157254134003
 21
65.73378238913005
 31
-0.0000001108861715
  0
LINE
  5
8E
330
2
100
AcDbEntity
  8
7
100
AcDbLine
 10
88.54223271312003
 20
63.17312221735005
 30
-0.0000001108861715
 11
88.54223271312003
 21
66.17312221735005
 31
-0.0000001108861715
  0
LINE
  5
8F
330
2
100
AcDbEntity
  8
7
100
AcDbLine
 10
88.54223271312003
 20
63.17312221735005
 30
-0.0000001108861715
 11
88.54223271312003
 21
66.17312221735005
 31
-0.0000001108861715
  0
LINE
  5
90
330
2
100
AcDbEntity
  8
9
100
AcDbLine
 10
88.54223271312049
 20
64.67312221735006
 30
-0.0000001108861715
 11
89.60289288490002
 21
65.73378238913005
 31
-0.0000001108861715
  0
LINE
  5
91
330
2
100
AcDbEntity
  8
0
100
AcDbLine
 10
88.54223271312003
 20
64.6731222173496
 30
-0.0000001108861715
 11
89.60289288489958
 21
63.6124620455696
 31
-0.0000001108861715
  0
LINE
  5
92
330
2
100
AcDbEntity
  8
0
100
AcDbLine
 10
88.54223271312003
 20
55.03295075278106
 30
-0.0000001108861715
 11
87.48157254134003
 21
53.97229058100106
 31
-0.0000001108861715
  0
LINE
  5
93
330
2
100
AcDbEntity
  8
9
100
AcDbLine
 10
88.54223271311957
 20
55.03295075278152
 30
-0.0000001108861715
 11
87.48157254134003
 21
56.09361092456151
 31
-0.0000001108861715
  0
LINE
  5
94
330
2
100
AcDbEntity
  8
7
100
AcDbLine
 10
88.54223271312003
 20
53.53295075278151
 30
-0.0000001108861715
 11
88.54223271312003
 21
56.53295075278151
 31
-0.0000001108861715
  0
LINE
  5
95
330
2
100
AcDbEntity
  8
7
100
AcDbLine
 10
88.54223271312003
 20
53.53295075278151
 30
-0.0000001108861715
 11
88.54223271312003
 21
56.53295075278151
 31
-0.0000001108861715
  0
LINE
  5
96
330
2
100
AcDbEntity
  8
9
100
AcDbLine
 10
88.54223271312049
 20
55.03295075278152
 30
-0.0000001108861715
 11
89.60289288490002
 21
56.09361092456151
 31
-0.0000001108861715
  0
LINE
  5
97
330
2
100
AcDbEntity
  8
0
100
AcDbLine
 10
88.54223271312003
 20
55.03295075278106
 30
-0.0000001108861715
 11
89.60289288489958
 21
53.97229058100106
 31
-0.0000001108861715
  0
LINE
  5
98
330
2
100
AcDbEntity
  8
0
 62
     7
100
AcDbLine
 10
6.019080468413449
 20
117.8209500874702
 30
-0.0000001821687349
 11
24.60364906548829
 21
117.8209500874702
 31
-0.0000001821687349
  0
TEXT
  5
99
330
2
100
AcDbEntity
  8
KR-TEXTOS
  6
CONTINUOUS
100
AcDbText
 10
15.1439761791393
 20
133.3479629284915
 30
-0.0000001834346041
 40
2.0
  1
HEB 300 A52d
 50
321.4711109839947
  7
DEYP
 72
     1
 11
24.74464235521327
 21
126.9816329950531
 31
-0.0000001834346041
100
AcDbText
 73
     2
  0
LINE
  5
9A
330
2
100
AcDbEntity
  8
0
 62
     7
100
AcDbLine
 10
11.35834439962718
 20
92.9513716175659
 30
-0.0000001898076303
 11
37.00450407313246
 21
92.9513716175659
 31
-0.0000001898076303
  0
TEXT
  5
9B
330
2
100
AcDbEntity
  8
KR-TEXTOS
  6
CONTINUOUS
100
AcDbText
 10
12.82458356852248
 20
89.99722427869963
 30
-0.0000001898076303
 40
2.0
  1
HEA 800 A52d
  7
DEYP
100
AcDbText
  0
TEXT
  5
9C
330
2
100
AcDbEntity
  8
KR-TEXTOS
  6
CONTINUOUS
100
AcDbText
 10
12.82458356852248
 20
93.90551895643218
 30
-0.0000001898076303
 40
2.0
  1
V. TRANSV. MIX.
  7
DEYP
100
AcDbText
  0
TEXT
  5
9D
330
2
100
AcDbEntity
  8
KR-TEXTOS
  6
CONTINUOUS
100
AcDbText
 10
7.485319637308748
 20
114.8668027486039
 30
-0.0000001821687349
 40
2.0
  1
ARTICULADA
  7
DEYP
100
AcDbText
  0
TEXT
  5
9E
330
2
100
AcDbEntity
  8
KR-TEXTOS
  6
CONTINUOUS
100
AcDbText
 10
-5.934192959810843
 20
102.175688910536
 30
-0.0000002083534965
 40
2.0
  1
600.60
 50
90.0
  7
DEYP
 72
     1
 11
-6.934192959810843
 21
107.4614031962503
 31
-0.0000002083534965
100
AcDbText
 73
     2
  0
TEXT
  5
9F
330
2
100
AcDbEntity
  8
KR-TEXTOS
  6
CONTINUOUS
100
AcDbText
 10
-10.75427869209488
 20
102.223307958155
 30
-0.0000002083534965
 40
2.0
  1
30.880
 50
90.0
  7
DEYP
 72
     1
 11
-11.75427869209488
 21
107.4614031962503
 31
-0.0000002083534965
100
AcDbText
 73
     2
  0
TEXT
  5
A0
330
2
100
AcDbEntity
  8
KR-TEXTOS
  6
CONTINUOUS
100
AcDbText
 10
-15.57436442437938
 20
102.175688910536
 30
-0.0000002083534965
 40
2.0
  1
600.60
 50
90.0
  7
DEYP
 72
     1
 11
-16.57436442437938
 21
107.4614031962503
 31
-0.0000002083534965
100
AcDbText
 73
     2
  0
CIRCLE
  5
A1
330
2
100
AcDbEntity
  8
0
  6
RAYITAS
 62
     9
100
AcDbCircle
 10
1.723378989011052
 20
106.6850126289273
 30
-0.000000221958007
 40
4.54103961029341
  0
LINE
  5
A2
330
2
100
AcDbEntity
  8
0
100
AcDbLine
 10
11.35834439962718
 20
92.9513716175659
 30
-0.0000001898076303
 11
4.331383456647699
 21
102.9675735320434
 31
-0.0000002132555029
  0
INSERT
  5
A3
330
2
100
AcDbEntity
  8
KR-TEXTOS
  6
CONTINUOUS
100
AcDbBlockReference
  2
SIM10
 10
-6.934192959810843
 20
99.96493298972291
 30
-0.0000002083534965
 41
2.0
 42
2.0
 43
2.0
 50
90.0
  0
INSERT
  5
A4
330
2
100
AcDbEntity
  8
KR-TEXTOS
  6
CONTINUOUS
100
AcDbBlockReference
  2
SIM10
 10
-11.75427869209488
 20
99.96493298972291
 30
-0.0000002083534965
 41
2.0
 42
2.0
 43
2.0
 50
90.0
  0
INSERT
  5
A5
330
2
100
AcDbEntity
  8
KR-TEXTOS
  6
CONTINUOUS
100
AcDbBlockReference
  2
SIM10
 10
-16.57436442437938
 20
99.96493298972291
 30
-0.0000002083534965
 41
2.0
 42
2.0
 43
2.0
 50
90.0
  0
LWPOLYLINE
  5
A6
330
2
100
AcDbEntity
  8
9
100
AcDbPolyline
 90
        7
 70
     0
 43
0.0
 38
-0.0000001881101487
 10
-4.886595297703479
 20
97.90441400932763
 10
-5.947255469483025
 20
96.84375383754787
 10
-10.69361852031533
 20
96.84375383754787
 10
-11.75427869209488
 20
95.78309366576808
 10
-12.81493886387488
 20
96.84375383754787
 10
-17.53076621215041
 20
96.84375383754787
 10
-18.59142638393041
 20
97.90441400932763
  0
LWPOLYLINE
  5
A7
330
2
100
AcDbEntity
  8
0
 62
     7
100
AcDbPolyline
 90
        2
 70
     1
 43
1.033596233139957
 38
-0.000000221958007
 10
1.206580872441463
 20
106.6850126289273
 42
-1.0
 10
2.240177105580642
 20
106.6850126289273
 42
-1.0
  0
LWPOLYLINE
  5
A8
330
2
100
AcDbEntity
  8
0
 62
     7
100
AcDbPolyline
 90
        2
 70
     1
 43
0.3599999999999941
 38
-0.000000221958007
 10
1.543378989011216
 20
106.6850126289273
 42
-1.0
 10
1.903378989010889
 20
106.6850126289273
 42
-1.0
  0
TEXT
  5
A9
330
2
100
AcDbEntity
  8
KR-TEXTOS
  6
CONTINUOUS
100
AcDbText
 10
-8.681380051049018
 20
126.2827044231305
 30
-0.0000002464694888
 40
2.0
  1
SIN INT.
 50
90.0
  7
DEYP
 72
     1
 11
-9.681380051049018
 21
132.2827044231305
 31
-0.0000002464694888
100
AcDbText
 73
     2
  0
TEXT
  5
AA
330
2
100
AcDbEntity
  8
KR-TEXTOS
  6
CONTINUOUS
100
AcDbText
 10
-12.82717733314166
 20
128.758894899321
 30
-0.0000002464694888
 40
2.0
  1
A52d
 50
90.0
  7
DEYP
 72
     1
 11
-13.82717733314166
 21
132.2827044231305
 31
-0.0000002464694888
100
AcDbText
 73
     2
  0
LWPOLYLINE
  5
AB
330
2
100
AcDbEntity
  8
9
100
AcDbPolyline
 90
        7
 70
     0
 43
0.0
 38
-0.0000001881101487
 10
-4.886595297703479
 20
114.1506292420644
 10
-5.947255469483025
 20
115.2112894138442
 10
-10.69361852031533
 20
115.2112894138442
 10
-11.75427869209488
 20
116.2719495856242
 10
-12.81493886387488
 20
115.2112894138442
 10
-17.53076621215041
 20
115.2112894138442
 10
-18.59142638393041
 20
114.1506292420644
  0
TEXT
  5
AC
330
2
100
AcDbEntity
  8
KR-TEXTOS
  6
CONTINUOUS
100
AcDbText
 10
7.485319637308748
 20
118.7750974263365
 30
-0.0000001821687349
 40
2.0
  1
UNIÓN
  7
DEYP
100
AcDbText
  0
TEXT
  5
AD
330
2
100
AcDbEntity
  8
KR-TEXTOS
  6
CONTINUOUS
100
AcDbText
 10
46.59778017858916
 20
69.83625216857922
 30
-0.0000002464694888
 40
2.0
  1
V. MIX. SIN INT. A52d
  7
DEYP
 72
     1
 11
63.45492303573201
 21
70.83625216857922
 31
-0.0000002464694888
100
AcDbText
 73
     2
  0
TEXT
  5
AE
330
2
100
AcDbEntity
  8
KR-TEXTOS
  6
CONTINUOUS
100
AcDbText
 10
45.83393098703254
 20
113.8838259757277
 30
-0.0000001832368495
 40
2.0
  1
HEB 280 A52d
 50
90.0
  7
DEYP
 72
     1
 11
44.83393098703254
 21
125.3600164519182
 31
-0.0000001832368495
100
AcDbText
 73
     2
  0
TEXT
  5
AF
330
2
100
AcDbEntity
  8
KR-TEXTOS
  6
CONTINUOUS
100
AcDbText
 10
62.96749010929409
 20
133.3768990969145
 30
-0.0000001837569374
 40
2.0
  1
HEB 260 A52d
 50
323.2402631312524
  7
DEYP
 72
     1
 11
72.76012521438679
 21
127.3100015747611
 31
-0.0000001837569374
100
AcDbText
 73
     2
  0
CIRCLE
  5
B0
330
2
100
AcDbEntity
  8
0
  6
RAYITAS
 62
     9
100
AcDbCircle
 10
397.8138884138353
 20
106.0275216257048
 30
-0.0000004391999437
 40
6.054719480391213
  0
LINE
  5
B1
330
2
100
AcDbEntity
  8
0
100
AcDbLine
 10
394.8138884138358
 20
-0.0000000000159162
 30
-0.0000004506360704
 11
404.8138884138357
 21
-0.0000000000165983
 31
-0.0000004504888651
  0
TEXT
  5
B2
330
2
100
AcDbEntity
  8
KR-TEXTOS
  6
CONTINUOUS
100
AcDbText
 10
214.827405158058
 20
130.263709980652
 30
-0.00000044122814
 40
2.5
  1
$7
  7
DEYP
 72
     1
 11
217.2083575390104
 21
131.513709980652
 31
-0.00000044122814
100
AcDbText
 73
     2
  0
TEXT
  5
B3
330
2
100
AcDbEntity
  8
KR-TEXTOS
  6
CONTINUOUS
100
AcDbText
 10
315.5067957693069
 20
87.07570961047167
 30
-0.00000044122814
 40
2.5
  1
$9
  7
DEYP
 72
     1
 11
317.8282243407354
 21
88.32570961047167
 31
-0.00000044122814
100
AcDbText
 73
     2
  0
TEXT
  5
B4
330
2
100
AcDbEntity
  8
KR-TEXTOS
  6
CONTINUOUS
100
AcDbText
 10
262.9988845904214
 20
129.5888986792988
 30
-0.00000044122814
 40
2.5
  1
$8
  7
DEYP
 72
     1
 11
265.3798369713738
 21
130.8388986792988
 31
-0.00000044122814
100
AcDbText
 73
     2
  0
CIRCLE
  5
B5
330
2
100
AcDbEntity
  8
0
  6
RAYITAS
 62
     9
100
AcDbCircle
 10
397.8138884138353
 20
68.02002297649119
 30
-0.000000386374274
 40
6.054719480391213
  0
TEXT
  5
B6
330
2
100
AcDbEntity
  8
KR-TEXTOS
  6
CONTINUOUS
100
AcDbText
 10
144.3065304484211
 20
-20.760363312884
 30
-0.0000003643374698
 40
2.5
  1
$3
  7
DEYP
 72
     1
 11
146.6874828293734
 21
-19.51036331288401
 31
-0.0000003643374698
100
AcDbText
 73
     2
  0
LINE
  5
B7
330
2
100
AcDbEntity
  8
0
100
AcDbLine
 10
399.8138884138358
 20
-16.75086762144883
 30
-0.0000003927045342
 11
293.8138884138357
 21
-16.75086762144906
 31
-0.0000003860480595
  0
LINE
  5
B8
330
2
100
AcDbEntity
  8
0
100
AcDbLine
 10
282.0596097217405
 20
-49.7934637425335
 30
-0.0000003927045342
 11
282.0596097217403
 21
-31.0632742675682
 31
-0.0000003860480595
  0
LINE
  5
B9
330
2
100
AcDbEntity
  8
0
100
AcDbLine
 10
287.0596097217405
 20
-31.06327426756815
 30
-0.000000386374274
 11
282.0596097217405
 21
-31.06327426756815
 31
-0.000000386374274
  0
LINE
  5
BA
330
2
100
AcDbEntity
  8
0
100
AcDbLine
 10
293.8138884138357
 20
-11.75086762144883
 30
-0.000000386374274
 11
293.8138884138357
 21
-16.75086762144883
 31
-0.000000386374274
  0
TEXT
  5
BB
330
2
100
AcDbEntity
  8
KR-TEXTOS
100
AcDbText
 10
107.018422373103
 20
-73.84413252732179
 30
-0.0000001280805562
 40
2.0
  1
PUNTOS DE UNIÓN DE ARRIOSTRAMIENTOS SALVO CARÁCTER ARRIOSTRANTE DE LOS PANELES DE CUBIERTA CON CONDICIONES DE UNION APROPÌADAS
  7
ROMANS
 11
107.018422373103
 21
-72.84413252732178
 31
-0.0000001280805562
100
AcDbText
 73
     2
  0
TEXT
  5
BC
330
2
100
AcDbEntity
  8
KR-TEXTOS
100
AcDbText
 10
107.018422373103
 20
-68.60603728922661
 30
-0.0000001280805562
 40
2.0
  1
VIGA O SOPORTE CUYA SECCIÓN METÁLICA ES CONTINUA SIN INTERRUPCIONES, YA SEA ENTERIZA O CON UNIONES SOLDADAS EN TALLER, A TOPE (PENETRACIÓN COMPLETA)
  7
ROMANS
 11
107.018422373103
 21
-67.6060372892266
 31
-0.0000001280805562
100
AcDbText
 73
     2
  0
TEXT
  5
BD
330
2
100
AcDbEntity
  8
KR-TEXTOS
100
AcDbText
 10
107.018422373103
 20
-63.36794205113142
 30
-0.0000001280805562
 40
2.0
  1
VIGA CON PERFIL INTERRUMPIDO PERO CON UNIONES EN CONTINUIDAD DEFINIDAS EN DETALLES APARTE
  7
ROMANS
 11
107.018422373103
 21
-62.36794205113142
 31
-0.0000001280805562
100
AcDbText
 73
     2
  0
TEXT
  5
BE
330
2
100
AcDbEntity
  8
KR-TEXTOS
100
AcDbText
 10
107.018422373103
 20
-58.12984681303624
 30
-0.0000001280805562
 40
2.0
  1
VIGA MIXTA CON CONECTADORES DEFINIDOS EN CUADROS APARTE
  7
ROMANS
 11
107.018422373103
 21
-57.12984681303623
 31
-0.0000001280805562
100
AcDbText
 73
     2
  0
TEXT
  5
BF
330
2
100
AcDbEntity
  8
KR-TEXTOS
100
AcDbText
 10
107.018422373103
 20
-52.89175157494105
 30
-0.0000001280805562
 40
2.0
  1
VIGA TRANSVERSAL AL PÓRTICO
  7
ROMANS
 11
107.018422373103
 21
-51.89175157494105
 31
-0.0000001280805562
100
AcDbText
 73
     2
  0
TEXT
  5
C0
330
2
100
AcDbEntity
  8
KR-TEXTOS
100
AcDbText
 10
101.6178127160892
 20
-58.12984681303624
 30
-0.0000001280805562
 40
2.0
  1
:
  7
ROMANS
 11
101.6178127160892
 21
-57.12984681303623
 31
-0.0000001280805562
100
AcDbText
 73
     2
  0
TEXT
  5
C1
330
2
100
AcDbEntity
  8
KR-TEXTOS
100
AcDbText
 10
101.6178127160892
 20
-63.36794205113142
 30
-0.0000001280805562
 40
2.0
  1
:
  7
ROMANS
 11
101.6178127160892
 21
-62.36794205113142
 31
-0.0000001280805562
100
AcDbText
 73
     2
  0
TEXT
  5
C2
330
2
100
AcDbEntity
  8
KR-TEXTOS
100
AcDbText
 10
101.6178127160892
 20
-68.60603728922661
 30
-0.0000001280805562
 40
2.0
  1
:
  7
ROMANS
 11
101.6178127160892
 21
-67.6060372892266
 31
-0.0000001280805562
100
AcDbText
 73
     2
  0
TEXT
  5
C3
330
2
100
AcDbEntity
  8
KR-TEXTOS
100
AcDbText
 10
101.6178127160892
 20
-73.84413252732179
 30
-0.0000001280805562
 40
2.0
  1
:
  7
ROMANS
 11
101.6178127160892
 21
-72.84413252732178
 31
-0.0000001280805562
100
AcDbText
 73
     2
  0
TEXT
  5
C4
330
2
100
AcDbEntity
  8
KR-TEXTOS
100
AcDbText
 10
107.018422373103
 20
-47.65365633684587
 30
-0.0000001280805562
 40
2.0
  1
VIGA DE BORDE
  7
ROMANS
 11
107.018422373103
 21
-46.65365633684587
 31
-0.0000001280805562
100
AcDbText
 73
     2
  0
TEXT
  5
C5
330
2
100
AcDbEntity
  8
KR-TEXTOS
100
AcDbText
 10
101.6178127160892
 20
-47.65365633684587
 30
-0.0000001280805562
 40
2.0
  1
:
  7
ROMANS
 11
101.6178127160892
 21
-46.65365633684587
 31
-0.0000001280805562
100
AcDbText
 73
     2
  0
TEXT
  5
C6
330
2
100
AcDbEntity
  8
KR-TEXTOS
100
AcDbText
 10
101.6178127160892
 20
-52.89175157494105
 30
-0.0000001280805562
 40
2.0
  1
:
  7
ROMANS
 11
101.6178127160892
 21
-51.89175157494105
 31
-0.0000001280805562
100
AcDbText
 73
     2
  0
TEXT
  5
C7
330
2
100
AcDbEntity
  8
KR-TEXTOS
  6
CONTINUOUS
100
AcDbText
 10
321.9567455566928
 20
-27.25016336449607
 30
-0.0000002464694888
 40
2.0
  1
MODIFICACION DE ARQUITECTURA
  7
DEYP
 72
     1
 11
346.8138884138356
 21
-26.25016336449607
 31
-0.0000002464694888
100
AcDbText
 73
     2
  0
TEXT
  5
C8
330
2
100
AcDbEntity
  8
KR-TEXTOS
  6
CONTINUOUS
100
AcDbText
 10
273.9390473027497
 20
-41.67836900505085
 30
-0.0000002464694888
 40
2.5
  1
@
  7
DEYP
 72
     1
 11
275.5461901598926
 21
-40.42836900505085
 31
-0.0000002464694888
100
AcDbText
 73
     2
  0
TEXT
  5
C9
330
2
100
AcDbEntity
  8
KR-TEXTOS
  6
CONTINUOUS
100
AcDbText
 10
277.6982603064341
 20
-41.42836900505085
 30
-0.0000002464694888
 40
2.0
  1
1
  7
DEYP
 72
     1
 11
278.507784115958
 21
-40.42836900505085
 31
-0.0000002464694888
100
AcDbText
 73
     2
  0
TEXT
  5
CA
330
2
100
AcDbEntity
  8
KR-TEXTOS
  6
CONTINUOUS
100
AcDbText
 10
331.0043646043118
 20
-23.70317790877402
 30
-0.0000002464694888
 40
2.0
  1
ZONA PENDIENTE DE
  7
DEYP
 72
     1
 11
346.8138884138356
 21
-22.70317790877402
 31
-0.0000002464694888
100
AcDbText
 73
     2
  0
TEXT
  5
CB
330
2
100
AcDbEntity
  8
KR-TEXTOS
  6
CONTINUOUS
100
AcDbText
 10
343.6234122233595
 20
-20.13072946913757
 30
-0.0000002464694888
 40
2.0
  1
@50
  7
DEYP
 72
     1
 11
346.8138884138356
 21
-19.13072946913757
 31
-0.0000002464694888
100
AcDbText
 73
     2
  0
TEXT
  5
CC
330
2
100
AcDbEntity
  8
KR-TEXTOS
100
AcDbText
 10
286.8652442491772
 20
-42.27392389623742
 30
-0.0000001280805562
 40
2.0
  1
ALTILLOS Y CRUJÍA LATERAL SEGÚN VERSIÓN
  7
ROMANS
 11
286.8652442491772
 21
-41.27392389623742
 31
-0.0000001280805562
100
AcDbText
 73
     2
  0
TEXT
  5
CD
330
2
100
AcDbEntity
  8
KR-TEXTOS
100
AcDbText
 10
286.8652442491772
 20
-45.82090935195947
 30
-0.0000001280805562
 40
2.0
  1
ANTERIOR DE PLANOS DE ARQUITECTURA
  7
ROMANS
 11
286.8652442491772
 21
-44.82090935195947
 31
-0.0000001280805562
100
AcDbText
 73
     2
  0
LINE
  5
CE
330
2
100
AcDbEntity
  8
0
100
AcDbLine
 10
287.059609721741
 20
-49.7934637425335
 30
-0.0000001695788186
 11
282.059609721741
 21
-49.7934637425335
 31
-0.0000001695788186
  0
LINE
  5
CF
330
2
100
AcDbEntity
  8
0
 62
     7
100
AcDbLine
 10
287.2044713049779
 20
-36.98997599700851
 30
-0.0000001280805562
 11
295.5903173668687
 21
-36.98997599700851
 31
-0.0000001280805562
  0
TEXT
  5
D0
330
2
100
AcDbEntity
  8
KR-TEXTOS
  6
CONTINUOUS
100
AcDbText
 10
286.8652442491772
 20
-36.03582865814223
 30
-0.0000001280805562
 40
2.0
  1
NOTA:
  7
DEYP
100
AcDbText
  0
LINE
  5
D1
330
2
100
AcDbEntity
  8
0
100
AcDbLine
 10
399.8138884138358
 20
-11.75086762144837
 30
-0.0000001695788186
 11
399.8138884138358
 21
-16.75086762144838
 31
-0.0000001695788186
  0
LINE
  5
D2
330
2
100
AcDbEntity
  8
0
100
AcDbLine
 10
96.49700770171376
 20
72.45553596609994
 30
-0.0000002484458522
 11
99.58291034680474
 21
86.51893406543701
 31
-0.0000002547121814
  0
TEXT
  5
D3
330
2
100
AcDbEntity
  8
KR-TEXTOS
  6
CONTINUOUS
100
AcDbText
 10
241.0257446652262
 20
21.97024805784804
 30
-0.0000002540108044
 40
2.0
  1
EN EL MURO
  7
DEYP
100
AcDbText
  0
TEXT
  5
D4
330
2
100
AcDbEntity
  8
KR-TEXTOS
  6
CONTINUOUS
100
AcDbText
 10
241.0257446652262
 20
25.87854273558059
 30
-0.0000002540108044
 40
2.0
  1
FUSTE MACLADO
  7
DEYP
100
AcDbText
  0
LINE
  5
D5
330
2
100
AcDbEntity
  8
0
 62
     7
100
AcDbLine
 10
240.9394982335593
 20
24.92439539671432
 30
-0.0000002540108044
 11
293.2561200684367
 21
24.92439539671432
 31
-0.0000002540108044
  0
LWPOLYLINE
  5
D6
330
2
100
AcDbEntity
  8
0
 62
     5
100
AcDbPolyline
 90
        2
 70
     0
 43
1.0
 38
-0.0000003576921113
 10
108.54223271312
 20
-0.0000000000079581
 10
108.54223271312
 20
68.02002297648255
  0
TEXT
  5
D7
330
2
100
AcDbEntity
  8
KR-TEXTOS
  6
CONTINUOUS
100
AcDbText
 10
100.771285868469
 20
83.5647867265707
 30
-0.0000002547121814
 40
2.0
  1
HEA 600 A52 (DETALLE 1)
  7
DEYP
100
AcDbText
  0
TEXT
  5
D8
330
2
100
AcDbEntity
  8
KR-TEXTOS
  6
CONTINUOUS
100
AcDbText
 10
100.771285868469
 20
87.47308140430325
 30
-0.0000002547121814
 40
2.0
  1
PERFIL DE FORJADO MIXT. CONT.
  7
DEYP
100
AcDbText
  0
LINE
  5
D9
330
2
100
AcDbEntity
  8
0
 62
     7
100
AcDbLine
 10
151.4042027314919
 20
86.51893406543697
 30
-0.0000002547121814
 11
99.58291034680474
 21
86.51893406543697
 31
-0.0000002547121814
  0
LINE
  5
DA
330
2
100
AcDbEntity
  8
0
 62
     5
100
AcDbLine
 10
397.8138884138353
 20
72.02002297649119
 30
-0.000000386374274
 11
397.8138884138353
 21
64.02002297649119
 31
-0.000000386374274
  0
LINE
  5
DB
330
2
100
AcDbEntity
  8
0
  6
TRAZOS
100
AcDbLine
 10
399.8138884138358
 20
68.02002297649119
 30
-0.000000386374274
 11
399.8138884138358
 21
-0.0000000000161435
 31
-0.000000386374274
  0
LINE
  5
DC
330
2
100
AcDbEntity
  8
9
100
AcDbLine
 10
293.2561200684367
 20
24.92439539671432
 30
-0.0000002540108044
 11
292.1954598966572
 21
25.98505556849431
 31
-0.0000002540108044
  0
LINE
  5
DD
330
2
100
AcDbEntity
  8
0
100
AcDbLine
 10
293.2561200684371
 20
24.92439539671386
 30
-0.0000002540108044
 11
292.1954598966576
 21
23.86373522493386
 31
-0.0000002540108044
  0
LINE
  5
DE
330
2
100
AcDbEntity
  8
0
 62
     5
100
AcDbLine
 10
397.8138884138358
 20
110.0275216257048
 30
-0.000000386374274
 11
397.8138884138353
 21
102.0275216257048
 31
-0.000000386374274
  0
TEXT
  5
DF
330
2
100
AcDbEntity
  8
KR-TEXTOS
  6
CONTINUOUS
100
AcDbText
 10
238.860218068065
 20
85.30397381729585
 30
-0.0000001923813101
 40
2.0
  1
V. TRANSV. MIX. CONT.
  7
DEYP
100
AcDbText
  0
LINE
  5
E0
330
2
100
AcDbEntity
  8
0
 62
     7
100
AcDbLine
 10
239.1994451238656
 20
84.34982647842957
 30
-0.0000001923813101
 11
275.8790027432419
 21
84.34982647842957
 31
-0.0000001923813101
  0
TEXT
  5
E1
330
2
100
AcDbEntity
  8
KR-TEXTOS
  6
CONTINUOUS
100
AcDbText
 10
238.860218068065
 20
81.3956791395633
 30
-0.0000001923813101
 40
2.0
  1
HEA 800 A52d
  7
DEYP
100
AcDbText
  0
LINE
  5
E2
330
2
100
AcDbEntity
  8
0
100
AcDbLine
 10
158.962881084737
 20
68.02002297648602
 30
-0.0000002464694888
 11
170.5317885199883
 21
44.85440095805256
 31
-0.0000001821687349
  0
TEXT
  5
E3
330
2
100
AcDbEntity
  8
KR-TEXTOS
  6
CONTINUOUS
100
AcDbText
 10
171.7201640416526
 20
45.80854829691884
 30
-0.0000001821687349
 40
2.0
  1
CONTRAFLECHA DE EJECUCION = L/1000
  7
DEYP
100
AcDbText
  0
LINE
  5
E4
330
2
100
AcDbEntity
  8
0
 62
     7
100
AcDbLine
 10
235.6748508728705
 20
44.85440095805256
 30
-0.0000001821687349
 11
170.5317885199883
 21
44.85440095805256
 31
-0.0000001821687349
  0
LINE
  5
E5
330
2
100
AcDbEntity
  8
0
 62
     5
100
AcDbLine
 10
103.54223271312
 20
-0.0000000000077307
 30
-0.0000002301992288
 11
113.54223271312
 21
-0.0000000000084128
 31
-0.0000002300520235
  0
TEXT
  5
E6
330
2
100
AcDbEntity
  8
KR-TEXTOS
  6
CONTINUOUS
100
AcDbText
 10
114.3272058687301
 20
49.72370485197302
 30
-0.0000002464694888
 40
2.0
  1
2.0
  7
DEYP
 72
     1
 11
116.7081582496825
 21
50.72370485197303
 31
-0.0000002464694888
100
AcDbText
 73
     2
  0
TEXT
  5
E7
330
2
100
AcDbEntity
  8
KR-TEXTOS
  6
CONTINUOUS
100
AcDbText
 10
98.21749599392971
 20
49.72370485197302
 30
-0.0000002464694888
 40
2.0
  1
2.0
  7
DEYP
 72
     1
 11
100.598448374882
 21
50.72370485197303
 31
-0.0000002464694888
100
AcDbText
 73
     2
  0
LINE
  5
E8
330
2
100
AcDbEntity
  8
0
 62
     5
100
AcDbLine
 10
105.54223271312
 20
63.02002297648255
 30
-0.0000002465136504
 11
111.54223271312
 21
63.02002297648209
 31
-0.0000002464253272
  0
LINE
  5
E9
330
2
100
AcDbEntity
  8
9
100
AcDbLine
 10
121.3033267941163
 20
67.5200229764821
 30
-0.0000002464694888
 11
120.2426666223364
 21
66.45936280470255
 31
-0.0000002464694888
  0
LINE
  5
EA
330
2
100
AcDbEntity
  8
7
100
AcDbLine
 10
122.8033267941164
 20
67.52002297648255
 30
-0.0000002464694888
 11
119.8033267941164
 21
67.52002297648255
 31
-0.0000002464694888
  0
LINE
  5
EB
330
2
100
AcDbEntity
  8
7
100
AcDbLine
 10
122.8033267941164
 20
67.52002297648255
 30
-0.0000002464694888
 11
119.8033267941164
 21
67.52002297648255
 31
-0.0000002464694888
  0
LINE
  5
EC
330
2
100
AcDbEntity
  8
0
100
AcDbLine
 10
121.3033267941168
 20
67.52002297648255
 30
-0.0000002464694888
 11
122.3639869658968
 21
66.45936280470255
 31
-0.0000002464694888
  0
TEXT
  5
ED
330
2
100
AcDbEntity
  8
KR-TEXTOS
  6
CONTINUOUS
100
AcDbText
 10
225.9179702463683
 20
63.6731222173496
 30
-0.0000002464694888
 40
2.0
  1
600.25
  7
DEYP
 72
     1
 11
231.2036845320826
 21
64.6731222173496
 31
-0.0000002464694888
100
AcDbText
 73
     2
  0
TEXT
  5
EE
330
2
100
AcDbEntity
  8
KR-TEXTOS
  6
CONTINUOUS
100
AcDbText
 10
224.9055155713798
 20
58.85303648506511
 30
-0.0000002464694888
 40
2.0
  1
20.1000
  7
DEYP
 72
     1
 11
231.0959917618561
 21
59.8530364850651
 31
-0.0000002464694888
100
AcDbText
 73
     2
  0
TEXT
  5
EF
330
2
100
AcDbEntity
  8
KR-TEXTOS
  6
CONTINUOUS
100
AcDbText
 10
225.9179702463683
 20
54.03295075278106
 30
-0.0000002464694888
 40
2.0
  1
600.40
  7
DEYP
 72
     1
 11
231.2036845320826
 21
55.03295075278106
 31
-0.0000002464694888
100
AcDbText
 73
     2
  0
INSERT
  5
F0
330
2
100
AcDbEntity
  8
KR-TEXTOS
  6
CONTINUOUS
100
AcDbBlockReference
  2
SIM10
 10
224.5119001825733
 20
64.6731222173496
 30
-0.0000002464694888
 41
2.0
 42
2.0
 43
2.0
  0
INSERT
  5
F1
330
2
100
AcDbEntity
  8
KR-TEXTOS
  6
CONTINUOUS
100
AcDbBlockReference
  2
SIM10
 10
224.5119001825733
 20
55.03295075278106
 30
-0.0000002464694888
 41
2.0
 42
2.0
 43
2.0
  0
INSERT
  5
F2
330
2
100
AcDbEntity
  8
KR-TEXTOS
  6
CONTINUOUS
100
AcDbBlockReference
  2
SIM10
 10
223.591332774697
 20
59.8530364850651
 30
-0.0000002464694888
 41
2.0
 42
2.0
 43
2.0
  0
LINE
  5
F3
330
2
100
AcDbEntity
  8
9
100
AcDbLine
 10
121.3033267941163
 20
-0.000000000007276
 30
-0.0000001108861715
 11
120.2426666223364
 21
1.060660171772269
 31
-0.0000001108861715
  0
LINE
  5
F4
330
2
100
AcDbEntity
  8
7
100
AcDbLine
 10
122.8033267941164
 20
-0.0000000000077307
 30
-0.0000001108861715
 11
119.8033267941164
 21
-0.0000000000077307
 31
-0.0000001108861715
  0
LINE
  5
F5
330
2
100
AcDbEntity
  8
7
100
AcDbLine
 10
122.8033267941164
 20
-0.0000000000077307
 30
-0.0000001108861715
 11
119.8033267941164
 21
-0.0000000000077307
 31
-0.0000001108861715
  0
LINE
  5
F6
330
2
100
AcDbEntity
  8
0
100
AcDbLine
 10
121.3033267941168
 20
-0.0000000000077307
 30
-0.0000001108861715
 11
122.3639869658968
 21
1.060660171772042
 31
-0.0000001108861715
  0
LINE
  5
F7
330
2
100
AcDbEntity
  8
7
100
AcDbLine
 10
128.3675890265681
 20
47.19543399176768
 30
-0.0000001459739989
 11
128.3675890265681
 21
50.19543399176768
 31
-0.0000001459739989
  0
LINE
  5
F8
330
2
100
AcDbEntity
  8
7
100
AcDbLine
 10
128.3675890265681
 20
47.19543399176768
 30
-0.0000001459739989
 11
128.3675890265681
 21
50.19543399176768
 31
-0.0000001459739989
  0
LINE
  5
F9
330
2
100
AcDbEntity
  8
9
100
AcDbLine
 10
128.3675890265676
 20
48.69543399176769
 30
-0.0000001459739989
 11
127.3069288547881
 21
49.75609416354768
 31
-0.0000001459739989
  0
LINE
  5
FA
330
2
100
AcDbEntity
  8
0
100
AcDbLine
 10
128.3675890265681
 20
48.69543399176723
 30
-0.0000001459739989
 11
127.3069288547881
 21
47.63477381998723
 31
-0.0000001459739989
  0
LINE
  5
FB
330
2
100
AcDbEntity
  8
0
100
AcDbLine
 10
128.54223271312
 20
64.6731222173496
 30
-0.0000001459739989
 11
129.6028928848995
 21
63.6124620455696
 31
-0.0000001459739989
  0
LINE
  5
FC
330
2
100
AcDbEntity
  8
9
100
AcDbLine
 10
128.5422327131204
 20
64.67312221735006
 30
-0.0000001459739989
 11
129.6028928849
 21
65.73378238913005
 31
-0.0000001459739989
  0
LINE
  5
FD
330
2
100
AcDbEntity
  8
7
100
AcDbLine
 10
128.54223271312
 20
63.17312221735005
 30
-0.0000001459739989
 11
128.54223271312
 21
66.17312221735005
 31
-0.0000001459739989
  0
LINE
  5
FE
330
2
100
AcDbEntity
  8
7
100
AcDbLine
 10
128.54223271312
 20
63.17312221735005
 30
-0.0000001459739989
 11
128.54223271312
 21
66.17312221735005
 31
-0.0000001459739989
  0
LINE
  5
FF
330
2
100
AcDbEntity
  8
9
100
AcDbLine
 10
128.5422327131195
 20
64.67312221735006
 30
-0.0000001459739989
 11
127.48157254134
 21
65.73378238913005
 31
-0.0000001459739989
  0
LINE
  5
100
330
2
100
AcDbEntity
  8
0
100
AcDbLine
 10
128.54223271312
 20
64.6731222173496
 30
-0.0000001459739989
 11
127.48157254134
 21
63.6124620455696
 31
-0.0000001459739989
  0
TEXT
  5
101
330
2
100
AcDbEntity
  8
KR-TEXTOS
  6
CONTINUOUS
100
AcDbText
 10
163.0681647783858
 20
120.09676991026
 30
-0.0000001837569496
 40
2.0
  1
HEB 180 A52d
 50
36.75973686874749
  7
DEYP
 72
     1
 11
171.6638783688015
 21
127.7659716755904
 31
-0.0000001837569496
100
AcDbText
 73
     2
  0
TEXT
  5
102
330
2
100
AcDbEntity
  8
KR-TEXTOS
  6
CONTINUOUS
100
AcDbText
 10
114.8117061116795
 20
95.37334460073271
 30
-0.0000001821687349
 40
2.0
  1
CONTRAFLECHA DE EJECUCION = L/1000
  7
DEYP
 72
     1
 11
146.9069442069176
 21
96.37334460073271
 31
-0.0000001821687349
100
AcDbText
 73
     2
  0
TEXT
  5
103
330
2
100
AcDbEntity
  8
KR-TEXTOS
  6
CONTINUOUS
100
AcDbText
 10
121.248295841229
 20
72.10107318173618
 30
-0.0000001821687349
 40
2.0
  1
600.40
  7
DEYP
100
AcDbText
  0
LINE
  5
104
330
2
100
AcDbEntity
  8
0
 62
     7
100
AcDbLine
 10
131.5447188389948
 20
71.14692584286991
 30
-0.0000001821687349
 11
118.1803206117006
 21
71.14692584286991
 31
-0.0000001821687349
  0
TEXT
  5
105
330
2
100
AcDbEntity
  8
KR-TEXTOS
  6
CONTINUOUS
100
AcDbText
 10
135.5736108735843
 20
99.06932212395123
 30
-0.0000001821687349
 40
2.0
  1
HEA 800 A52d
  7
DEYP
 72
     1
 11
146.9069442069176
 21
100.0693221239512
 31
-0.0000001821687349
100
AcDbText
 73
     2
  0
TEXT
  5
106
330
2
100
AcDbEntity
  8
KR-TEXTOS
  6
CONTINUOUS
100
AcDbText
 10
112.9675473987127
 20
133.3768990969145
 30
-0.0000001837569496
 40
2.0
  1
HEB 180 A52d
 50
323.2402631312524
  7
DEYP
 72
     1
 11
122.7601825038054
 21
127.3100015747611
 31
-0.0000001837569496
100
AcDbText
 73
     2
  0
TEXT
  5
107
330
2
100
AcDbEntity
  8
KR-TEXTOS
  6
CONTINUOUS
100
AcDbText
 10
145.8339309870325
 20
113.8838259757277
 30
-0.0000001832368496
 40
2.0
  1
HEB 200 A52d
 50
90.0
  7
DEYP
 72
     1
 11
144.8339309870325
 21
125.3600164519182
 31
-0.0000001832368496
100
AcDbText
 73
     2
  0
CIRCLE
  5
108
330
2
100
AcDbEntity
  8
0
  6
RAYITAS
 62
     9
100
AcDbCircle
 10
224.3953521129629
 20
106.6850126289273
 30
-0.000000221958007
 40
4.54103961029341
  0
TEXT
  5
109
330
2
100
AcDbEntity
  8
KR-TEXTOS
  6
CONTINUOUS
100
AcDbText
 10
205.2222052646619
 20
69.83625216857922
 30
-0.0000002464694888
 40
2.0
  1
V. MIX. SIN INT. A52d
  7
DEYP
 72
     1
 11
222.0793481218047
 21
70.83625216857922
 31
-0.0000002464694888
100
AcDbText
 73
     2
  0
TEXT
  5
10A
330
2
100
AcDbEntity
  8
KR-TEXTOS
  6
CONTINUOUS
100
AcDbText
 10
181.1168914963188
 20
88.75025226535148
 30
-0.0000001821687349
 40
2.0
  1
PERFIL DE FORJADO MIXT.
  7
DEYP
100
AcDbText
  0
LINE
  5
10B
330
2
100
AcDbEntity
  8
0
 62
     7
100
AcDbLine
 10
221.9138007380415
 20
87.79610492648521
 30
-0.0000001821687349
 11
181.1721485454581
 21
87.79610492648521
 31
-0.0000001821687349
  0
TEXT
  5
10C
330
2
100
AcDbEntity
  8
KR-TEXTOS
  6
CONTINUOUS
100
AcDbText
 10
181.1168914963188
 20
84.84195758761893
 30
-0.0000001821687349
 40
2.0
  1
HEA 800 A52
  7
DEYP
100
AcDbText
  0
LINE
  5
10D
330
2
100
AcDbEntity
  8
0
100
AcDbLine
 10
221.9138007380415
 20
87.79610492648521
 30
-0.0000001821687349
 11
223.8038506817245
 21
102.1826613766263
 31
-0.0000002124738546
  0
TEXT
  5
10E
330
2
100
AcDbEntity
  8
KR-TEXTOS
  6
CONTINUOUS
100
AcDbText
 10
195.833930987037
 20
113.5952049547235
 30
-0.0000001835473883
 40
2.0
  1
HEB 240 A52d
 50
90.0
  7
DEYP
 72
     1
 11
194.833930987037
 21
125.0713954309139
 31
-0.0000001835473883
100
AcDbText
 73
     2
  0
TEXT
  5
10F
330
2
100
AcDbEntity
  8
KR-TEXTOS
  6
CONTINUOUS
100
AcDbText
 10
245.8339311368081
 20
113.5952049547189
 30
-0.0000001835473389
 40
2.0
  1
HEB 280 A52d
 50
90.0
  7
DEYP
 72
     1
 11
244.8339311368081
 21
125.0713954309094
 31
-0.0000001835473389
100
AcDbText
 73
     2
  0
TEXT
  5
110
330
2
100
AcDbEntity
  8
KR-TEXTOS
  6
CONTINUOUS
100
AcDbText
 10
213.0682220678045
 20
120.09676991026
 30
-0.0000001837569374
 40
2.0
  1
HEB 260 A52d
 50
36.75973686874749
  7
DEYP
 72
     1
 11
221.6639356582202
 21
127.7659716755904
 31
-0.0000001837569374
100
AcDbText
 73
     2
  0
INSERT
  5
111
330
2
100
AcDbEntity
  8
KR-TEXTOS
  6
CONTINUOUS
100
AcDbBlockReference
  2
SIM10
 10
120.133346993384
 20
73.05333092536145
 30
-0.0000001096252884
 41
2.0
 42
2.0
 43
2.0
  0
LWPOLYLINE
  5
112
330
2
100
AcDbEntity
  8
0
  6
TRAZOS
 62
     5
100
AcDbPolyline
 90
        2
 70
     0
 43
1.0
 38
-0.0000002464694888
 10
397.8138884138353
 20
68.02002297649119
 10
293.8138884138357
 20
68.02002297648894
  0
LINE
  5
113
330
2
100
AcDbEntity
  8
0
 62
     5
100
AcDbLine
 10
288.8138884138356
 20
-0.0000000000159162
 30
-0.0000002280367234
 11
298.8138884138356
 21
-0.0000000000165983
 31
-0.0000002278895181
  0
TEXT
  5
114
330
2
100
AcDbEntity
  8
KR-TEXTOS
  6
CONTINUOUS
100
AcDbText
 10
283.3427389437273
 20
49.72370485197302
 30
-0.0000002464694888
 40
2.0
  1
2.0
  7
DEYP
 72
     1
 11
285.7236913246797
 21
50.72370485197303
 31
-0.0000002464694888
100
AcDbText
 73
     2
  0
LINE
  5
115
330
2
100
AcDbEntity
  8
9
100
AcDbLine
 10
282.0596097217403
 20
67.52002297646527
 30
-0.0000002421443926
 11
280.9989495499598
 21
66.45936280468572
 31
-0.0000002421443926
  0
LINE
  5
116
330
2
100
AcDbEntity
  8
0
100
AcDbLine
 10
282.0596097217407
 20
67.52002297646573
 30
-0.0000002421443926
 11
283.1202698935203
 21
66.45936280468617
 31
-0.0000002421443926
  0
LINE
  5
117
330
2
100
AcDbEntity
  8
7
100
AcDbLine
 10
283.5596097217403
 20
67.52002297646573
 30
-0.0000002421443926
 11
280.5596097217403
 21
67.52002297646573
 31
-0.0000002421443926
  0
LINE
  5
118
330
2
100
AcDbEntity
  8
7
100
AcDbLine
 10
283.5596097217403
 20
67.52002297646573
 30
-0.0000002421443926
 11
280.5596097217403
 21
67.52002297646573
 31
-0.0000002421443926
  0
LINE
  5
119
330
2
100
AcDbEntity
  8
0
 62
     5
100
AcDbLine
 10
290.8138884138352
 20
63.02002297647437
 30
-0.000000244351145
 11
296.8138884138352
 21
63.02002297647391
 31
-0.0000002442628218
  0
LINE
  5
11A
330
2
100
AcDbEntity
  8
9
100
AcDbLine
 10
282.0596097217403
 20
-0.0000000000238742
 30
-0.0000001065610753
 11
280.9989495499598
 21
1.060660171755671
 31
-0.0000001065610753
  0
LINE
  5
11B
330
2
100
AcDbEntity
  8
0
100
AcDbLine
 10
282.0596097217407
 20
-0.000000000024329
 30
-0.0000001065610753
 11
283.1202698935203
 21
1.060660171755444
 31
-0.0000001065610753
  0
LINE
  5
11C
330
2
100
AcDbEntity
  8
7
100
AcDbLine
 10
283.5596097217403
 20
-0.000000000024329
 30
-0.0000001065610753
 11
280.5596097217403
 21
-0.000000000024329
 31
-0.0000001065610753
  0
LINE
  5
11D
330
2
100
AcDbEntity
  8
7
100
AcDbLine
 10
283.5596097217403
 20
-0.000000000024329
 30
-0.0000001065610753
 11
280.5596097217403
 21
-0.000000000024329
 31
-0.0000001065610753
  0
LINE
  5
11E
330
2
100
AcDbEntity
  8
0
100
AcDbLine
 10
273.3138884138357
 20
64.6731222173496
 30
-0.0000001459739989
 11
272.2532282420556
 21
63.6124620455696
 31
-0.0000001459739989
  0
LINE
  5
11F
330
2
100
AcDbEntity
  8
9
100
AcDbLine
 10
273.3138884138352
 20
64.67312221735006
 30
-0.0000001459739989
 11
272.2532282420556
 21
65.73378238913005
 31
-0.0000001459739989
  0
LINE
  5
120
330
2
100
AcDbEntity
  8
7
100
AcDbLine
 10
273.3138884138357
 20
63.17312221735005
 30
-0.0000001459739989
 11
273.3138884138357
 21
66.17312221735005
 31
-0.0000001459739989
  0
LINE
  5
121
330
2
100
AcDbEntity
  8
7
100
AcDbLine
 10
273.3138884138357
 20
63.17312221735005
 30
-0.0000001459739989
 11
273.3138884138357
 21
66.17312221735005
 31
-0.0000001459739989
  0
LINE
  5
122
330
2
100
AcDbEntity
  8
9
100
AcDbLine
 10
273.3138884138361
 20
64.67312221735006
 30
-0.0000001459739989
 11
274.3745485856156
 21
65.73378238913005
 31
-0.0000001459739989
  0
LINE
  5
123
330
2
100
AcDbEntity
  8
0
100
AcDbLine
 10
273.3138884138357
 20
64.6731222173496
 30
-0.0000001459739989
 11
274.3745485856152
 21
63.6124620455696
 31
-0.0000001459739989
  0
LINE
  5
124
330
2
100
AcDbEntity
  8
7
100
AcDbLine
 10
293.3138884138356
 20
47.19543399176768
 30
-0.0000001459739989
 11
293.3138884138356
 21
50.19543399176768
 31
-0.0000001459739989
  0
LINE
  5
125
330
2
100
AcDbEntity
  8
7
100
AcDbLine
 10
293.3138884138356
 20
47.19543399176768
 30
-0.0000001459739989
 11
293.3138884138356
 21
50.19543399176768
 31
-0.0000001459739989
  0
LINE
  5
126
330
2
100
AcDbEntity
  8
9
100
AcDbLine
 10
293.3138884138352
 20
48.69543399176769
 30
-0.0000001459739989
 11
292.2532282420556
 21
49.75609416354768
 31
-0.0000001459739989
  0
LINE
  5
127
330
2
100
AcDbEntity
  8
0
100
AcDbLine
 10
293.3138884138356
 20
48.69543399176723
 30
-0.0000001459739989
 11
292.2532282420556
 21
47.63477381998723
 31
-0.0000001459739989
  0
LINE
  5
128
330
2
100
AcDbEntity
  8
7
100
AcDbLine
 10
273.3138884138357
 20
47.19543399176768
 30
-0.0000001108861715
 11
273.3138884138357
 21
50.19543399176768
 31
-0.0000001108861715
  0
LINE
  5
129
330
2
100
AcDbEntity
  8
7
100
AcDbLine
 10
273.3138884138357
 20
47.19543399176768
 30
-0.0000001108861715
 11
273.3138884138357
 21
50.19543399176768
 31
-0.0000001108861715
  0
LINE
  5
12A
330
2
100
AcDbEntity
  8
9
100
AcDbLine
 10
273.3138884138361
 20
48.69543399176769
 30
-0.0000001108861715
 11
274.3745485856156
 21
49.75609416354768
 31
-0.0000001108861715
  0
LINE
  5
12B
330
2
100
AcDbEntity
  8
0
100
AcDbLine
 10
273.3138884138357
 20
48.69543399176723
 30
-0.0000001108861715
 11
274.3745485856152
 21
47.63477381998723
 31
-0.0000001108861715
  0
LINE
  5
12C
330
2
100
AcDbEntity
  8
9
100
AcDbLine
 10
282.0596097217407
 20
99.2871420880656
 30
-0.0000001755888
 11
282.0596097217407
 21
109.4730814971073
 31
-0.0000001837850525
  0
TEXT
  5
12D
330
2
100
AcDbEntity
  8
KR-TEXTOS
  6
CONTINUOUS
100
AcDbText
 10
305.5944997426617
 20
95.9636960555124
 30
-0.0000001821687349
 40
2.0
  1
V. TRANSV. MIX.
  7
DEYP
100
AcDbText
  0
TEXT
  5
12E
330
2
100
AcDbEntity
  8
KR-TEXTOS
  6
CONTINUOUS
100
AcDbText
 10
305.5944997426617
 20
92.05540137777985
 30
-0.0000001821687349
 40
2.0
  1
HEB 800 A52d
  7
DEYP
100
AcDbText
  0
LINE
  5
12F
330
2
100
AcDbEntity
  8
0
 62
     7
100
AcDbLine
 10
304.1282605737665
 20
95.00954871664612
 30
-0.0000001821687349
 11
329.7744202472717
 21
95.00954871664612
 31
-0.0000001821687349
  0
LWPOLYLINE
  5
130
330
2
100
AcDbEntity
  8
0
  6
TRAZOS
 62
     5
100
AcDbPolyline
 90
        2
 70
     0
 43
1.0
 38
-0.0000002143191116
 10
293.8138884138357
 20
106.0275216256945
 10
397.8138884138358
 20
106.0275216257048
  0
CIRCLE
  5
131
330
2
100
AcDbEntity
  8
0
  6
RAYITAS
 62
     9
100
AcDbCircle
 10
293.8138884138393
 20
106.0275216256882
 30
-0.0000002143191116
 40
4.54103961029341
  0
LINE
  5
132
330
2
100
AcDbEntity
  8
0
100
AcDbLine
 10
292.0905094248246
 20
106.6850126289273
 30
-0.000000221958007
 11
275.8790027432419
 21
94.87366718053385
 31
-0.0000001923813101
  0
LINE
  5
133
330
2
100
AcDbEntity
  8
9
100
AcDbLine
 10
282.0596097217403
 20
68.52002297646618
 30
-0.0000002421443926
 11
280.9989495499598
 21
69.58068314824572
 31
-0.0000002421443926
  0
LINE
  5
134
330
2
100
AcDbEntity
  8
0
100
AcDbLine
 10
282.0596097217407
 20
68.52002297646572
 30
-0.0000002421443926
 11
283.1202698935203
 21
69.58068314824572
 31
-0.0000002421443926
  0
LINE
  5
135
330
2
100
AcDbEntity
  8
7
100
AcDbLine
 10
283.5596097217403
 20
68.52002297646572
 30
-0.0000002421443926
 11
280.5596097217403
 21
68.52002297646572
 31
-0.0000002421443926
  0
LINE
  5
136
330
2
100
AcDbEntity
  8
7
100
AcDbLine
 10
283.5596097217403
 20
68.52002297646572
 30
-0.0000002421443926
 11
280.5596097217403
 21
68.52002297646572
 31
-0.0000002421443926
  0
TEXT
  5
137
330
2
100
AcDbEntity
  8
KR-TEXTOS
  6
CONTINUOUS
100
AcDbText
 10
265.213370841667
 20
72.10107318173618
 30
-0.0000001821687349
 40
2.0
  1
600.40
  7
DEYP
100
AcDbText
  0
LINE
  5
138
330
2
100
AcDbEntity
  8
0
 62
     7
100
AcDbLine
 10
276.4320794848113
 20
71.14692584286991
 30
-0.0000001821687349
 11
263.067681257517
 21
71.14692584286991
 31
-0.0000001821687349
  0
TEXT
  5
139
330
2
100
AcDbEntity
  8
KR-TEXTOS
  6
CONTINUOUS
100
AcDbText
 10
283.0596097217408
 20
91.02045623387619
 30
-0.0000002040284003
 40
2.0
  1
A52d
 50
90.0
  7
DEYP
 72
     1
 11
282.0596097217407
 21
94.5442657576857
 31
-0.0000002040284003
100
AcDbText
 73
     2
  0
TEXT
  5
13A
330
2
100
AcDbEntity
  8
KR-TEXTOS
  6
CONTINUOUS
100
AcDbText
 10
257.9484910281021
 20
91.91951984166758
 30
-0.0000001923813101
 40
2.0
  1
ARTICULADA
  7
DEYP
100
AcDbText
  0
LINE
  5
13B
330
2
100
AcDbEntity
  8
0
 62
     7
100
AcDbLine
 10
258.2877180839027
 20
94.87366718053385
 30
-0.0000001923813101
 11
275.8790027432419
 21
94.87366718053385
 31
-0.0000001923813101
  0
TEXT
  5
13C
330
2
100
AcDbEntity
  8
KR-TEXTOS
  6
CONTINUOUS
100
AcDbText
 10
257.9484910281021
 20
95.82781451940013
 30
-0.0000001923813101
 40
2.0
  1
UNIÓN
  7
DEYP
100
AcDbText
  0
LINE
  5
13D
330
2
100
AcDbEntity
  8
0
100
AcDbLine
 10
304.1282605737665
 20
95.00954871664612
 30
-0.0000001821687349
 11
296.9172929212591
 21
102.7124166189681
 31
-0.0000002046456557
  0
LWPOLYLINE
  5
13E
330
2
100
AcDbEntity
  8
0
 62
     7
100
AcDbPolyline
 90
        2
 70
     1
 43
1.033596233139957
 38
-0.000000221958007
 10
292.6073075413942
 20
106.6850126289273
 42
1.0
 10
291.573711308255
 20
106.6850126289273
 42
1.0
  0
LWPOLYLINE
  5
13F
330
2
100
AcDbEntity
  8
0
 62
     7
100
AcDbPolyline
 90
        2
 70
     1
 43
0.3599999999999941
 38
-0.000000221958007
 10
292.2705094248244
 20
106.6850126289273
 42
1.0
 10
291.9105094248248
 20
106.6850126289273
 42
1.0
  0
LWPOLYLINE
  5
140
330
2
100
AcDbEntity
  8
9
100
AcDbPolyline
 90
        7
 70
     0
 43
0.0
 38
-0.0000001837850525
 10
288.9272931161321
 20
127.840617073404
 10
287.8666329443526
 20
128.9012772451837
 10
283.1202698935203
 20
128.9012772451837
 10
282.0596097217407
 20
129.9619374169635
 10
280.9989495499607
 20
128.9012772451837
 10
276.2831222016852
 20
128.9012772451837
 10
275.2224620299052
 20
127.840617073404
  0
TEXT
  5
141
330
2
100
AcDbEntity
  8
KR-TEXTOS
  6
CONTINUOUS
100
AcDbText
 10
287.8796954540248
 20
115.8656767418753
 30
-0.0000002040284003
 40
2.0
  1
600.60
 50
90.0
  7
DEYP
 72
     1
 11
286.8796954540248
 21
121.1513910275896
 31
-0.0000002040284003
100
AcDbText
 73
     2
  0
LWPOLYLINE
  5
142
330
2
100
AcDbEntity
  8
9
100
AcDbPolyline
 90
        7
 70
     0
 43
0.0
 38
-0.0000001837850525
 10
288.9272931161321
 20
111.5944018406671
 10
287.8666329443526
 20
110.5337416688873
 10
283.1202698935203
 20
110.5337416688873
 10
282.0596097217407
 20
109.4730814971073
 10
280.9989495499607
 20
110.5337416688873
 10
276.2831222016852
 20
110.5337416688873
 10
275.2224620299052
 20
111.5944018406671
  0
TEXT
  5
143
330
2
100
AcDbEntity
  8
KR-TEXTOS
  6
CONTINUOUS
100
AcDbText
 10
261.3102026962814
 20
119.5253121526499
 30
-0.0000001834346041
 40
2.0
  1
HEB 300 A52d
 50
38.52888901600521
  7
DEYP
 72
     1
 11
269.6650505620864
 21
127.456230446584
 31
-0.0000001834346041
100
AcDbText
 73
     2
  0
TEXT
  5
144
330
2
100
AcDbEntity
  8
KR-TEXTOS
  6
CONTINUOUS
100
AcDbText
 10
278.2395239894563
 20
115.8656767418753
 30
-0.0000002040284003
 40
2.0
  1
600.60
 50
90.0
  7
DEYP
 72
     1
 11
277.2395239894563
 21
121.1513910275896
 31
-0.0000002040284003
100
AcDbText
 73
     2
  0
TEXT
  5
145
330
2
100
AcDbEntity
  8
KR-TEXTOS
  6
CONTINUOUS
100
AcDbText
 10
283.0596097217408
 20
115.9132957894943
 30
-0.0000002040284003
 40
2.0
  1
30.880
 50
90.0
  7
DEYP
 72
     1
 11
282.0596097217407
 21
121.1513910275896
 31
-0.0000002040284003
100
AcDbText
 73
     2
  0
INSERT
  5
146
330
2
100
AcDbEntity
  8
KR-TEXTOS
  6
CONTINUOUS
100
AcDbBlockReference
  2
SIM10
 10
286.8796954540248
 20
114.4596066780802
 30
-0.0000002040284003
 41
2.0
 42
2.0
 43
2.0
 50
90.0
  0
INSERT
  5
147
330
2
100
AcDbEntity
  8
KR-TEXTOS
  6
CONTINUOUS
100
AcDbBlockReference
  2
SIM10
 10
277.2395239894563
 20
114.4596066780802
 30
-0.0000002040284003
 41
2.0
 42
2.0
 43
2.0
 50
90.0
  0
INSERT
  5
148
330
2
100
AcDbEntity
  8
KR-TEXTOS
  6
CONTINUOUS
100
AcDbBlockReference
  2
SIM10
 10
282.0596097217407
 20
114.4596066780802
 30
-0.0000002040284003
 41
2.0
 42
2.0
 43
2.0
 50
90.0
  0
INSERT
  5
149
330
2
100
AcDbEntity
  8
KR-TEXTOS
  6
CONTINUOUS
100
AcDbBlockReference
  2
SIM10
 10
264.098421993822
 20
73.05333092536145
 30
-0.0000001096252884
 41
2.0
 42
2.0
 43
2.0
  0
LINE
  5
14A
330
2
100
AcDbEntity
  8
0
  6
TRAZOS
100
AcDbLine
 10
449.524520593484
 20
68.89929742728464
 30
-0.000000386374274
 11
449.524520593484
 21
57.46957687318058
 31
-0.000000386374274
  0
CIRCLE
  5
14B
330
2
100
AcDbEntity
  8
0
  6
RAYITAS
 62
     9
100
AcDbCircle
 10
447.5245205934835
 20
63.18443715023272
 30
-0.000000386374274
 40
6.054719480391213
  0
LINE
  5
14C
330
2
100
AcDbEntity
  8
0
100
AcDbLine
 10
408.8686078942265
 20
68.02002297649119
 30
-0.000000386374274
 11
408.8686078942268
 21
51.01501723236856
 31
-0.0000003823315856
  0
TEXT
  5
14D
330
2
100
AcDbEntity
  8
KR-TEXTOS
  6
CONTINUOUS
100
AcDbText
 10
419.7389638516507
 20
0.9541473388496797
 30
-0.0000003448760116
 40
2.0
  1
CARA SUPERIOR DE ENCEPADOS
  7
DEYP
100
AcDbText
  0
LINE
  5
14E
330
2
100
AcDbEntity
  8
0
 62
     7
100
AcDbLine
 10
408.868607894226
 20
-0.0000000000165983
 30
-0.0000003448760116
 11
468.727575542579
 21
-0.0000000000165983
 31
-0.0000003448760116
  0
LINE
  5
14F
330
2
100
AcDbEntity
  8
0
 62
     5
100
AcDbLine
 10
447.5245205934835
 20
67.18443715023273
 30
-0.000000386374274
 11
447.5245205934835
 21
59.18443715023272
 31
-0.000000386374274
  0
LINE
  5
150
330
2
100
AcDbEntity
  8
0
 62
     7
100
AcDbLine
 10
408.868607894226
 20
51.01501723236856
 30
-0.0000003448760116
 11
476.866039340228
 21
51.01501723236856
 31
-0.0000003448760116
  0
TEXT
  5
151
330
2
100
AcDbEntity
  8
KR-TEXTOS
  6
CONTINUOUS
100
AcDbText
 10
419.7389638516507
 20
51.96916457123484
 30
-0.0000003448760116
 40
2.0
  1
APOYOS EN DILATACION EN SOPORTE
  7
DEYP
100
AcDbText
  0
TEXT
  5
152
330
2
100
AcDbEntity
  8
KR-TEXTOS
  6
CONTINUOUS
100
AcDbText
 10
419.7389638516507
 20
48.06086989350228
 30
-0.0000003448760116
 40
2.0
  1
DE HORMIGON ARMADO DE SOTANOS
  7
DEYP
100
AcDbText
  0
TEXT
  5
153
330
2
100
AcDbEntity
  8
KR-TEXTOS
  6
CONTINUOUS
100
AcDbText
 10
415.4309591746856
 20
103.0733742868385
 30
-0.0000003367906348
 40
2.0
  1
1%%D) TERMINACION DE P1
  7
DEYP
100
AcDbText
  0
LINE
  5
154
330
2
100
AcDbEntity
  8
0
100
AcDbLine
 10
403.8686078942265
 20
68.02002297649119
 30
-0.000000386374274
 11
408.8686078942265
 21
68.02002297649119
 31
-0.000000386374274
  0
TEXT
  5
155
330
2
100
AcDbEntity
  8
KR-TEXTOS
  6
CONTINUOUS
100
AcDbText
 10
415.4309591746856
 20
99.27132538379851
 30
-0.0000003367906348
 40
2.0
  1
2%%D) UNION DE TIRANTES
  7
DEYP
100
AcDbText
  0
LINE
  5
156
330
2
100
AcDbEntity
  8
0
 62
     7
100
AcDbLine
 10
411.7486113228202
 20
68.02002297649119
 30
-0.0000003448760116
 11
421.0814465614718
 21
68.02002297649119
 31
-0.0000003448760116
  0
TEXT
  5
157
330
2
100
AcDbEntity
  8
KR-TEXTOS
  6
CONTINUOUS
100
AcDbText
 10
415.4309591746856
 20
68.97417031535747
 30
-0.0000003448760116
 40
2.0
  1
P.B.
  7
DEYP
100
AcDbText
  0
LINE
  5
158
330
2
100
AcDbEntity
  8
0
100
AcDbLine
 10
403.8686078942269
 20
106.0275216257048
 30
-0.0000003782888973
 11
408.868607894227
 21
106.0275216257048
 31
-0.0000003782888973
  0
LINE
  5
159
330
2
100
AcDbEntity
  8
0
 62
     7
100
AcDbLine
 10
411.7486113228202
 20
106.0275216257048
 30
-0.0000003367906348
 11
454.5291534582844
 21
106.0275216257048
 31
-0.0000003367906348
  0
TEXT
  5
15A
330
2
100
AcDbEntity
  8
KR-TEXTOS
  6
CONTINUOUS
100
AcDbText
 10
415.4309591746856
 20
106.9816689645711
 30
-0.0000003367906348
 40
2.0
  1
M1 : APUNTALADA HASTA:
  7
DEYP
100
AcDbText
  0
LWPOLYLINE
  5
15B
330
2
100
AcDbEntity
  8
0
 62
     5
100
AcDbPolyline
 90
        2
 70
     0
 43
1.0
 38
-0.0000002464694888
 10
447.5245205934835
 20
63.18443715023272
 10
441.4698011130923
 20
63.18443715023272
  0
LINE
  5
15C
330
2
100
AcDbEntity
  8
9
100
AcDbLine
 10
70.88052905948143
 20
64.6731222173496
 30
-0.0000000168097115
 11
222.5842441609775
 21
64.6731222173496
 31
-0.0000000513405392
  0
LINE
  5
15D
330
2
100
AcDbEntity
  8
9
100
AcDbLine
 10
88.36758902656811
 20
48.69543399176723
 30
-0.0000000208298718
 11
128.3675890265681
 21
48.69543399176723
 31
-0.0000000299346792
  0
LINE
  5
15E
330
2
100
AcDbEntity
  8
9
100
AcDbLine
 10
0.5
 20
100.0693221239512
 30
0.0000000643007539
 11
134.7224527021003
 21
100.0693221239512
 31
0.0000000520357423
  0
LINE
  5
15F
330
2
100
AcDbEntity
  8
9
100
AcDbLine
 10
70.88052905948143
 20
55.03295075278106
 30
-0.0000000168097115
 11
222.5842441609775
 21
55.03295075278106
 31
-0.0000000513405392
  0
CIRCLE
  5
160
330
2
100
AcDbEntity
  8
0
  6
RAYITAS
 62
     9
100
AcDbCircle
 10
-77.73854828045933
 20
65.53581056477629
 30
0.0
 40
6.054719480391213
  0
LWPOLYLINE
  5
161
330
2
100
AcDbEntity
  8
0
 62
     5
100
AcDbPolyline
 90
        2
 70
     0
 43
1.0
 10
-77.73854828045933
 20
71.59053004516749
 10
-77.73854828045933
 20
59.48109108438507
  0
CIRCLE
  5
162
330
2
100
AcDbEntity
  8
0
  6
RAYITAS
 62
     9
100
AcDbCircle
 10
0.0
 20
65.53581056477629
 30
0.0
 40
6.054719480391213
  0
LINE
  5
163
330
2
100
AcDbEntity
  8
9
100
AcDbLine
 10
-11.75427869209534
 20
-0.0000000000075033
 30
-0.0000000302770653
 11
-11.75427869209534
 21
32.22123930444132
 31
-0.0000000828064927
  0
LWPOLYLINE
  5
164
330
2
100
AcDbEntity
  8
0
100
AcDbPolyline
 90
        2
 70
     1
 43
0.5
 38
-0.0000000709106426
 10
-12.00427869209534
 20
24.92439539673091
 42
1.0
 10
-11.50427869209533
 20
24.92439539673091
 42
1.0
  0
CIRCLE
  5
165
330
2
100
AcDbEntity
  8
0
100
AcDbCircle
 10
-11.75427869209534
 20
35.36736551403805
 30
-0.0000000879355384
 40
3.146126209596722
  0
TEXT
  5
166
330
2
100
AcDbEntity
  8
KR-TEXTOS
  6
CONTINUOUS
100
AcDbText
 10
-13.80189773971438
 20
34.36736551403805
 30
-0.0000000879355384
 40
2.0
  1
1A
  7
DEYP
 72
     1
 11
-11.75427869209534
 21
35.36736551403805
 31
-0.0000000879355384
100
AcDbText
 73
     2
  0
LINE
  5
167
330
2
100
AcDbEntity
  8
9
100
AcDbLine
 10
0.5
 20
64.6731222173496
 30
0.0
 11
56.22758018754075
 21
64.6731222173496
 31
-0.0000000133475962
  0
LINE
  5
168
330
2
100
AcDbEntity
  8
9
100
AcDbLine
 10
0.5
 20
55.03295075278106
 30
0.0
 11
56.22758018754075
 21
55.03295075278106
 31
-0.0000000133475962
  0
LINE
  5
169
330
2
100
AcDbEntity
  8
9
100
AcDbLine
 10
0.5000000000004548
 20
64.6731222173496
 30
0.0
 11
1.56066017178
 21
65.7337823891296
 31
0.0
  0
LINE
  5
16A
330
2
100
AcDbEntity
  8
0
100
AcDbLine
 10
0.5
 20
64.67312221734914
 30
0.0
 11
1.560660171779545
 21
63.61246204556914
 31
0.0
  0
LINE
  5
16B
330
2
100
AcDbEntity
  8
7
100
AcDbLine
 10
0.5
 20
63.1731222173496
 30
0.0
 11
0.5
 21
66.1731222173496
 31
0.0
  0
LINE
  5
16C
330
2
100
AcDbEntity
  8
7
100
AcDbLine
 10
0.5
 20
53.53295075278106
 30
0.0
 11
0.5
 21
56.53295075278106
 31
0.0
  0
LINE
  5
16D
330
2
100
AcDbEntity
  8
0
100
AcDbLine
 10
0.5
 20
55.0329507527806
 30
0.0
 11
1.560660171779545
 21
53.97229058100061
 31
0.0
  0
LINE
  5
16E
330
2
100
AcDbEntity
  8
9
100
AcDbLine
 10
0.5000000000004548
 20
55.03295075278106
 30
0.0
 11
1.56066017178
 21
56.09361092456106
 31
0.0
  0
ARC
  5
16F
330
2
100
AcDbEntity
  8
0
  6
TRAZO_Y_PUNTO
100
AcDbCircle
 10
1.724941350355493
 20
105.9641913087924
 30
-0.0000023735196138
 40
0.72
210
0.0000000011130604
220
-0.0000000222612086
230
0.9999999999999998
100
AcDbArc
 50
87.38596858983061
 51
92.86240522611254
  0
LINE
  5
171
330
2
100
AcDbEntity
  8
9
100
AcDbLine
 10
0.5000000000004548
 20
100.0693221239512
 30
0.0000000643007539
 11
1.56066017178
 21
101.1299822957314
 31
0.0000000643007539
  0
LINE
  5
172
330
2
100
AcDbEntity
  8
0
100
AcDbLine
 10
0.5
 20
100.0693221239507
 30
0.0000000643007539
 11
1.560660171779545
 21
99.00866195217099
 31
0.0000000643007539
  0
LINE
  5
173
330
2
100
AcDbEntity
  8
7
100
AcDbLine
 10
0.5
 20
98.56932212395122
 30
0.0000000643007539
 11
0.5
 21
101.5693221239512
 31
0.0000000643007539
  0
LINE
  5
174
330
2
100
AcDbEntity
  8
9
100
AcDbLine
 10
237.03892985736
 20
64.67312221734957
 30
-0.0000000548026545
 11
293.3138884138347
 21
64.6731222173496
 31
-0.0000000682813561
  0
LINE
  5
175
330
2
100
AcDbEntity
  8
9
100
AcDbLine
 10
237.0389298573604
 20
55.03295075278106
 30
-0.0000000548026545
 11
293.3138884138352
 21
55.03295075278109
 31
-0.0000000682813561
  0
LINE
  5
176
330
2
100
AcDbEntity
  8
9
100
AcDbLine
 10
158.8415147612949
 20
100.0693221239512
 30
0.0000000431661182
 11
293.3138884138356
 21
100.0693221239512
 31
-0.0000000058325901
  0
CIRCLE
  5
177
330
2
100
AcDbEntity
  8
0
  6
RAYITAS
 62
     9
100
AcDbCircle
 10
108.5364289840267
 20
65.53581056477629
 30
0.0
 40
6.054719480391213
  0
LINE
  5
178
330
2
100
AcDbEntity
  8
9
100
AcDbLine
 10
121.3033267941168
 20
-0.0000000000075033
 30
-0.0000000302770653
 11
121.3033267941168
 21
32.22123930444132
 31
-0.0000000828064927
  0
TEXT
  5
179
330
2
100
AcDbEntity
  8
KR-TEXTOS
  6
CONTINUOUS
100
AcDbText
 10
119.3985648893549
 20
34.36736551403805
 30
-0.0000000879355384
 40
2.0
  1
2A
  7
DEYP
 72
     1
 11
121.3033267941168
 21
35.36736551403805
 31
-0.0000000879355384
100
AcDbText
 73
     2
  0
CIRCLE
  5
17A
330
2
100
AcDbEntity
  8
0
100
AcDbCircle
 10
121.3033267941168
 20
35.36736551403805
 30
-0.0000000879355384
 40
3.146126209596722
  0
LWPOLYLINE
  5
17B
330
2
100
AcDbEntity
  8
0
100
AcDbPolyline
 90
        2
 70
     1
 43
0.5
 38
-0.0000000273180084
 10
116.7964562356814
 20
64.6731222173496
 42
1.0
 10
117.2964562356815
 20
64.6731222173496
 42
1.0
  0
CIRCLE
  5
17C
330
2
100
AcDbEntity
  8
0
  6
RAYITAS
 62
     9
100
AcDbCircle
 10
293.8080846847424
 20
65.53581056477629
 30
0.0
 40
6.054719480391213
  0
LINE
  5
17D
330
2
100
AcDbEntity
  8
9
100
AcDbLine
 10
273.3138884138357
 20
48.69543399176723
 30
-0.0000000208298718
 11
293.3138884138356
 21
48.69543399176723
 31
-0.0000000299346792
  0
LINE
  5
17E
330
2
100
AcDbEntity
  8
9
100
AcDbLine
 10
282.0596097217403
 20
-0.000000000024329
 30
-0.0000000259519691
 11
282.0596097217405
 21
32.22123930443984
 31
-0.0000000766471894
  0
LWPOLYLINE
  5
17F
330
2
100
AcDbEntity
  8
0
100
AcDbPolyline
 90
        2
 70
     1
 43
0.5
 38
-0.0000000665855464
 10
281.8096097217403
 20
24.92439539671432
 42
1.0
 10
282.3096097217403
 20
24.92439539671432
 42
1.0
  0
TEXT
  5
180
330
2
100
AcDbEntity
  8
KR-TEXTOS
  6
CONTINUOUS
100
AcDbText
 10
280.1548478169784
 20
34.36736551403658
 30
-0.000000082766589
 40
2.0
  1
3A
  7
DEYP
 72
     1
 11
282.0596097217403
 21
35.36736551403658
 31
-0.000000082766589
100
AcDbText
 73
     2
  0
CIRCLE
  5
181
330
2
100
AcDbEntity
  8
0
100
AcDbCircle
 10
282.0596097217403
 20
35.36736551403658
 30
-0.000000082766589
 40
3.146126209596722
  0
LINE
  5
182
330
2
100
AcDbEntity
  8
7
100
AcDbLine
 10
293.3138884138356
 20
63.1731222173496
 30
-0.000000070133344
 11
293.3138884138356
 21
66.1731222173496
 31
-0.000000070133344
  0
LINE
  5
183
330
2
100
AcDbEntity
  8
9
100
AcDbLine
 10
293.3138884138352
 20
64.6731222173496
 30
-0.000000070133344
 11
292.2532282420556
 21
65.7337823891296
 31
-0.000000070133344
  0
LINE
  5
184
330
2
100
AcDbEntity
  8
0
100
AcDbLine
 10
293.3138884138356
 20
64.67312221734914
 30
-0.000000070133344
 11
292.2532282420556
 21
63.61246204556914
 31
-0.000000070133344
  0
LINE
  5
185
330
2
100
AcDbEntity
  8
7
100
AcDbLine
 10
293.3138884138356
 20
53.53295075278106
 30
-0.000000070133344
 11
293.3138884138356
 21
56.53295075278106
 31
-0.000000070133344
  0
LINE
  5
186
330
2
100
AcDbEntity
  8
0
100
AcDbLine
 10
293.3138884138356
 20
55.0329507527806
 30
-0.000000070133344
 11
292.2532282420556
 21
53.97229058100061
 31
-0.000000070133344
  0
LINE
  5
187
330
2
100
AcDbEntity
  8
9
100
AcDbLine
 10
293.3138884138352
 20
55.03295075278106
 30
-0.000000070133344
 11
292.2532282420556
 21
56.09361092456106
 31
-0.000000070133344
  0
LWPOLYLINE
  5
188
330
2
100
AcDbEntity
  8
0
100
AcDbPolyline
 90
        2
 70
     1
 43
0.5
 38
-0.0000000273180084
 10
277.8159438608304
 20
64.6731222173496
 42
-1.0
 10
277.3159438608304
 20
64.6731222173496
 42
-1.0
  0
LINE
  5
189
330
2
100
AcDbEntity
  8
7
100
AcDbLine
 10
293.3138884138356
 20
98.56932212395122
 30
-0.0000000058325901
 11
293.3138884138356
 21
101.5693221239512
 31
-0.0000000058325901
  0
LINE
  5
18A
330
2
100
AcDbEntity
  8
9
100
AcDbLine
 10
293.3138884138352
 20
100.0693221239512
 30
-0.0000000058325901
 11
292.2532282420556
 21
101.1299822957314
 31
-0.0000000058325901
  0
LINE
  5
18B
330
2
100
AcDbEntity
  8
0
100
AcDbLine
 10
293.3138884138356
 20
100.0693221239507
 30
-0.0000000058325901
 11
292.2532282420556
 21
99.00866195217099
 31
-0.0000000058325901
  0
ARC
  5
18C
330
2
100
AcDbEntity
  8
0
  6
TRAZO_Y_PUNTO
100
AcDbCircle
 10
292.0889470634802
 20
105.9641913087925
 30
-0.0000027005522269
 40
0.72
210
-0.0000000011130604
220
-0.0000000222612086
230
0.9999999999999998
100
AcDbArc
 50
87.13759477388745
 51
92.61403141016939
  0
LINE
  5
18D
330
2
100
AcDbEntity
  8
0
100
AcDbLine
 10
289.8500194479165
 20
306.1990734867474
 30
-0.0000001147374277
 11
275.8790027432419
 21
318.4738346822255
 31
0.000000078556043
  0
LINE
  5
18E
330
2
100
AcDbEntity
  8
0
  6
TRAZO_Y_PUNTO
100
AcDbLine
 10
397.8138884138349
 20
299.235361832569
 30
-0.0000001695788186
 11
293.8482882680393
 21
303.9819254782059
 31
0.0000000518054205
  0
LINE
  5
18F
330
2
100
AcDbEntity
  8
0
  6
TRAZO_Y_PUNTO
100
AcDbLine
 10
257.2855817635172
 20
302.1570806757226
 30
-0.000000139922495
 11
293.8138884138357
 21
260.2499255860916
 31
-0.0000000729735753
  0
LINE
  5
190
330
2
100
AcDbEntity
  8
9
100
AcDbLine
 10
397.8138884138349
 20
302.2384867922137
 30
-0.0000001692874681
 11
361.3222695273482
 21
303.9045166264487
 31
-0.0000000915822534
  0
LINE
  5
191
330
2
100
AcDbEntity
  8
9
100
AcDbLine
 10
156.7229880590916
 20
300.132698649677
 30
-0.0000001695788186
 11
55.16069326550655
 21
295.0545839099982
 31
-0.0000001695788186
  0
LINE
  5
192
330
2
100
AcDbEntity
  8
0
  6
TRAZO_Y_PUNTO
100
AcDbLine
 10
113.7605643999634
 20
294.9808298075454
 30
-0.0000001710668077
 11
55.00000744442331
 21
221.4999999941665
 31
-0.0000002066365992
  0
LINE
  5
193
330
2
100
AcDbEntity
  8
0
100
AcDbLine
 10
93.28889009452632
 20
147.7058713233397
 30
-0.0000001847990274
 11
110.7543738295439
 21
167.7383960782677
 31
-0.0000001923813101
  0
LWPOLYLINE
  5
194
330
2
100
AcDbEntity
  8
0
 62
     5
100
AcDbPolyline
 90
        2
 70
     0
 43
1.0
 38
-0.0000001821687349
 10
293.8138884138357
 20
144.0350202749159
 10
-30.0
 20
144.0350202749096
  0
LINE
  5
195
330
2
100
AcDbEntity
  8
0
  6
TRAZO_Y_PUNTO
100
AcDbLine
 10
293.7794956909804
 20
303.9817763720957
 30
-0.0000001695788186
 11
55.12737278750091
 21
292.0491702269225
 31
-0.0000001695788186
  0
LINE
  5
196
330
2
100
AcDbEntity
  8
0
  6
TRAZO_Y_PUNTO
100
AcDbLine
 10
-2.923181041764109
 20
294.8693720766716
 30
-0.0000001742467643
 11
55.00000744442331
 21
221.4999999941665
 31
-0.0000002066365992
  0
TEXT
  5
197
330
2
100
AcDbEntity
  8
KR-TEXTOS
  6
CONTINUOUS
100
AcDbText
 10
-104.2436597456099
 20
213.3741123816043
 30
-0.0000002590594051
 40
2.5
  1
$1
  7
DEYP
 72
     1
 11
-102.2198502218004
 21
214.6241123816043
 31
-0.0000002590594051
100
AcDbText
 73
     2
  0
LINE
  5
198
330
2
100
AcDbEntity
  8
9
100
AcDbLine
 10
-11.75427869209488
 20
192.2811431549578
 30
-0.0000003437478867
 11
-11.75427869209488
 21
220.9999999941667
 31
-0.0000003905674734
  0
CIRCLE
  5
199
330
2
100
AcDbEntity
  8
0
  6
RAYITAS
 62
     9
100
AcDbCircle
 10
-30.0
 20
144.0350202749096
 30
-0.0000003371461843
 40
3.405779707720057
  0
TEXT
  5
19A
330
2
100
AcDbEntity
  8
KR-TEXTOS
  6
CONTINUOUS
100
AcDbText
 10
-59.03404642114576
 20
209.9828709365647
 30
-0.0000001238093948
 40
2.0
  1
SEGUN VANOS
  7
DEYP
 72
     1
 11
-48.31976070686005
 21
210.9828709365647
 31
-0.0000001238093948
100
AcDbText
 73
     2
  0
LINE
  5
19B
330
2
100
AcDbEntity
  8
0
 62
     7
100
AcDbLine
 10
-86.63608564795458
 20
214.6195788390357
 30
-0.0000002168491745
 11
-36.73038804239786
 21
214.6195788390357
 31
-0.0000002168491745
  0
LWPOLYLINE
  5
19C
330
2
100
AcDbEntity
  8
0
100
AcDbPolyline
 90
        4
 70
     0
 43
0.0
 38
-0.0000001821687349
 10
-93.66802461601741
 20
201.1844175774181
 10
-98.66802461601743
 20
201.1844175774181
 10
-98.6680246160181
 20
228.0638071857906
 10
-93.66802461601787
 20
228.0638071857907
  0
LWPOLYLINE
  5
19D
330
2
100
AcDbEntity
  8
9
100
AcDbPolyline
 90
        7
 70
     0
 43
0.0
 38
-0.0000001238093948
 10
-61.27615933023003
 20
208.3235514996697
 10
-60.67953798360372
 20
208.9201728462957
 10
-60.67953798360372
 20
210.3862495899387
 10
-60.08291663697765
 20
210.9828709365647
 10
-60.67953798360372
 20
211.5794922831909
 10
-60.67953798360372
 20
213.0455690268334
 10
-61.27615933023003
 20
213.6421903734596
  0
TEXT
  5
19E
330
2
100
AcDbEntity
  8
KR-TEXTOS
  6
CONTINUOUS
100
AcDbText
 10
-86.97531270375566
 20
204.9481653512846
 30
-0.0000002168491745
 40
2.0
  1
+ UPN 120 A52
  7
DEYP
100
AcDbText
  0
TEXT
  5
19F
330
2
100
AcDbEntity
  8
KR-TEXTOS
  6
CONTINUOUS
100
AcDbText
 10
-86.97531270375566
 20
208.306798425727
 30
-0.0000002168491745
 40
2.0
  1
ó HEA 500 A52
  7
DEYP
100
AcDbText
  0
TEXT
  5
1A0
330
2
100
AcDbEntity
  8
KR-TEXTOS
  6
CONTINUOUS
100
AcDbText
 10
-86.97531270375566
 20
215.573726177902
 30
-0.0000002168491745
 40
2.0
  1
V.B. MIX. CONT.
  7
DEYP
100
AcDbText
  0
TEXT
  5
1A1
330
2
100
AcDbEntity
  8
KR-TEXTOS
  6
CONTINUOUS
100
AcDbText
 10
-86.97531270375566
 20
211.6654315001694
 30
-0.0000002168491745
 40
2.0
  1
IPE 500 A52
  7
DEYP
100
AcDbText
  0
TEXT
  5
1A2
330
2
100
AcDbEntity
  8
KR-TEXTOS
  6
CONTINUOUS
100
AcDbText
 10
-26.49035435976998
 20
140.4185490581176
 30
-0.0000001821687349
 40
2.0
  1
HEB 600 A52
  7
DEYP
100
AcDbText
  0
TEXT
  5
1A3
330
2
100
AcDbEntity
  8
KR-TEXTOS
  6
CONTINUOUS
100
AcDbText
 10
-26.57505208222687
 20
145.4123724198884
 30
-0.0000001821687349
 40
2.0
  1
V. MIX. CONT.
  7
DEYP
100
AcDbText
  0
LINE
  5
1A4
330
2
100
AcDbEntity
  8
0
 62
     7
100
AcDbLine
 10
-54.38020187358188
 20
160.4221417388473
 30
-0.0000001923813101
 11
-18.86438674105193
 21
160.4221417388473
 31
-0.0000001923813101
  0
TEXT
  5
1A5
330
2
100
AcDbEntity
  8
KR-TEXTOS
  6
CONTINUOUS
100
AcDbText
 10
-54.71942892938296
 20
157.467994399981
 30
-0.0000001923813101
 40
2.0
  1
HEA 600 A52d
  7
DEYP
100
AcDbText
  0
TEXT
  5
1A6
330
2
100
AcDbEntity
  8
KR-TEXTOS
  6
CONTINUOUS
100
AcDbText
 10
-54.71942892938296
 20
161.3762890777136
 30
-0.0000001923813101
 40
2.0
  1
V. TRANSV. MIX. CONT.
  7
DEYP
100
AcDbText
  0
LINE
  5
1A7
330
2
100
AcDbEntity
  8
0
100
AcDbLine
 10
-3.529680578956231
 20
146.8920109561675
 30
-0.0000001844938579
 11
-18.86438674105193
 21
160.4221417388473
 31
-0.0000001923813101
  0
CIRCLE
  5
1A8
330
2
100
AcDbEntity
  8
0
  6
RAYITAS
 62
     9
100
AcDbCircle
 10
0.0
 20
144.0350202749096
 30
-0.0000001821687349
 40
4.54103961029341
  0
CIRCLE
  5
1A9
330
2
100
AcDbEntity
  8
0
  6
RAYITAS
 62
     9
100
AcDbCircle
 10
90.61570971854939
 20
144.0350202749116
 30
-0.0000001821687349
 40
4.54103961029341
  0
LWPOLYLINE
  5
1AA
330
2
100
AcDbEntity
  8
9
100
AcDbPolyline
 90
        7
 70
     0
 43
0.0
 38
-0.0000001238093948
 10
-4.892399026796738
 20
173.9194113077549
 10
-5.953059198576283
 20
172.8587511359749
 10
-10.69942224940859
 20
172.8587511359749
 10
-11.76008242118814
 20
171.7980909641951
 10
-12.82074259296814
 20
172.8587511359749
 10
-17.53656994124367
 20
172.8587511359749
 10
-18.59723011302367
 20
173.9194113077549
  0
INSERT
  5
1AB
330
2
100
AcDbEntity
  8
KR-TEXTOS
  6
CONTINUOUS
100
AcDbBlockReference
  2
SIM10
 10
-11.76008242118814
 20
175.9799302881499
 30
-0.0000001440527426
 41
2.0
 42
2.0
 43
2.0
 50
90.0
  0
INSERT
  5
1AC
330
2
100
AcDbEntity
  8
KR-TEXTOS
  6
CONTINUOUS
100
AcDbBlockReference
  2
SIM10
 10
-6.939996688904102
 20
175.9799302881499
 30
-0.0000001440527426
 41
2.0
 42
2.0
 43
2.0
 50
90.0
  0
INSERT
  5
1AD
330
2
100
AcDbEntity
  8
KR-TEXTOS
  6
CONTINUOUS
100
AcDbBlockReference
  2
SIM10
 10
-16.58016815347264
 20
175.9799302881499
 30
-0.0000001440527426
 41
2.0
 42
2.0
 43
2.0
 50
90.0
  0
TEXT
  5
1AE
330
2
100
AcDbEntity
  8
KR-TEXTOS
  6
CONTINUOUS
100
AcDbText
 10
-10.76008242118814
 20
178.2383052565821
 30
-0.0000001440527426
 40
2.0
  1
30.880
 50
90.0
  7
DEYP
 72
     1
 11
-11.76008242118814
 21
183.4764004946773
 31
-0.0000001440527426
100
AcDbText
 73
     2
  0
TEXT
  5
1AF
330
2
100
AcDbEntity
  8
KR-TEXTOS
  6
CONTINUOUS
100
AcDbText
 10
-15.58016815347264
 20
178.1906862089631
 30
-0.0000001440527426
 40
2.0
  1
600.60
 50
90.0
  7
DEYP
 72
     1
 11
-16.58016815347264
 21
183.4764004946773
 31
-0.0000001440527426
100
AcDbText
 73
     2
  0
TEXT
  5
1B0
330
2
100
AcDbEntity
  8
KR-TEXTOS
  6
CONTINUOUS
100
AcDbText
 10
-5.939996688904102
 20
178.1906862089631
 30
-0.0000001440527426
 40
2.0
  1
600.60
 50
90.0
  7
DEYP
 72
     1
 11
-6.939996688904102
 21
183.4764004946773
 31
-0.0000001440527426
100
AcDbText
 73
     2
  0
LWPOLYLINE
  5
1B1
330
2
100
AcDbEntity
  8
9
100
AcDbPolyline
 90
        7
 70
     0
 43
0.0
 38
-0.0000001238093948
 10
-4.892399026796738
 20
190.1656265404915
 10
-5.953059198576283
 20
191.2262867122715
 10
-10.69942224940859
 20
191.2262867122715
 10
-11.76008242118814
 20
192.2869468840513
 10
-12.82074259296814
 20
191.2262867122715
 10
-17.53656994124367
 20
191.2262867122715
 10
-18.59723011302367
 20
190.1656265404915
  0
LINE
  5
1B2
330
2
100
AcDbEntity
  8
0
100
AcDbLine
 10
-32.38155889652216
 20
219.0653516335375
 30
-0.0000001768708613
 11
-36.73038804239786
 21
214.6195788390357
 31
-0.0000002168491745
  0
TEXT
  5
1B3
330
2
100
AcDbEntity
  8
KR-TEXTOS
  6
CONTINUOUS
100
AcDbText
 10
11.90352905714917
 20
277.9409154100207
 30
-0.0000001948148505
 40
2.0
  1
%%c219,1.12,5 A52
 50
308.0552846055008
  7
DEYP
100
AcDbText
  0
LINE
  5
1B4
330
2
100
AcDbEntity
  8
0
100
AcDbLine
 10
-3.93949719361808
 20
223.758628472631
 30
-0.0000002092316826
 11
-15.50332114371121
 21
234.6800933309225
 31
-0.0000002168491745
  0
LINE
  5
1B5
330
2
100
AcDbEntity
  8
0
 62
     7
100
AcDbLine
 10
-51.01913627624117
 20
234.6800933309225
 30
-0.0000002168491745
 11
-15.50332114371121
 21
234.6800933309225
 31
-0.0000002168491745
  0
TEXT
  5
1B6
330
2
100
AcDbEntity
  8
KR-TEXTOS
  6
CONTINUOUS
100
AcDbText
 10
-51.35836333204224
 20
235.6342406697888
 30
-0.0000002168491745
 40
2.0
  1
V. TRANSV. MIX. CONT.
  7
DEYP
100
AcDbText
  0
TEXT
  5
1B7
330
2
100
AcDbEntity
  8
KR-TEXTOS
  6
CONTINUOUS
100
AcDbText
 10
-51.35836333204224
 20
231.7259459920562
 30
-0.0000002168491745
 40
2.0
  1
HEA 600 A52d
  7
DEYP
100
AcDbText
  0
CIRCLE
  5
1B8
330
2
100
AcDbEntity
  8
0
  6
RAYITAS
 62
     9
100
AcDbCircle
 10
0.0
 20
221.4999999941665
 30
-0.0000002066365992
 40
4.54103961029341
  0
LINE
  5
1B9
330
2
100
AcDbEntity
  8
9
100
AcDbLine
 10
-11.75427869209579
 20
220.999999994166
 30
-0.0000002066365992
 11
-12.81493886387579
 21
219.9393398223865
 31
-0.0000002066365992
  0
LINE
  5
1BA
330
2
100
AcDbEntity
  8
7
100
AcDbLine
 10
-10.25427869209579
 20
220.9999999941664
 30
-0.0000002066365992
 11
-13.25427869209579
 21
220.9999999941664
 31
-0.0000002066365992
  0
LINE
  5
1BB
330
2
100
AcDbEntity
  8
7
100
AcDbLine
 10
-10.25427869209579
 20
220.9999999941664
 30
-0.0000002066365992
 11
-13.25427869209579
 21
220.9999999941664
 31
-0.0000002066365992
  0
LINE
  5
1BC
330
2
100
AcDbEntity
  8
0
100
AcDbLine
 10
-11.75427869209534
 20
220.9999999941664
 30
-0.0000002066365992
 11
-10.69361852031533
 21
219.9393398223867
 31
-0.0000002066365992
  0
TEXT
  5
1BD
330
2
100
AcDbEntity
  8
KR-TEXTOS
  6
CONTINUOUS
100
AcDbText
 10
78.38781881574096
 20
252.8078829219059
 30
-0.0000001948036499
 40
2.0
  1
%%c219,1.16 A52
 50
51.10823397259848
  7
DEYP
100
AcDbText
  0
CIRCLE
  5
1BE
330
2
100
AcDbEntity
  8
0
  6
RAYITAS
 62
     9
100
AcDbCircle
 10
-30.0
 20
221.4999999941665
 30
-0.0000001549774494
 40
3.405779707720057
  0
TEXT
  5
1BF
330
2
100
AcDbEntity
  8
KR-TEXTOS
  6
CONTINUOUS
100
AcDbText
 10
-70.55474203515405
 20
297.4424192347857
 30
-0.0000001280805562
 40
2.0
  1
CONTRAFLECHA
  7
DEYP
100
AcDbText
  0
LINE
  5
1C0
330
2
100
AcDbEntity
  8
0
 62
     7
100
AcDbLine
 10
-41.36647244711411
 20
296.4882718959195
 30
-0.0000001280805562
 11
-71.25892832168938
 21
296.4882718959195
 31
-0.0000001280805562
  0
TEXT
  5
1C1
330
2
100
AcDbEntity
  8
KR-TEXTOS
  6
CONTINUOUS
100
AcDbText
 10
-70.5547420351545
 20
293.5341245570532
 30
-0.0000001280805562
 40
2.0
  1
= 35 mm
  7
DEYP
100
AcDbText
  0
TEXT
  5
1C2
330
2
100
AcDbEntity
  8
KR-TEXTOS
  6
CONTINUOUS
100
AcDbText
 10
-6.160184053730563
 20
297.028990393398
 30
-0.0000001695788186
 40
2.0
  1
HEA 500 A52d CONT.
 50
357.2186532608955
  7
DEYP
 72
     1
 11
10.53537367434728
 21
297.219069130235
 31
-0.0000001695788186
100
AcDbText
 73
     2
  0
LINE
  5
1C3
330
2
100
AcDbEntity
  8
0
  6
TRAZO_Y_PUNTO
100
AcDbLine
 10
55.12737278750091
 20
292.0491702269225
 30
-0.0000001695788186
 11
-36.24633878304803
 21
296.4882718959197
 31
-0.0000001695788186
  0
LINE
  5
1C4
330
2
100
AcDbEntity
  8
9
100
AcDbLine
 10
-7.072130118860513
 20
298.0744737989498
 30
-0.0000001695788186
 11
-36.24633878304803
 21
299.4918101000257
 31
-0.0000001695788186
  0
LINE
  5
1C5
330
2
100
AcDbEntity
  8
9
100
AcDbLine
 10
-36.24633878304758
 20
299.4918101000253
 30
-0.0000001695788186
 11
-35.14574728791831
 21
300.5109756218364
 31
-0.0000001695788186
  0
LINE
  5
1C6
330
2
100
AcDbEntity
  8
0
100
AcDbLine
 10
-36.24633878304848
 20
299.4918101000248
 30
-0.0000001695788186
 11
-35.22717326123756
 21
298.3912186048946
 31
-0.0000001695788186
  0
LWPOLYLINE
  5
1C7
330
2
100
AcDbEntity
  8
0
 62
     7
100
AcDbPolyline
 90
        2
 70
     1
 43
0.7199999999999882
 38
-0.0000001695788186
 10
-36.6063387830477
 20
296.4882718959197
 42
-1.0
 10
-35.88633878304836
 20
296.4882718959197
 42
-1.0
  0
TEXT
  5
1C8
330
2
100
AcDbEntity
  8
KR-TEXTOS
  6
CONTINUOUS
100
AcDbText
 10
-38.3480400647827
 20
298.3321714298524
 30
-0.0000001280805562
 40
2.0
  1
A
  7
DEYP
100
AcDbText
  0
LINE
  5
1C9
330
2
100
AcDbEntity
  8
9
100
AcDbLine
 10
55.08980047285763
 20
295.0545337626442
 30
-0.0000001695788186
 11
28.42025286245052
 21
296.3501890586133
 31
-0.0000001695788186
  0
ARC
  5
1CA
330
2
100
AcDbEntity
  8
9
100
AcDbCircle
 10
54.93542573126569
 20
295.7197611304234
 30
-0.0000001695788186
 40
0.72
100
AcDbArc
 50
267.2186532608986
 51
272.8624052261125
  0
LINE
  5
1CB
330
2
100
AcDbEntity
  8
9
100
AcDbLine
 10
55.08980047285763
 20
295.0545337626442
 30
-0.0000001695788186
 11
54.01073598879861
 21
296.0964645853205
 31
-0.0000001695788186
  0
LINE
  5
1CC
330
2
100
AcDbEntity
  8
9
100
AcDbLine
 10
55.16069326550701
 20
295.0545839099989
 30
-0.0000001695788186
 11
56.14489166755402
 21
296.1865527723834
 31
-0.0000001695788186
  0
LWPOLYLINE
  5
1CD
330
2
100
AcDbEntity
  8
0
 62
     7
100
AcDbPolyline
 90
        2
 70
     1
 43
0.7199999999999882
 38
-0.0000001695788186
 10
54.76737278750125
 20
292.0491702269225
 42
-1.0
 10
55.48737278750059
 20
292.0491702269225
 42
-1.0
  0
LINE
  5
1CE
330
2
100
AcDbEntity
  8
0
100
AcDbLine
 10
55.08980047285809
 20
295.0545337626438
 30
-0.0000001695788186
 11
54.04786965018161
 21
293.9754692785845
 31
-0.0000001695788186
  0
LINE
  5
1CF
330
2
100
AcDbEntity
  8
0
100
AcDbLine
 10
55.16069326550655
 20
295.0545839099983
 30
-0.0000001695788186
 11
56.29266212789094
 21
294.0703855079508
 31
-0.0000001695788186
  0
TEXT
  5
1D0
330
2
100
AcDbEntity
  8
KR-TEXTOS
  6
CONTINUOUS
100
AcDbText
 10
51.43990901702863
 20
287.9897773379984
 30
-0.0000001280805562
 40
2.0
  1
CONT.
  7
DEYP
100
AcDbText
  0
TEXT
  5
1D1
330
2
100
AcDbEntity
  8
KR-TEXTOS
  6
CONTINUOUS
100
AcDbText
 10
54.27008759629143
 20
297.0493462390991
 30
-0.0000001280805562
 40
2.0
  1
A
  7
DEYP
100
AcDbText
  0
CIRCLE
  5
1D2
330
2
100
AcDbEntity
  8
0
  6
RAYITAS
 62
     9
100
AcDbCircle
 10
397.8138884138358
 20
182.7675101345469
 30
-0.0000004192834989
 40
6.054719480391213
  0
CIRCLE
  5
1D3
330
2
100
AcDbEntity
  8
0
  6
RAYITAS
 62
     9
100
AcDbCircle
 10
397.8138884138349
 20
299.2353618325692
 30
-0.0000001695788186
 40
6.054719480391213
  0
TEXT
  5
1D4
330
2
100
AcDbEntity
  8
KR-TEXTOS
  6
CONTINUOUS
100
AcDbText
 10
400.5392686253432
 20
324.5157268396575
 30
-0.000000353535687
 40
2.0
  1
J.D.
  7
DEYP
100
AcDbText
  0
LINE
  5
1D5
330
2
100
AcDbEntity
  8
0
 62
     7
100
AcDbLine
 10
398.8138884138353
 20
323.5615795007912
 30
-0.000000353535687
 11
406.1897560121293
 21
323.5615795007912
 31
-0.000000353535687
  0
CIRCLE
  5
1D6
330
2
100
AcDbEntity
  8
0
  6
RAYITAS
 62
     9
100
AcDbCircle
 10
397.8138884138353
 20
221.4999999941753
 30
-0.000000386374274
 40
6.054719480391213
  0
CIRCLE
  5
1D7
330
2
100
AcDbEntity
  8
0
  6
RAYITAS
 62
     9
100
AcDbCircle
 10
397.8138884138353
 20
260.2499255861002
 30
-0.000000386374274
 40
6.054719480391213
  0
LWPOLYLINE
  5
1D8
330
2
100
AcDbEntity
  8
0
100
AcDbPolyline
 90
        4
 70
     0
 43
0.0
 38
-0.0000001821687349
 10
236.5590883549746
 20
231.4893601400178
 10
231.5590883549746
 20
231.4893601400178
 10
231.5590883549739
 20
286.0842100992901
 10
236.5590883549741
 20
286.0842100992902
  0
TEXT
  5
1D9
330
2
100
AcDbEntity
  8
KR-TEXTOS
  6
CONTINUOUS
100
AcDbText
 10
238.860218068065
 20
281.2040729249577
 30
-0.0000001280805562
 40
2.0
  1
V. TRANSV. CONT.
  7
DEYP
100
AcDbText
  0
TEXT
  5
1DA
330
2
100
AcDbEntity
  8
KR-TEXTOS
  6
CONTINUOUS
100
AcDbText
 10
280.986711080694
 20
281.085776161543
 30
-0.0000002421443926
 40
2.0
  1
HEA 600 A52d
 50
90.0
 41
0.9
  7
DEYP
 72
     1
 11
279.986711080694
 21
291.285776161543
 31
-0.0000002421443926
100
AcDbText
 73
     2
  0
LINE
  5
1DB
330
2
100
AcDbEntity
  8
9
100
AcDbLine
 10
282.0596097217407
 20
260.7499255860916
 30
-0.0000003296467387
 11
282.0596097217407
 21
303.9834960082382
 31
-0.000000179605778
  0
TEXT
  5
1DC
330
2
100
AcDbEntity
  8
KR-TEXTOS
  6
CONTINUOUS
100
AcDbText
 10
225.5667865587153
 20
258.8733193277064
 30
-0.0000002590594051
 40
2.5
  1
$4
  7
DEYP
 72
     1
 11
228.0072627491915
 21
260.1233193277064
 31
-0.0000002590594051
100
AcDbText
 73
     2
  0
TEXT
  5
1DD
330
2
100
AcDbEntity
  8
KR-TEXTOS
  6
CONTINUOUS
100
AcDbText
 10
283.2482132316839
 20
210.2601110586799
 30
-0.0000003172075301
 40
2.0
  1
2.0
  7
DEYP
 72
     1
 11
285.6291656126363
 21
211.2601110586799
 31
-0.0000003172075301
100
AcDbText
 73
     2
  0
LINE
  5
1DE
330
2
100
AcDbEntity
  8
9
100
AcDbLine
 10
282.0596097217407
 20
200.8181096330838
 30
-0.0000002773676598
 11
282.0596097217407
 21
259.7499255860914
 31
-0.0000003288177906
  0
LINE
  5
1DF
330
2
100
AcDbEntity
  8
0
 62
     5
100
AcDbLine
 10
397.8138884138358
 20
148.0350202749182
 30
-0.000000386374274
 11
397.8138884138358
 21
140.0350202749182
 31
-0.000000386374274
  0
LINE
  5
1E0
330
2
100
AcDbEntity
  8
0
 62
     5
100
AcDbLine
 10
397.8138884138353
 20
186.7675101345469
 30
-0.000000386374274
 11
397.8138884138353
 21
178.7675101345469
 31
-0.000000386374274
  0
LINE
  5
1E1
330
2
100
AcDbEntity
  8
9
100
AcDbLine
 10
282.0596097217403
 20
260.7499255860918
 30
-0.0000003292322646
 11
280.9989495499603
 21
261.8105857578714
 31
-0.0000003292322646
  0
LINE
  5
1E2
330
2
100
AcDbEntity
  8
9
100
AcDbLine
 10
282.0596097217403
 20
259.7499255860909
 30
-0.0000003292322646
 11
280.9989495499603
 21
258.6892654143114
 31
-0.0000003292322646
  0
LINE
  5
1E3
330
2
100
AcDbEntity
  8
7
100
AcDbLine
 10
283.5596097217403
 20
260.7499255860914
 30
-0.0000003292322646
 11
280.5596097217403
 21
260.7499255860914
 31
-0.0000003292322646
  0
LINE
  5
1E4
330
2
100
AcDbEntity
  8
7
100
AcDbLine
 10
283.5596097217403
 20
260.7499255860914
 30
-0.0000003292322646
 11
280.5596097217403
 21
260.7499255860914
 31
-0.0000003292322646
  0
LINE
  5
1E5
330
2
100
AcDbEntity
  8
7
100
AcDbLine
 10
283.5596097217403
 20
259.7499255860914
 30
-0.0000003292322646
 11
280.5596097217403
 21
259.7499255860914
 31
-0.0000003292322646
  0
LINE
  5
1E6
330
2
100
AcDbEntity
  8
7
100
AcDbLine
 10
283.5596097217403
 20
259.7499255860914
 30
-0.0000003292322646
 11
280.5596097217403
 21
259.7499255860914
 31
-0.0000003292322646
  0
LINE
  5
1E7
330
2
100
AcDbEntity
  8
0
100
AcDbLine
 10
282.0596097217407
 20
260.7499255860914
 30
-0.0000003292322646
 11
283.1202698935208
 21
261.8105857578711
 31
-0.0000003292322646
  0
LINE
  5
1E8
330
2
100
AcDbEntity
  8
0
100
AcDbLine
 10
282.0596097217407
 20
259.7499255860914
 30
-0.0000003292322646
 11
283.1202698935208
 21
258.6892654143116
 31
-0.0000003292322646
  0
LINE
  5
1E9
330
2
100
AcDbEntity
  8
0
 62
     5
100
AcDbLine
 10
397.8138884138353
 20
225.4999999941753
 30
-0.000000386374274
 11
397.8138884138353
 21
217.4999999941753
 31
-0.000000386374274
  0
LINE
  5
1EA
330
2
100
AcDbEntity
  8
0
 62
     5
100
AcDbLine
 10
397.8138884138353
 20
264.2499255861002
 30
-0.000000386374274
 11
397.8138884138353
 21
256.2499255861002
 31
-0.000000386374274
  0
TEXT
  5
1EB
330
2
100
AcDbEntity
  8
KR-TEXTOS
  6
CONTINUOUS
100
AcDbText
 10
277.8995904042953
 20
214.4059121437956
 30
-0.0000003172075301
 40
2.0
  1
20.1400
  7
DEYP
 72
     1
 11
284.0900665947715
 21
215.4059121437956
 31
-0.0000003172075301
100
AcDbText
 73
     2
  0
INSERT
  5
1EC
330
2
100
AcDbEntity
  8
KR-TEXTOS
  6
CONTINUOUS
100
AcDbBlockReference
  2
SIM10
 10
276.3185492708776
 20
215.4059121437956
 30
-0.0000003172075301
 41
2.0
 42
2.0
 43
2.0
  0
CIRCLE
  5
1ED
330
2
100
AcDbEntity
  8
0
  6
RAYITAS
 62
     9
100
AcDbCircle
 10
293.8138884138357
 20
260.2499255860914
 30
-0.0000002796101745
 40
4.54103961029341
  0
TEXT
  5
1EE
330
2
100
AcDbEntity
  8
KR-TEXTOS
  6
CONTINUOUS
100
AcDbText
 10
238.860218068065
 20
277.2957782472251
 30
-0.0000001280805562
 40
2.0
  1
IPE 330 A52d
  7
DEYP
100
AcDbText
  0
TEXT
  5
1EF
330
2
100
AcDbEntity
  8
KR-TEXTOS
  6
CONTINUOUS
100
AcDbText
 10
238.860218068065
 20
261.2040729249577
 30
-0.0000001280805562
 40
2.0
  1
V. TRANSV. MIX. CONT.
  7
DEYP
100
AcDbText
  0
LINE
  5
1F0
330
2
100
AcDbEntity
  8
0
 62
     7
100
AcDbLine
 10
239.1994451238656
 20
280.2499255860914
 30
-0.0000001280805562
 11
289.2728488035422
 21
280.2499255860914
 31
-0.0000001280805562
  0
LINE
  5
1F1
330
2
100
AcDbEntity
  8
0
 62
     7
100
AcDbLine
 10
239.1994451238656
 20
260.2499255860914
 30
-0.0000001280805562
 11
289.2728488035422
 21
260.2499255860914
 31
-0.0000001280805562
  0
LINE
  5
1F2
330
2
100
AcDbEntity
  8
0
 62
     7
100
AcDbLine
 10
239.1994451238656
 20
237.4589227690337
 30
-0.0000001280805562
 11
275.8790027432419
 21
237.4589227690337
 31
-0.0000001280805562
  0
TEXT
  5
1F3
330
2
100
AcDbEntity
  8
KR-TEXTOS
  6
CONTINUOUS
100
AcDbText
 10
238.860218068065
 20
238.4130701079
 30
-0.0000001280805562
 40
2.0
  1
V. TRANSV. MIX. CONT.
  7
DEYP
100
AcDbText
  0
TEXT
  5
1F4
330
2
100
AcDbEntity
  8
KR-TEXTOS
  6
CONTINUOUS
100
AcDbText
 10
238.860218068065
 20
234.5047754301674
 30
-0.0000001280805562
 40
2.0
  1
HEB 700 A52d
  7
DEYP
100
AcDbText
  0
TEXT
  5
1F5
330
2
100
AcDbEntity
  8
KR-TEXTOS
  6
CONTINUOUS
100
AcDbText
 10
238.860218068065
 20
257.2957782472251
 30
-0.0000001280805562
 40
2.0
  1
HEA 600 A52d
  7
DEYP
100
AcDbText
  0
LINE
  5
1F6
330
2
100
AcDbEntity
  8
0
 62
     7
100
AcDbLine
 10
237.0139684875507
 20
157.7516030092717
 30
-0.0000001280805562
 11
273.693526106927
 21
157.7516030092717
 31
-0.0000001280805562
  0
TEXT
  5
1F7
330
2
100
AcDbEntity
  8
KR-TEXTOS
  6
CONTINUOUS
100
AcDbText
 10
236.6747414317501
 20
154.7974556704055
 30
-0.0000001280805562
 40
2.0
  1
HEA 800 A52d
  7
DEYP
100
AcDbText
  0
TEXT
  5
1F8
330
2
100
AcDbEntity
  8
KR-TEXTOS
  6
CONTINUOUS
100
AcDbText
 10
236.6747414317501
 20
158.705750348138
 30
-0.0000001280805562
 40
2.0
  1
V. TRANSV. MIX. CONT.
  7
DEYP
100
AcDbText
  0
LINE
  5
1F9
330
2
100
AcDbEntity
  8
0
 62
     7
100
AcDbLine
 10
184.1574493554799
 20
167.7383960782677
 30
-0.0000001923813101
 11
110.7543738295439
 21
167.7383960782677
 31
-0.0000001923813101
  0
TEXT
  5
1FA
330
2
100
AcDbEntity
  8
KR-TEXTOS
  6
CONTINUOUS
100
AcDbText
 10
111.9427493512082
 20
168.692543417134
 30
-0.0000001923813101
 40
2.0
  1
PERFIL DE FORJADO MIXT. CONT. EN VOLADIZO
  7
DEYP
100
AcDbText
  0
TEXT
  5
1FB
330
2
100
AcDbEntity
  8
KR-TEXTOS
  6
CONTINUOUS
100
AcDbText
 10
114.8117061116795
 20
146.2803521013938
 30
-0.0000001821687349
 40
2.0
  1
CONTRAFLECHA DE EJECUCION = L/1000
  7
DEYP
 72
     1
 11
146.9069442069176
 21
147.2803521013938
 31
-0.0000001821687349
100
AcDbText
 73
     2
  0
TEXT
  5
1FC
330
2
100
AcDbEntity
  8
KR-TEXTOS
  6
CONTINUOUS
100
AcDbText
 10
111.9427493512082
 20
164.7842487394014
 30
-0.0000001923813101
 40
2.0
  1
IPE 550 A52
  7
DEYP
100
AcDbText
  0
TEXT
  5
1FD
330
2
100
AcDbEntity
  8
KR-TEXTOS
  6
CONTINUOUS
100
AcDbText
 10
135.4307537307271
 20
149.9763296246124
 30
-0.0000001821687349
 40
2.0
  1
HEB 600 A52d
  7
DEYP
 72
     1
 11
146.9069442069176
 21
150.9763296246124
 31
-0.0000001821687349
100
AcDbText
 73
     2
  0
LWPOLYLINE
  5
1FE
330
2
100
AcDbEntity
  8
0
  6
TRAZOS
 62
     5
100
AcDbPolyline
 90
        2
 70
     0
 43
1.0
 38
-0.0000001944026668
 10
293.8138884138357
 20
182.7675101345382
 10
397.8138884138358
 20
182.7675101345469
  0
LWPOLYLINE
  5
1FF
330
2
100
AcDbEntity
  8
0
  6
TRAZOS
 62
     5
100
AcDbPolyline
 90
        2
 70
     0
 43
1.0
 38
-0.0000001821687349
 10
397.8138884138353
 20
144.0350202749182
 10
293.8138884138357
 20
144.0350202749159
  0
TEXT
  5
200
330
2
100
AcDbEntity
  8
KR-TEXTOS
  6
CONTINUOUS
100
AcDbText
 10
283.0596097217408
 20
171.9257209318697
 30
-0.0000002040284003
 40
2.0
  1
A52d
 50
90.0
  7
DEYP
 72
     1
 11
282.0596097217407
 21
175.4495304556792
 31
-0.0000002040284003
100
AcDbText
 73
     2
  0
CIRCLE
  5
201
330
2
100
AcDbEntity
  8
0
  6
RAYITAS
 62
     9
100
AcDbCircle
 10
293.8138884138357
 20
144.0350202749096
 30
-0.0000001821687349
 40
4.54103961029341
  0
LWPOLYLINE
  5
202
330
2
100
AcDbEntity
  8
9
100
AcDbPolyline
 90
        7
 70
     0
 43
0.0
 38
-0.0000001837850525
 10
288.9272931161321
 20
198.6967892895243
 10
287.8666329443526
 20
199.757449461304
 10
283.1202698935203
 20
199.757449461304
 10
282.0596097217407
 20
200.8181096330838
 10
280.9989495499607
 20
199.757449461304
 10
276.2831222016852
 20
199.757449461304
 10
275.2224620299052
 20
198.6967892895243
  0
LWPOLYLINE
  5
203
330
2
100
AcDbEntity
  8
9
100
AcDbPolyline
 90
        7
 70
     0
 43
0.0
 38
-0.0000001837850525
 10
288.9272931161321
 20
182.4505740567874
 10
287.8666329443526
 20
181.3899138850076
 10
283.1202698935203
 20
181.3899138850076
 10
282.0596097217407
 20
180.3292537132276
 10
280.9989495499607
 20
181.3899138850076
 10
276.2831222016852
 20
181.3899138850076
 10
275.2224620299052
 20
182.4505740567874
  0
TEXT
  5
204
330
2
100
AcDbEntity
  8
KR-TEXTOS
  6
CONTINUOUS
100
AcDbText
 10
287.8796954540248
 20
186.7218489579956
 30
-0.0000002040284003
 40
2.0
  1
600.60
 50
90.0
  7
DEYP
 72
     1
 11
286.8796954540248
 21
192.0075632437099
 31
-0.0000002040284003
100
AcDbText
 73
     2
  0
TEXT
  5
205
330
2
100
AcDbEntity
  8
KR-TEXTOS
  6
CONTINUOUS
100
AcDbText
 10
278.2395239894563
 20
186.7218489579956
 30
-0.0000002040284003
 40
2.0
  1
600.60
 50
90.0
  7
DEYP
 72
     1
 11
277.2395239894563
 21
192.0075632437099
 31
-0.0000002040284003
100
AcDbText
 73
     2
  0
TEXT
  5
206
330
2
100
AcDbEntity
  8
KR-TEXTOS
  6
CONTINUOUS
100
AcDbText
 10
283.0596097217408
 20
186.7694680056146
 30
-0.0000002040284003
 40
2.0
  1
30.880
 50
90.0
  7
DEYP
 72
     1
 11
282.0596097217407
 21
192.0075632437099
 31
-0.0000002040284003
100
AcDbText
 73
     2
  0
INSERT
  5
207
330
2
100
AcDbEntity
  8
KR-TEXTOS
  6
CONTINUOUS
100
AcDbBlockReference
  2
SIM10
 10
286.8796954540248
 20
184.5110930371824
 30
-0.0000002040284003
 41
2.0
 42
2.0
 43
2.0
 50
90.0
  0
INSERT
  5
208
330
2
100
AcDbEntity
  8
KR-TEXTOS
  6
CONTINUOUS
100
AcDbBlockReference
  2
SIM10
 10
277.2395239894563
 20
184.5110930371824
 30
-0.0000002040284003
 41
2.0
 42
2.0
 43
2.0
 50
90.0
  0
INSERT
  5
209
330
2
100
AcDbEntity
  8
KR-TEXTOS
  6
CONTINUOUS
100
AcDbBlockReference
  2
SIM10
 10
282.0596097217407
 20
184.5110930371824
 30
-0.0000002040284003
 41
2.0
 42
2.0
 43
2.0
 50
90.0
  0
LINE
  5
20A
330
2
100
AcDbEntity
  8
0
100
AcDbLine
 10
290.088743185348
 20
146.6320057906432
 30
-0.0000001709344107
 11
273.693526106927
 21
157.7516030092717
 31
-0.0000001280805562
  0
LINE
  5
20B
330
2
100
AcDbEntity
  8
0
100
AcDbLine
 10
290.4214516886272
 20
224.5186774873266
 30
-0.0000001917774911
 11
275.8790027432419
 21
237.4589227690337
 31
-0.0000001280805562
  0
TEXT
  5
20C
330
2
100
AcDbEntity
  8
KR-TEXTOS
  6
CONTINUOUS
100
AcDbText
 10
280.986711080694
 20
235.497962159033
 30
-0.0000002421443926
 40
2.0
  1
HEM 600 A52d
 50
90.0
  7
DEYP
 72
     1
 11
279.986711080694
 21
247.1170097780807
 31
-0.0000002421443926
100
AcDbText
 73
     2
  0
TEXT
  5
20D
330
2
100
AcDbEntity
  8
KR-TEXTOS
  6
CONTINUOUS
100
AcDbText
 10
280.986711080694
 20
223.395915516012
 30
-0.0000002421443926
 40
2.0
  1
CONT.
 50
90.0
  7
DEYP
 72
     1
 11
279.986711080694
 21
227.6816298017263
 31
-0.0000002421443926
100
AcDbText
 73
     2
  0
LINE
  5
20E
330
2
100
AcDbEntity
  8
9
100
AcDbLine
 10
282.0596097217399
 20
220.9999999941494
 30
-0.000000202311503
 11
280.9989495499598
 21
219.9393398223699
 31
-0.000000202311503
  0
LINE
  5
20F
330
2
100
AcDbEntity
  8
7
100
AcDbLine
 10
283.5596097217398
 20
221.9999999941671
 30
-0.0000001974752295
 11
280.5596097217398
 21
221.9999999941671
 31
-0.0000001974752295
  0
LINE
  5
210
330
2
100
AcDbEntity
  8
7
100
AcDbLine
 10
283.5596097217398
 20
221.9999999941671
 30
-0.0000001974752295
 11
280.5596097217398
 21
221.9999999941671
 31
-0.0000001974752295
  0
LINE
  5
211
330
2
100
AcDbEntity
  8
7
100
AcDbLine
 10
283.5596097217398
 20
220.9999999941499
 30
-0.000000202311503
 11
280.5596097217398
 21
220.9999999941499
 31
-0.000000202311503
  0
LINE
  5
212
330
2
100
AcDbEntity
  8
7
100
AcDbLine
 10
283.5596097217398
 20
220.9999999941499
 30
-0.000000202311503
 11
280.5596097217398
 21
220.9999999941499
 31
-0.000000202311503
  0
LINE
  5
213
330
2
100
AcDbEntity
  8
0
100
AcDbLine
 10
282.0596097217403
 20
220.9999999941499
 30
-0.000000202311503
 11
283.1202698935203
 21
219.9393398223701
 31
-0.000000202311503
  0
LINE
  5
214
330
2
100
AcDbEntity
  8
9
100
AcDbLine
 10
282.0596097217399
 20
221.9999999941676
 30
-0.0000001974752295
 11
280.9989495499594
 21
223.0606601659471
 31
-0.0000001974752295
  0
LINE
  5
215
330
2
100
AcDbEntity
  8
0
100
AcDbLine
 10
282.0596097217403
 20
221.9999999941671
 30
-0.0000001974752295
 11
283.1202698935198
 21
223.0606601659467
 31
-0.0000001974752295
  0
CIRCLE
  5
216
330
2
100
AcDbEntity
  8
0
  6
RAYITAS
 62
     9
100
AcDbCircle
 10
293.8138884138357
 20
221.4999999941665
 30
-0.0000002066365992
 40
4.54103961029341
  0
TEXT
  5
217
330
2
100
AcDbEntity
  8
KR-TEXTOS
  6
CONTINUOUS
100
AcDbText
 10
280.986711080694
 20
263.9676345839345
 30
-0.0000002421443926
 40
2.0
  1
CONT.
 50
90.0
  7
DEYP
 72
     1
 11
279.986711080694
 21
268.2533488696487
 31
-0.0000002421443926
100
AcDbText
 73
     2
  0
LINE
  5
218
330
2
100
AcDbEntity
  8
9
100
AcDbLine
 10
398.8138884138353
 20
317.7384092168641
 30
-0.000000353535687
 11
399.8745485856158
 21
318.7990693886436
 31
-0.000000353535687
  0
LINE
  5
219
330
2
100
AcDbEntity
  8
0
100
AcDbLine
 10
398.8138884138353
 20
317.7384092168636
 30
-0.000000353535687
 11
398.8138884138353
 21
323.5615795007912
 31
-0.000000353535687
  0
LINE
  5
21A
330
2
100
AcDbEntity
  8
0
100
AcDbLine
 10
398.8138884138349
 20
317.7384092168636
 30
-0.000000353535687
 11
397.7532282420548
 21
318.7990693886431
 31
-0.000000353535687
  0
LINE
  5
21B
330
2
100
AcDbEntity
  8
0
 62
     7
100
AcDbLine
 10
239.1994451238656
 20
309.201994654247
 30
-0.0000001280805562
 11
275.8790027432419
 21
309.201994654247
 31
-0.0000001280805562
  0
TEXT
  5
21C
330
2
100
AcDbEntity
  8
KR-TEXTOS
  6
CONTINUOUS
100
AcDbText
 10
238.860218068065
 20
310.1561419931133
 30
-0.0000001280805562
 40
2.0
  1
CELOSIA TRANSV.
  7
DEYP
100
AcDbText
  0
LINE
  5
21D
330
2
100
AcDbEntity
  8
0
 62
     7
100
AcDbLine
 10
190.8706869271541
 20
377.5057529359894
 30
-0.0000001923813101
 11
261.7535569634369
 21
377.5057529359894
 31
-0.0000001923813101
  0
TEXT
  5
21E
330
2
100
AcDbEntity
  8
KR-GRUESA
  6
CONTINUOUS
 62
     5
100
AcDbText
 10
190.3212371651923
 20
378.7948879119846
 30
-0.0000001923813101
 40
3.5
  1
PÓRTICO 1 . BLOQUE SUR
  7
ROMANS
 72
     1
 11
226.237903831859
 21
378.7948879119846
 31
-0.0000001923813101
100
AcDbText
  0
LINE
  5
220
330
2
100
AcDbEntity
  8
9
100
AcDbLine
 10
293.8138884138357
 20
306.9872436674141
 30
-0.000000168532183
 11
191.7487358690991
 21
301.8839860401773
 31
-0.0000001695788186
  0
TEXT
  5
221
330
2
100
AcDbEntity
  8
KR-TEXTOS
100
AcDbText
 10
157.9311695643431
 20
366.1007443126907
 30
-0.0000001280805562
 40
2.0
  1
VER RESTO DEFINICIÓN DE PERFILES Y ARMADURAS EN PLANOS DE PLANTA Y DETALLES
  7
ROMANS
 72
     1
 11
226.3121219452955
 21
367.1007443126907
 31
-0.0000001280805562
100
AcDbText
 73
     2
  0
TEXT
  5
222
330
2
100
AcDbEntity
  8
KR-TEXTOS
  6
CONTINUOUS
100
AcDbText
 10
158.1609123553652
 20
299.2033456447651
 30
-0.0000001695788186
 40
2.0
  1
IPE 500 A52d CONT.
 50
2.862405226112398
  7
DEYP
 72
     1
 11
174.2336910660208
 21
301.0082338000231
 31
-0.0000001695788186
100
AcDbText
 73
     2
  0
LWPOLYLINE
  5
223
330
2
100
AcDbEntity
  8
0
 62
     7
100
AcDbPolyline
 90
        2
 70
     1
 43
0.7199999999999882
 38
-0.0000001695788186
 10
134.2925490407506
 20
296.0306410633766
 42
-1.0
 10
135.0125490407499
 20
296.0306410633766
 42
-1.0
  0
TEXT
  5
224
330
2
100
AcDbEntity
  8
KR-TEXTOS
  6
CONTINUOUS
100
AcDbText
 10
133.8275084990969
 20
292.2918539055381
 30
-0.0000001280805562
 40
2.0
  1
A
  7
DEYP
100
AcDbText
  0
LWPOLYLINE
  5
225
330
2
100
AcDbEntity
  8
0
 62
     7
100
AcDbPolyline
 90
        2
 70
     1
 43
0.7199999999999882
 38
-0.0000001695788186
 10
213.8177252939999
 20
300.0121118998306
 42
-1.0
 10
214.5377252939993
 20
300.0121118998306
 42
-1.0
  0
TEXT
  5
226
330
2
100
AcDbEntity
  8
KR-TEXTOS
  6
CONTINUOUS
100
AcDbText
 10
213.3189552569461
 20
296.2712738438645
 30
-0.0000001280805562
 40
2.0
  1
A
  7
DEYP
100
AcDbText
  0
LINE
  5
227
330
2
100
AcDbEntity
  8
0
100
AcDbLine
 10
289.4247270467672
 20
291.9454792485007
 30
-0.0000001837850525
 11
275.8790027432419
 21
309.201994654247
 31
-0.0000001280805562
  0
LINE
  5
228
330
2
100
AcDbEntity
  8
9
100
AcDbLine
 10
282.0596097217407
 20
303.9834960082382
 30
-0.000000179605778
 11
280.9989495499607
 21
302.9228358364587
 31
-0.000000179605778
  0
LINE
  5
229
330
2
100
AcDbEntity
  8
7
100
AcDbLine
 10
283.5596097217408
 20
303.9834960082387
 30
-0.000000179605778
 11
280.5596097217407
 21
303.9834960082387
 31
-0.000000179605778
  0
LINE
  5
22A
330
2
100
AcDbEntity
  8
7
100
AcDbLine
 10
283.5596097217408
 20
303.9834960082387
 30
-0.000000179605778
 11
280.5596097217407
 21
303.9834960082387
 31
-0.000000179605778
  0
LINE
  5
22B
330
2
100
AcDbEntity
  8
0
100
AcDbLine
 10
282.0596097217412
 20
303.9834960082387
 30
-0.000000179605778
 11
283.1202698935212
 21
302.9228358364589
 31
-0.000000179605778
  0
LWPOLYLINE
  5
22C
330
2
100
AcDbEntity
  8
9
100
AcDbPolyline
 90
        7
 70
     0
 43
0.0
 38
-0.0000001837850525
 10
291.5460473903267
 20
285.7909651963848
 10
290.4853872185471
 20
286.8516253681645
 10
290.4853872185471
 20
290.8848190767209
 10
289.4247270467672
 20
291.9454792485007
 10
290.4853872185471
 20
293.0061394202805
 10
290.4853872185471
 20
297.3817962261652
 10
291.5460473903267
 20
298.442456397945
  0
CIRCLE
  5
22D
330
2
100
AcDbEntity
  8
0
  6
RAYITAS
 62
     9
100
AcDbCircle
 10
293.8138884138357
 20
303.9834960082385
 30
-0.0000001695788186
 40
4.54103961029341
  0
LWPOLYLINE
  5
22E
330
2
100
AcDbEntity
  8
0
 62
     7
100
AcDbPolyline
 90
        2
 70
     1
 43
0.3599999999999941
 38
-0.0000001695788186
 10
293.6338884138358
 20
303.9834960082385
 42
-1.0
 10
293.9938884138355
 20
303.9834960082385
 42
-1.0
  0
LWPOLYLINE
  5
22F
330
2
100
AcDbEntity
  8
0
 62
     7
100
AcDbPolyline
 90
        2
 70
     1
 43
1.033596233139957
 38
-0.0000001695788186
 10
293.2970902972661
 20
303.9834960082385
 42
-1.0
 10
294.3306865304052
 20
303.9834960082385
 42
-1.0
  0
TEXT
  5
230
330
2
100
AcDbEntity
  8
KR-TEXTOS
  6
CONTINUOUS
100
AcDbText
 10
262.665567168467
 20
298.5931688268576
 30
-0.0000001180949148
 40
2.0
  1
%%c200.8 A52
 50
311.078860143998
  7
DEYP
100
AcDbText
  0
TEXT
  5
231
330
2
100
AcDbEntity
  8
KR-TEXTOS
  6
CONTINUOUS
100
AcDbText
 10
299.311954228282
 20
281.9605307891488
 30
-0.0000001280805562
 40
2.0
  1
A
  7
DEYP
100
AcDbText
  0
LWPOLYLINE
  5
232
330
2
100
AcDbEntity
  8
0
 62
     7
100
AcDbPolyline
 90
        2
 70
     1
 43
0.7199999999999882
 38
-0.0000001695788186
 10
397.4538884138352
 20
299.235361832569
 42
-1.0
 10
398.1738884138345
 20
299.235361832569
 42
-1.0
  0
LINE
  5
233
330
2
100
AcDbEntity
  8
0
100
AcDbLine
 10
397.8138884138349
 20
303.2353618325692
 30
-0.0000001614934419
 11
397.8138884138349
 21
295.2353618325692
 31
-0.0000001614934419
  0
LINE
  5
234
330
2
100
AcDbEntity
  8
0
100
AcDbLine
 10
399.8138884138353
 20
315.2256057382438
 30
-0.0000001614934419
 11
399.8138884138349
 21
311.4756057382438
 31
-0.0000001614934419
  0
LINE
  5
235
330
2
100
AcDbEntity
  8
0
100
AcDbLine
 10
397.8138884138349
 20
315.2256057382438
 30
-0.0000001614934419
 11
397.8138884138349
 21
311.4756057382438
 31
-0.0000001614934419
  0
TEXT
  5
236
330
2
100
AcDbEntity
  8
KR-TEXTOS
  6
CONTINUOUS
100
AcDbText
 10
419.7389638516507
 20
280.696791048201
 30
-0.0000003529613883
 40
2.0
  1
APOYOS EN DILATACION EN SOPORTE
  7
DEYP
100
AcDbText
  0
LINE
  5
237
330
2
100
AcDbEntity
  8
0
100
AcDbLine
 10
408.8686078942265
 20
299.2353618325692
 30
-0.0000003927045342
 11
408.8686078942265
 21
260.2499255861002
 31
-0.000000386374274
  0
LINE
  5
238
330
2
100
AcDbEntity
  8
0
 62
     7
100
AcDbLine
 10
408.868607894226
 20
163.7637608099401
 30
-0.0000003448760116
 11
488.9898100801139
 21
163.7637608099401
 31
-0.0000003448760116
  0
TEXT
  5
239
330
2
100
AcDbEntity
  8
KR-TEXTOS
  6
CONTINUOUS
100
AcDbText
 10
419.7389638516507
 20
164.7179081488063
 30
-0.0000003448760116
 40
2.0
  1
APOYOS EN DILATACION SOBRE ENCAVALLADA
  7
DEYP
100
AcDbText
  0
TEXT
  5
23A
330
2
100
AcDbEntity
  8
KR-TEXTOS
  6
CONTINUOUS
100
AcDbText
 10
415.4309591746856
 20
144.9891676137845
 30
-0.0000003448760116
 40
2.0
  1
P1
  7
DEYP
100
AcDbText
  0
LINE
  5
23B
330
2
100
AcDbEntity
  8
0
 62
     7
100
AcDbLine
 10
411.7486113228202
 20
144.0350202749182
 30
-0.0000003448760116
 11
419.5753243342675
 21
144.0350202749182
 31
-0.0000003448760116
  0
TEXT
  5
23C
330
2
100
AcDbEntity
  8
KR-TEXTOS
  6
CONTINUOUS
100
AcDbText
 10
415.4309591746851
 20
176.0113138926405
 30
-0.0000003448760116
 40
2.0
  1
2%%D) UNION DE TIRANTES
  7
DEYP
100
AcDbText
  0
TEXT
  5
23D
330
2
100
AcDbEntity
  8
KR-TEXTOS
  6
CONTINUOUS
100
AcDbText
 10
415.4309591746851
 20
179.8133627956806
 30
-0.0000003448760116
 40
2.0
  1
1%%D) TERMINACION DE P2
  7
DEYP
100
AcDbText
  0
LINE
  5
23E
330
2
100
AcDbEntity
  8
0
 62
     7
100
AcDbLine
 10
411.7486113228202
 20
182.7675101345469
 30
-0.0000003448760116
 11
454.5291534582839
 21
182.7675101345469
 31
-0.0000003448760116
  0
TEXT
  5
23F
330
2
100
AcDbEntity
  8
KR-TEXTOS
  6
CONTINUOUS
100
AcDbText
 10
415.4309591746856
 20
183.7216574734132
 30
-0.0000003448760116
 40
2.0
  1
M2 : APUNTALADA HASTA:
  7
DEYP
100
AcDbText
  0
LINE
  5
240
330
2
100
AcDbEntity
  8
0
100
AcDbLine
 10
403.8686078942265
 20
221.4999999941753
 30
-0.000000386374274
 11
408.8686078942265
 21
221.4999999941756
 31
-0.000000386374274
  0
LINE
  5
241
330
2
100
AcDbEntity
  8
0
 62
     7
100
AcDbLine
 10
411.7486113228202
 20
221.4999999941756
 30
-0.0000003448760116
 11
419.5753243342675
 21
221.4999999941756
 31
-0.0000003448760116
  0
TEXT
  5
242
330
2
100
AcDbEntity
  8
KR-TEXTOS
  6
CONTINUOUS
100
AcDbText
 10
415.4309591746856
 20
222.4541473330418
 30
-0.0000003448760116
 40
2.0
  1
P2
  7
DEYP
100
AcDbText
  0
LINE
  5
243
330
2
100
AcDbEntity
  8
0
100
AcDbLine
 10
403.8686078942265
 20
260.2499255861002
 30
-0.000000386374274
 11
408.8686078942265
 21
260.2499255861002
 31
-0.000000386374274
  0
TEXT
  5
244
330
2
100
AcDbEntity
  8
KR-TEXTOS
  6
CONTINUOUS
100
AcDbText
 10
419.7389638516507
 20
276.7884963704684
 30
-0.0000003529613883
 40
2.0
  1
METALICO DE CUBIERTA
  7
DEYP
100
AcDbText
  0
LINE
  5
245
330
2
100
AcDbEntity
  8
0
 62
     7
100
AcDbLine
 10
408.868607894226
 20
279.7426437093347
 30
-0.0000003529613883
 11
476.7794346128804
 21
279.7426437093347
 31
-0.0000003529613883
  0
LINE
  5
246
330
2
100
AcDbEntity
  8
0
 62
     7
100
AcDbLine
 10
411.7486113228202
 20
260.2499255861002
 30
-0.0000003448760116
 11
419.5753243342675
 21
260.2499255861002
 31
-0.0000003448760116
  0
TEXT
  5
247
330
2
100
AcDbEntity
  8
KR-TEXTOS
  6
CONTINUOUS
100
AcDbText
 10
415.4309591746856
 20
261.2040729249665
 30
-0.0000003448760116
 40
2.0
  1
M3
  7
DEYP
100
AcDbText
  0
LWPOLYLINE
  5
248
330
2
100
AcDbEntity
  8
0
100
AcDbPolyline
 90
        2
 70
     1
 43
0.5
 38
-0.0000001574507535
 10
408.6186078942265
 20
163.7637608099401
 42
1.0
 10
409.1186078942265
 20
163.7637608099401
 42
1.0
  0
LWPOLYLINE
  5
249
330
2
100
AcDbEntity
  8
0
100
AcDbPolyline
 90
        2
 70
     1
 43
0.5
 38
-0.0000001655361303
 10
408.6186078942265
 20
279.7426437093347
 42
1.0
 10
409.1186078942265
 20
279.7426437093347
 42
1.0
  0
LINE
  5
24A
330
2
100
AcDbEntity
  8
0
100
AcDbLine
 10
403.868607894226
 20
299.2353618325692
 30
-0.0000001695788186
 11
408.868607894226
 21
299.2353618325692
 31
-0.0000001695788186
  0
LINE
  5
24B
330
2
100
AcDbEntity
  8
0
 62
     7
100
AcDbLine
 10
411.7486113228202
 20
299.2353618325692
 30
-0.0000001280805562
 11
421.0814465614713
 21
299.2353618325692
 31
-0.0000001280805562
  0
TEXT
  5
24C
330
2
100
AcDbEntity
  8
KR-TEXTOS
  6
CONTINUOUS
100
AcDbText
 10
415.4309591746851
 20
300.1895091714355
 30
-0.0000001280805562
 40
2.0
  1
P.C.
  7
DEYP
100
AcDbText
  0
LINE
  5
24D
330
2
100
AcDbEntity
  8
9
100
AcDbLine
 10
0.5
 20
228.4413093438695
 30
0.0000002464694888
 11
128.3911501809047
 21
228.4413093438695
 31
0.0000002342044772
  0
LINE
  5
24E
330
2
100
AcDbEntity
  8
9
100
AcDbLine
 10
0.5
 20
213.3330135027492
 30
0.0000002464694888
 11
138.4755913534013
 21
213.3330135027492
 31
0.0000002331218926
  0
LINE
  5
24F
330
2
100
AcDbEntity
  8
9
100
AcDbLine
 10
0.5
 20
150.9763296246124
 30
0.0000000643007539
 11
133.4503067473633
 21
150.9763296246124
 31
0.0000000520357423
  0
TEXT
  5
250
330
2
100
AcDbEntity
  8
KR-TEXTOS
  6
CONTINUOUS
100
AcDbText
 10
7.830062871535487
 20
210.2601110586799
 30
0.0
 40
2.0
  1
2.0
  7
DEYP
 72
     1
 11
10.21101525248786
 21
211.2601110586799
 31
0.0
100
AcDbText
 73
     2
  0
TEXT
  5
251
330
2
100
AcDbEntity
  8
KR-TEXTOS
  6
CONTINUOUS
100
AcDbText
 10
-26.49035435976998
 20
217.8835287773745
 30
0.0
 40
2.0
  1
HEB 600 A52
  7
DEYP
100
AcDbText
  0
TEXT
  5
252
330
2
100
AcDbEntity
  8
KR-TEXTOS
  6
CONTINUOUS
100
AcDbText
 10
-26.57505208222687
 20
222.8773521391453
 30
0.0
 40
2.0
  1
V. MIX. CONT.
  7
DEYP
100
AcDbText
  0
LWPOLYLINE
  5
253
330
2
100
AcDbEntity
  8
0
 62
     5
100
AcDbPolyline
 90
        2
 70
     0
 43
1.0
 10
0.0
 20
221.4999999941665
 10
-30.0
 20
221.4999999941665
  0
TEXT
  5
254
330
2
100
AcDbEntity
  8
KR-TEXTOS
  6
CONTINUOUS
100
AcDbText
 10
5.242664127354558
 20
214.4059121437956
 30
0.0
 40
2.0
  1
20.1400
  7
DEYP
 72
     1
 11
11.43314031783074
 21
215.4059121437956
 31
0.0
100
AcDbText
 73
     2
  0
INSERT
  5
255
330
2
100
AcDbEntity
  8
KR-TEXTOS
  6
CONTINUOUS
100
AcDbBlockReference
  2
SIM10
 10
3.661622993936816
 20
215.4059121437956
 30
0.0
 41
2.0
 42
2.0
 43
2.0
  0
LINE
  5
256
330
2
100
AcDbEntity
  8
0
100
AcDbLine
 10
0.5
 20
150.9763296246119
 30
0.0000000643007539
 11
1.560660171779545
 21
149.9156694528321
 31
0.0000000643007539
  0
LINE
  5
257
330
2
100
AcDbEntity
  8
7
100
AcDbLine
 10
0.5
 20
149.4763296246123
 30
0.0000000643007539
 11
0.5
 21
152.4763296246123
 31
0.0000000643007539
  0
LINE
  5
258
330
2
100
AcDbEntity
  8
9
100
AcDbLine
 10
0.5000000000004548
 20
150.9763296246124
 30
0.0000000643007539
 11
1.56066017178
 21
152.0369897963926
 31
0.0000000643007539
  0
LINE
  5
259
330
2
100
AcDbEntity
  8
9
100
AcDbLine
 10
19.99999999999954
 20
213.3330135027497
 30
0.0000001821687349
 11
18.93933982822
 21
214.3936736745297
 31
0.0000001821687349
  0
LINE
  5
25A
330
2
100
AcDbEntity
  8
0
100
AcDbLine
 10
20.0
 20
213.3330135027492
 30
0.0000001821687349
 11
18.93933982822
 21
212.2723533309692
 31
0.0000001821687349
  0
LINE
  5
25B
330
2
100
AcDbEntity
  8
0
100
AcDbLine
 10
20.0
 20
213.3330135027492
 30
0.0000001821687349
 11
21.06066017177954
 21
212.2723533309692
 31
0.0000001821687349
  0
LINE
  5
25C
330
2
100
AcDbEntity
  8
9
100
AcDbLine
 10
20.00000000000045
 20
213.3330135027497
 30
0.0000001821687349
 11
21.06066017178
 21
214.3936736745297
 31
0.0000001821687349
  0
LINE
  5
25D
330
2
100
AcDbEntity
  8
7
100
AcDbLine
 10
20.0
 20
211.8330135027497
 30
0.0000001821687349
 11
20.0
 21
214.8330135027497
 31
0.0000001821687349
  0
LINE
  5
25E
330
2
100
AcDbEntity
  8
7
100
AcDbLine
 10
20.0
 20
211.8330135027497
 30
0.0000001821687349
 11
20.0
 21
214.8330135027497
 31
0.0000001821687349
  0
LINE
  5
25F
330
2
100
AcDbEntity
  8
7
100
AcDbLine
 10
0.5
 20
226.9413093438695
 30
0.0000002464694888
 11
0.5
 21
229.9413093438695
 31
0.0000002464694888
  0
LINE
  5
260
330
2
100
AcDbEntity
  8
0
100
AcDbLine
 10
0.5
 20
228.441309343869
 30
0.0000002464694888
 11
1.560660171779545
 21
227.380649172089
 31
0.0000002464694888
  0
LINE
  5
261
330
2
100
AcDbEntity
  8
7
100
AcDbLine
 10
0.5
 20
211.8330135027493
 30
0.0000002464694888
 11
0.5
 21
214.8330135027492
 31
0.0000002464694888
  0
LINE
  5
262
330
2
100
AcDbEntity
  8
0
100
AcDbLine
 10
0.5
 20
213.3330135027488
 30
0.0000002464694888
 11
1.560660171779545
 21
212.2723533309688
 31
0.0000002464694888
  0
LINE
  5
263
330
2
100
AcDbEntity
  8
9
100
AcDbLine
 10
0.5000000000004548
 20
213.3330135027492
 30
0.0000002464694888
 11
1.56066017178
 21
214.3936736745292
 31
0.0000002464694888
  0
LINE
  5
264
330
2
100
AcDbEntity
  8
9
100
AcDbLine
 10
0.5000000000004548
 20
228.4413093438695
 30
0.0000002464694888
 11
1.56066017178
 21
229.5019695156495
 31
0.0000002464694888
  0
LINE
  5
265
330
2
100
AcDbEntity
  8
9
100
AcDbLine
 10
155.1193876869069
 20
213.3330135027492
 30
0.0000002296597773
 11
293.3138884138356
 21
213.3330135027492
 31
0.0000001763361448
  0
LINE
  5
266
330
2
100
AcDbEntity
  8
9
100
AcDbLine
 10
165.4227382329309
 20
228.4413093438695
 30
0.0000002253348531
 11
293.3138884138356
 21
228.4413093438695
 31
0.0000001763361448
  0
LINE
  5
267
330
2
100
AcDbEntity
  8
9
100
AcDbLine
 10
159.6243722502249
 20
150.9763296246124
 30
0.0000000431661182
 11
293.3138884138356
 21
150.9763296246124
 31
-0.0000000058325901
  0
TEXT
  5
268
330
2
100
AcDbEntity
  8
KR-TEXTOS
  6
CONTINUOUS
100
AcDbText
 10
114.8117061116795
 20
203.4774924756222
 30
0.0
 40
2.0
  1
CONTRAFLECHA DE EJECUCION = L/1000
  7
DEYP
 72
     1
 11
146.9069442069176
 21
204.4774924756223
 31
0.0
100
AcDbText
 73
     2
  0
INSERT
  5
269
330
2
100
AcDbEntity
  8
KR-TEXTOS
  6
CONTINUOUS
100
AcDbBlockReference
  2
SIM10
 10
141.6072573803221
 20
208.5129277704652
 30
0.0
 41
2.0
 42
2.0
 43
2.0
  0
TEXT
  5
26A
330
2
100
AcDbEntity
  8
KR-TEXTOS
  6
CONTINUOUS
100
AcDbText
 10
143.0133274441172
 20
207.5129277704652
 30
0.0
 40
2.0
  1
600.35
  7
DEYP
 72
     1
 11
148.2990417298315
 21
208.5129277704652
 31
0.0
100
AcDbText
 73
     2
  0
TEXT
  5
26B
330
2
100
AcDbEntity
  8
KR-TEXTOS
  6
CONTINUOUS
100
AcDbText
 10
124.975646308032
 20
246.1575231363911
 30
-0.0000000102125752
 40
2.0
  1
PERFIL DE FORJADO MIXT. CONT. EN VOLADIZO
  7
DEYP
100
AcDbText
  0
LINE
  5
26C
330
2
100
AcDbEntity
  8
0
 62
     7
100
AcDbLine
 10
197.7437263964259
 20
245.2033757975248
 30
-0.0000000102125752
 11
123.7872707863677
 21
245.2033757975248
 31
-0.0000000102125752
  0
TEXT
  5
26D
330
2
100
AcDbEntity
  8
KR-TEXTOS
  6
CONTINUOUS
100
AcDbText
 10
130.0498013497747
 20
227.4413093438695
 30
0.0
 40
2.0
  1
V. MIX. SIN INT. A52d
  7
DEYP
 72
     1
 11
146.9069442069176
 21
228.4413093438695
 31
0.0
100
AcDbText
 73
     2
  0
TEXT
  5
26E
330
2
100
AcDbEntity
  8
KR-TEXTOS
  6
CONTINUOUS
100
AcDbText
 10
124.975646308032
 20
242.2492284586585
 30
-0.0000000102125752
 40
2.0
  1
IPE 500 A52
  7
DEYP
100
AcDbText
  0
LINE
  5
26F
330
2
100
AcDbEntity
  8
0
100
AcDbLine
 10
106.3217870513501
 20
225.1708510425968
 30
-0.0000000026302925
 11
123.7872707863677
 21
245.2033757975248
 31
-0.0000000102125752
  0
CIRCLE
  5
270
330
2
100
AcDbEntity
  8
0
  6
RAYITAS
 62
     9
100
AcDbCircle
 10
103.6486066753732
 20
221.4999999941688
 30
0.0
 40
4.54103961029341
  0
TEXT
  5
271
330
2
100
AcDbEntity
  8
KR-TEXTOS
  6
CONTINUOUS
100
AcDbText
 10
141.8580156262716
 20
212.3330135027492
 30
0.0
 40
2.0
  1
15.1400
  7
DEYP
 72
     1
 11
148.1913489596049
 21
213.3330135027492
 31
0.0
100
AcDbText
 73
     2
  0
INSERT
  5
272
330
2
100
AcDbEntity
  8
KR-TEXTOS
  6
CONTINUOUS
100
AcDbBlockReference
  2
SIM10
 10
141.6072573803221
 20
218.1530992350337
 30
0.0
 41
2.0
 42
2.0
 43
2.0
  0
TEXT
  5
273
330
2
100
AcDbEntity
  8
KR-TEXTOS
  6
CONTINUOUS
100
AcDbText
 10
143.0133274441172
 20
217.1530992350337
 30
0.0
 40
2.0
  1
600.35
  7
DEYP
 72
     1
 11
148.2990417298315
 21
218.1530992350337
 31
0.0
100
AcDbText
 73
     2
  0
INSERT
  5
274
330
2
100
AcDbEntity
  8
KR-TEXTOS
  6
CONTINUOUS
100
AcDbBlockReference
  2
SIM10
 10
140.6866899724459
 20
213.3330135027492
 30
0.0
 41
2.0
 42
2.0
 43
2.0
  0
LINE
  5
275
330
2
100
AcDbEntity
  8
7
100
AcDbLine
 10
293.3138884138356
 20
149.4763296246123
 30
-0.0000000058325901
 11
293.3138884138356
 21
152.4763296246123
 31
-0.0000000058325901
  0
LINE
  5
276
330
2
100
AcDbEntity
  8
0
100
AcDbLine
 10
293.3138884138356
 20
150.9763296246119
 30
-0.0000000058325901
 11
292.2532282420556
 21
149.9156694528321
 31
-0.0000000058325901
  0
LINE
  5
277
330
2
100
AcDbEntity
  8
9
100
AcDbLine
 10
293.3138884138352
 20
150.9763296246124
 30
-0.0000000058325901
 11
292.2532282420556
 21
152.0369897963926
 31
-0.0000000058325901
  0
LWPOLYLINE
  5
278
330
2
100
AcDbEntity
  8
0
  6
TRAZOS
 62
     5
100
AcDbPolyline
 90
        2
 70
     0
 43
1.0
 38
-0.0000000729735753
 10
293.8138884138357
 20
260.2499255860916
 10
397.8138884138353
 20
260.2499255861002
  0
LWPOLYLINE
  5
279
330
2
100
AcDbEntity
  8
0
 62
     7
100
AcDbPolyline
 90
        2
 70
     1
 43
1.033596233139957
 38
-0.000000070133344
 10
293.2970902972661
 20
280.2499255860914
 42
-1.0
 10
294.3306865304052
 20
280.2499255860914
 42
-1.0
  0
LINE
  5
27A
330
2
100
AcDbEntity
  8
0
 62
     5
100
AcDbLine
 10
290.8138884138352
 20
280.2499255860918
 30
-0.0000000701775056
 11
296.8138884138352
 21
280.2499255860914
 31
-0.0000000700891824
  0
LWPOLYLINE
  5
27B
330
2
100
AcDbEntity
  8
0
  6
TRAZOS
 62
     5
100
AcDbPolyline
 90
        2
 70
     0
 43
1.0
 10
397.8138884138349
 20
221.4999999941753
 10
293.8138884138357
 20
221.499999994173
  0
LINE
  5
27C
330
2
100
AcDbEntity
  8
0
100
AcDbLine
 10
273.8138884138361
 20
213.3330135027488
 30
0.0000001120353909
 11
274.8745485856161
 21
212.2723533309688
 31
0.0000001120353909
  0
LINE
  5
27D
330
2
100
AcDbEntity
  8
9
100
AcDbLine
 10
273.8138884138365
 20
213.3330135027492
 30
0.0000001120353909
 11
274.8745485856161
 21
214.3936736745292
 31
0.0000001120353909
  0
LINE
  5
27E
330
2
100
AcDbEntity
  8
7
100
AcDbLine
 10
273.8138884138361
 20
211.8330135027493
 30
0.0000001120353909
 11
273.8138884138361
 21
214.8330135027492
 31
0.0000001120353909
  0
LINE
  5
27F
330
2
100
AcDbEntity
  8
7
100
AcDbLine
 10
273.8138884138361
 20
211.8330135027493
 30
0.0000001120353909
 11
273.8138884138361
 21
214.8330135027492
 31
0.0000001120353909
  0
LINE
  5
280
330
2
100
AcDbEntity
  8
9
100
AcDbLine
 10
273.8138884138356
 20
213.3330135027492
 30
0.0000001120353909
 11
272.7532282420561
 21
214.3936736745292
 31
0.0000001120353909
  0
LINE
  5
281
330
2
100
AcDbEntity
  8
0
100
AcDbLine
 10
273.8138884138361
 20
213.3330135027488
 30
0.0000001120353909
 11
272.7532282420566
 21
212.2723533309688
 31
0.0000001120353909
  0
LINE
  5
282
330
2
100
AcDbEntity
  8
7
100
AcDbLine
 10
293.3138884138356
 20
226.9413093438695
 30
0.0000001763361448
 11
293.3138884138356
 21
229.9413093438695
 31
0.0000001763361448
  0
LINE
  5
283
330
2
100
AcDbEntity
  8
0
100
AcDbLine
 10
293.3138884138356
 20
228.441309343869
 30
0.0000001763361448
 11
292.2532282420556
 21
227.380649172089
 31
0.0000001763361448
  0
LINE
  5
284
330
2
100
AcDbEntity
  8
7
100
AcDbLine
 10
293.3138884138356
 20
211.8330135027493
 30
0.0000001763361448
 11
293.3138884138356
 21
214.8330135027492
 31
0.0000001763361448
  0
LINE
  5
285
330
2
100
AcDbEntity
  8
0
100
AcDbLine
 10
293.3138884138356
 20
213.3330135027488
 30
0.0000001763361448
 11
292.2532282420556
 21
212.2723533309688
 31
0.0000001763361448
  0
LINE
  5
286
330
2
100
AcDbEntity
  8
9
100
AcDbLine
 10
293.3138884138352
 20
213.3330135027492
 30
0.0000001763361448
 11
292.2532282420556
 21
214.3936736745292
 31
0.0000001763361448
  0
LINE
  5
287
330
2
100
AcDbEntity
  8
9
100
AcDbLine
 10
293.3138884138352
 20
228.4413093438695
 30
0.0000001763361448
 11
292.2532282420556
 21
229.5019695156495
 31
0.0000001763361448
  0
LINE
  5
288
330
2
100
AcDbEntity
  8
9
100
AcDbLine
 10
326.8459232329287
 20
305.4785389158017
 30
-0.000000018168358
 11
293.8073785748929
 21
306.9869181754669
 31
0.0000000521838841
  0
LWPOLYLINE
  5
289
330
2
100
AcDbEntity
  8
0
 62
     7
100
AcDbPolyline
 90
        2
 70
     1
 43
0.7199999999999882
 38
-0.0000000562744277
 10
345.453888413836
 20
301.5506595162976
 42
-1.0
 10
346.1738884138353
 20
301.5506595162976
 42
-1.0
  0
TEXT
  5
28A
330
2
100
AcDbEntity
  8
KR-TEXTOS
  6
CONTINUOUS
100
AcDbText
 10
328.0441285553434
 20
304.3747843920084
 30
-0.0000000551539316
 40
2.0
  1
IPE 500 A52d CONT.
 50
357.5562040859874
  7
DEYP
 72
     1
 11
344.2149435945693
 21
304.6855539237153
 31
-0.0000000551539316
100
AcDbText
 73
     2
  0
LINE
  5
28B
330
2
100
AcDbEntity
  8
0
 62
     7
100
AcDbLine
 10
239.1994451238656
 20
318.4738346822255
 30
0.000000078556043
 11
275.8790027432419
 21
318.4738346822255
 31
0.000000078556043
  0
TEXT
  5
28C
330
2
100
AcDbEntity
  8
KR-TEXTOS
  6
CONTINUOUS
100
AcDbText
 10
238.860218068065
 20
319.4279820210918
 30
0.000000078556043
 40
2.0
  1
V. TRANSV. CONT.
  7
DEYP
100
AcDbText
  0
TEXT
  5
28D
330
2
100
AcDbEntity
  8
KR-TEXTOS
  6
CONTINUOUS
100
AcDbText
 10
238.860218068065
 20
315.5196873433592
 30
0.000000078556043
 40
2.0
  1
HEB 160 A52d
  7
DEYP
100
AcDbText
  0
ARC
  5
28E
330
2
100
AcDbEntity
  8
0
  6
TRAZO_Y_PUNTO
100
AcDbCircle
 10
293.8154507751801
 20
303.2626746881035
 30
-0.0000063881287345
 40
0.72
210
0.0000000011130604
220
-0.0000000222612086
230
0.9999999999999998
100
AcDbArc
 50
87.38596858983061
 51
92.86240522611254
  0
TEXT
  5
28F
330
2
100
AcDbEntity
  8
KR-TEXTOS
  6
CONTINUOUS
100
AcDbText
 10
292.9396784436044
 20
308.9200976907438
 30
0.000000078556043
 40
2.0
  1
A
  7
DEYP
100
AcDbText
  0
TEXT
  5
290
330
2
100
AcDbEntity
  8
KR-TEXTOS
  6
CONTINUOUS
100
AcDbText
 10
345.0778148048893
 20
297.6988232950692
 30
0.0000000976642508
 40
2.0
  1
A
  7
DEYP
100
AcDbText
  0
TEXT
  5
291
330
2
100
AcDbEntity
  8
KR-TEXTOS
  6
CONTINUOUS
100
AcDbText
 10
394.3176098823438
 20
296.2933590077794
 30
0.0000000968002759
 40
2.0
  1
A
  7
DEYP
100
AcDbText
  0
ENDSEC
  0
SECTION
  2
OBJECTS
  0
DICTIONARY
  5
7
330
0
100
AcDbDictionary
  3
ACAD_GROUP
350
1F
  3
ACAD_LAYOUT
350
B
  3
ACAD_MLINESTYLE
350
20
  3
ACAD_PLOTSETTINGS
350
21
  3
ACAD_PLOTSTYLENAME
350
6
  3
ACDBVARIABLEDICTIONARY
350
294
  3
ACDBHEADERROUNDTRIPXREC
350
2A3
  0
DICTIONARY
  5
2C4
330
2
100
AcDbDictionary
280
     1
  3
ACAD_LAYOUTSELFREF
360
2C5
  0
DICTIONARY
  5
2C6
330
C
100
AcDbDictionary
280
     1
  3
ACAD_LAYOUTSELFREF
360
2C7
  0
DICTIONARY
  5
1F
102
{ACAD_REACTORS
330
7
102
}
330
7
100
AcDbDictionary
  0
DICTIONARY
  5
B
102
{ACAD_REACTORS
330
7
102
}
330
7
100
AcDbDictionary
  0
DICTIONARY
  5
20
102
{ACAD_REACTORS
330
7
102
}
330
7
100
AcDbDictionary
  3
STANDARD
350
2B
  0
DICTIONARY
  5
21
102
{ACAD_REACTORS
330
7
102
}
330
7
100
AcDbDictionary
  0
ACDBDICTIONARYWDFLT
  5
6
102
{ACAD_REACTORS
330
7
102
}
330
7
100
AcDbDictionary
281
     1
  3
Normal
350
5
100
AcDbDictionaryWithDefault
340
5
  0
DICTIONARY
  5
294
102
{ACAD_REACTORS
330
7
102
}
330
7
100
AcDbDictionary
  3
DIMASSOC
350
296
  3
HIDETEXT
350
295
  0
DICTIONARY
  5
2A3
102
{ACAD_REACTORS
330
7
102
}
330
7
100
AcDbDictionary
  3
TSTACKALIGN
350
2A4
  3
TSTACKSIZE
350
2A5
  3
HYPERLINKBASE
350
2A6
  3
STYLESHEET
350
2A7
  3
LAYOUTDICT
350
2A8
  3
PLOTSETDICT
350
2A9
  3
PLOTSTYLNAMDICT
350
2AA
  3
LWETCUNION
350
2AB
  3
INSUNITS
350
2AC
  3
CEPSNTYPE
350
2AD
  3
FINGERPRINTGUID
350
2AE
  3
VERSIONGUID
350
2AF
  3
PSVPSCALE
350
2B0
  3
DIMSTYLEDATA
350
2B1
  3
PUCSORTHOREF
350
2B2
  3
PUCSORTHOVIEW
350
2B3
  3
PUCSBASE
350
2B4
  3
PUCSORGTOP
350
2B5
  3
PUCSORGBOTTOM
350
2B6
  3
PUCSORGLEFT
350
2B7
  3
PUCSORGRIGHT
350
2B8
  3
PUCSORGFRONT
350
2B9
  3
PUCSORGBACK
350
2BA
  3
UCSORTHOREF
350
2BB
  3
UCSORTHOVIEW
350
2BC
  3
UCSBASE
350
2BD
  3
UCSORGTOP
350
2BE
  3
UCSORGBOTTOM
350
2BF
  3
UCSORGLEFT
350
2C0
  3
UCSORGRIGHT
350
2C1
  3
UCSORGFRONT
350
2C2
  3
UCSORGBACK
350
2C3
  0
XRECORD
  5
2C5
102
{ACAD_REACTORS
330
2C4
102
}
330
2C4
100
AcDbXrecord
340
2
  0
XRECORD
  5
2C7
102
{ACAD_REACTORS
330
2C6
102
}
330
2C6
100
AcDbXrecord
340
C
  0
MLINESTYLE
  5
2B
102
{ACAD_REACTORS
330
20
102
}
330
20
100
AcDbMlineStyle
  2
STANDARD
 70
     0
  3

 62
   256
 51
90.0
 52
90.0
 71
     2
 49
0.5
 62
   256
  6
BYLAYER
 49
-0.5
 62
   256
  6
BYLAYER
  0
ACDBPLACEHOLDER
  5
5
102
{ACAD_REACTORS
330
6
102
}
330
6
100
AcDbPlaceHolder
280
     0
  0
DICTIONARYVAR
  5
296
102
{ACAD_REACTORS
330
294
102
}
330
294
100
DictionaryVariables
280
     0
  1
1
  0
DICTIONARYVAR
  5
295
102
{ACAD_REACTORS
330
294
102
}
330
294
100
DictionaryVariables
280
     0
  1
1
  0
XRECORD
  5
2A4
102
{ACAD_REACTORS
330
2A3
102
}
330
2A3
100
AcDbXrecord
 90
        1
  0
XRECORD
  5
2A5
102
{ACAD_REACTORS
330
2A3
102
}
330
2A3
100
AcDbXrecord
 90
       70
  0
XRECORD
  5
2A6
102
{ACAD_REACTORS
330
2A3
102
}
330
2A3
100
AcDbXrecord
  1

  0
XRECORD
  5
2A7
102
{ACAD_REACTORS
330
2A3
102
}
330
2A3
100
AcDbXrecord
  1
Default R14 pen assignments.ctb
  0
XRECORD
  5
2A8
102
{ACAD_REACTORS
330
2A3
102
}
330
2A3
100
AcDbXrecord
340
B
  0
XRECORD
  5
2A9
102
{ACAD_REACTORS
330
2A3
102
}
330
2A3
100
AcDbXrecord
340
21
  0
XRECORD
  5
2AA
102
{ACAD_REACTORS
330
2A3
102
}
330
2A3
100
AcDbXrecord
340
6
  0
XRECORD
  5
2AB
102
{ACAD_REACTORS
330
2A3
102
}
330
2A3
100
AcDbXrecord
 90
    10781
  0
XRECORD
  5
2AC
102
{ACAD_REACTORS
330
2A3
102
}
330
2A3
100
AcDbXrecord
 90
       15
  0
XRECORD
  5
2AD
102
{ACAD_REACTORS
330
2A3
102
}
330
2A3
100
AcDbXrecord
 90
        0
  0
XRECORD
  5
2AE
102
{ACAD_REACTORS
330
2A3
102
}
330
2A3
100
AcDbXrecord
  1
{27CD6D80-4702-11D7-B009-93383F344F2B}
  0
XRECORD
  5
2AF
102
{ACAD_REACTORS
330
2A3
102
}
330
2A3
100
AcDbXrecord
  1
{F5BB847E-4703-11D7-B009-93383F344F2B}
  0
XRECORD
  5
2B0
102
{ACAD_REACTORS
330
2A3
102
}
330
2A3
100
AcDbXrecord
 40
0.0
  0
XRECORD
  5
2B1
102
{ACAD_REACTORS
330
2A3
102
}
330
2A3
100
AcDbXrecord
1000
DSTYLE
1002
{
1070
   279
 70
     2
1070
   341
340
23
1070
   342
340
23
1070
   343
340
23
1070
   344
340
23
1002
}
  0
XRECORD
  5
2B2
102
{ACAD_REACTORS
330
2A3
102
}
330
2A3
100
AcDbXrecord
340
0
  0
XRECORD
  5
2B3
102
{ACAD_REACTORS
330
2A3
102
}
330
2A3
100
AcDbXrecord
 70
     0
  0
XRECORD
  5
2B4
102
{ACAD_REACTORS
330
2A3
102
}
330
2A3
100
AcDbXrecord
340
0
  0
XRECORD
  5
2B5
102
{ACAD_REACTORS
330
2A3
102
}
330
2A3
100
AcDbXrecord
 10
0.0
 20
0.0
 30
0.0
  0
XRECORD
  5
2B6
102
{ACAD_REACTORS
330
2A3
102
}
330
2A3
100
AcDbXrecord
 10
0.0
 20
0.0
 30
0.0
  0
XRECORD
  5
2B7
102
{ACAD_REACTORS
330
2A3
102
}
330
2A3
100
AcDbXrecord
 10
0.0
 20
0.0
 30
0.0
  0
XRECORD
  5
2B8
102
{ACAD_REACTORS
330
2A3
102
}
330
2A3
100
AcDbXrecord
 10
0.0
 20
0.0
 30
0.0
  0
XRECORD
  5
2B9
102
{ACAD_REACTORS
330
2A3
102
}
330
2A3
100
AcDbXrecord
 10
0.0
 20
0.0
 30
0.0
  0
XRECORD
  5
2BA
102
{ACAD_REACTORS
330
2A3
102
}
330
2A3
100
AcDbXrecord
 10
0.0
 20
0.0
 30
0.0
  0
XRECORD
  5
2BB
102
{ACAD_REACTORS
330
2A3
102
}
330
2A3
100
AcDbXrecord
340
0
  0
XRECORD
  5
2BC
102
{ACAD_REACTORS
330
2A3
102
}
330
2A3
100
AcDbXrecord
 70
     0
  0
XRECORD
  5
2BD
102
{ACAD_REACTORS
330
2A3
102
}
330
2A3
100
AcDbXrecord
340
0
  0
XRECORD
  5
2BE
102
{ACAD_REACTORS
330
2A3
102
}
330
2A3
100
AcDbXrecord
 10
0.0
 20
0.0
 30
0.0
  0
XRECORD
  5
2BF
102
{ACAD_REACTORS
330
2A3
102
}
330
2A3
100
AcDbXrecord
 10
0.0
 20
0.0
 30
0.0
  0
XRECORD
  5
2C0
102
{ACAD_REACTORS
330
2A3
102
}
330
2A3
100
AcDbXrecord
 10
0.0
 20
0.0
 30
0.0
  0
XRECORD
  5
2C1
102
{ACAD_REACTORS
330
2A3
102
}
330
2A3
100
AcDbXrecord
 10
0.0
 20
0.0
 30
0.0
  0
XRECORD
  5
2C2
102
{ACAD_REACTORS
330
2A3
102
}
330
2A3
100
AcDbXrecord
 10
0.0
 20
0.0
 30
0.0
  0
XRECORD
  5
2C3
102
{ACAD_REACTORS
330
2A3
102
}
330
2A3
100
AcDbXrecord
 10
0.0
 20
0.0
 30
0.0
  0
ENDSEC
  0
EOF
