  0
SECTION
  2
HEADER
  9
$ACADVER
  1
AC1014
  9
$ACADMAINTVER
 70
     0
  9
$DWGCODEPAGE
  3
ANSI_1252
  9
$INSBASE
 10
0.0
 20
0.0
 30
0.0
  9
$EXTMIN
 10
-1550.634611
 20
-1711.132961
 30
0.0
  9
$EXTMAX
 10
12000.0
 20
15415.362157
 30
31784.0
  9
$LIMMIN
 10
0.0
 20
0.0
  9
$LIMMAX
 10
420.0
 20
297.0
  9
$ORTHOMODE
 70
     0
  9
$REGENMODE
 70
     1
  9
$FILLMODE
 70
     1
  9
$QTEXTMODE
 70
     0
  9
$MIRRTEXT
 70
     1
  9
$DRAGMODE
 70
     2
  9
$LTSCALE
 40
1.0
  9
$OSMODE
 70
    33
  9
$ATTMODE
 70
     1
  9
$TEXTSIZE
 40
2.5
  9
$TRACEWID
 40
1.0
  9
$TEXTSTYLE
  7
STANDARD
  9
$CLAYER
  8
VIGACURVA
  9
$CELTYPE
  6
BYLAYER
  9
$CECOLOR
 62
   256
  9
$CELTSCALE
 40
1.0
  9
$DELOBJ
 70
     1
  9
$DISPSILH
 70
     0
  9
$DIMSCALE
 40
1.0
  9
$DIMASZ
 40
25.0
  9
$DIMEXO
 40
15.0
  9
$DIMDLI
 40
1.0
  9
$DIMRND
 40
0.0
  9
$DIMDLE
 40
0.0
  9
$DIMEXE
 40
15.0
  9
$DIMTP
 40
0.0
  9
$DIMTM
 40
0.0
  9
$DIMTXT
 40
35.0
  9
$DIMCEN
 40
25.0
  9
$DIMTSZ
 40
0.0
  9
$DIMTOL
 70
     0
  9
$DIMLIM
 70
     0
  9
$DIMTIH
 70
     0
  9
$DIMTOH
 70
     0
  9
$DIMSE1
 70
     0
  9
$DIMSE2
 70
     0
  9
$DIMTAD
 70
     1
  9
$DIMZIN
 70
     0
  9
$DIMBLK
  1
ARCHTICK
  9
$DIMASO
 70
     1
  9
$DIMSHO
 70
     1
  9
$DIMPOST
  1

  9
$DIMAPOST
  1

  9
$DIMALT
 70
     0
  9
$DIMALTD
 70
     2
  9
$DIMALTF
 40
25.4
  9
$DIMLFAC
 40
0.01
  9
$DIMTOFL
 70
     0
  9
$DIMTVP
 40
0.0
  9
$DIMTIX
 70
     1
  9
$DIMSOXD
 70
     0
  9
$DIMSAH
 70
     0
  9
$DIMBLK1
  1

  9
$DIMBLK2
  1

  9
$DIMSTYLE
  2
HEMEROTECA-300
  9
$DIMCLRD
 70
     1
  9
$DIMCLRE
 70
     1
  9
$DIMCLRT
 70
     0
  9
$DIMTFAC
 40
1.0
  9
$DIMGAP
 40
20.0
  9
$DIMJUST
 70
     0
  9
$DIMSD1
 70
     0
  9
$DIMSD2
 70
     0
  9
$DIMTOLJ
 70
     1
  9
$DIMTZIN
 70
     0
  9
$DIMALTZ
 70
     0
  9
$DIMALTTZ
 70
     0
  9
$DIMFIT
 70
     2
  9
$DIMUPT
 70
     0
  9
$DIMUNIT
 70
     2
  9
$DIMDEC
 70
     2
  9
$DIMTDEC
 70
     2
  9
$DIMALTU
 70
     2
  9
$DIMALTTD
 70
     2
  9
$DIMTXSTY
  7
ROMANS
  9
$DIMAUNIT
 70
     0
  9
$LUNITS
 70
     2
  9
$LUPREC
 70
     4
  9
$SKETCHINC
 40
1.0
  9
$FILLETRAD
 40
0.0
  9
$AUNITS
 70
     0
  9
$AUPREC
 70
     0
  9
$MENU
  1
.
  9
$ELEVATION
 40
0.0
  9
$PELEVATION
 40
0.0
  9
$THICKNESS
 40
0.0
  9
$LIMCHECK
 70
     0
  9
$BLIPMODE
 70
     0
  9
$CHAMFERA
 40
10.0
  9
$CHAMFERB
 40
10.0
  9
$CHAMFERC
 40
20.0
  9
$CHAMFERD
 40
0.0
  9
$SKPOLY
 70
     0
  9
$TDCREATE
 40
2452847.776600648
  9
$TDUPDATE
 40
2452820.957193542
  9
$TDINDWG
 40
3.0921860648
  9
$TDUSRTIMER
 40
3.0921860648
  9
$USRTIMER
 70
     1
  9
$ANGBASE
 50
0.0
  9
$ANGDIR
 70
     0
  9
$PDMODE
 70
    35
  9
$PDSIZE
 40
50.0
  9
$PLINEWID
 40
0.0
  9
$COORDS
 70
     1
  9
$SPLFRAME
 70
     0
  9
$SPLINETYPE
 70
     6
  9
$SPLINESEGS
 70
     8
  9
$ATTDIA
 70
     0
  9
$ATTREQ
 70
     1
  9
$HANDLING
 70
     1
  9
$HANDSEED
  5
B34
  9
$SURFTAB1
 70
     6
  9
$SURFTAB2
 70
     6
  9
$SURFTYPE
 70
     6
  9
$SURFU
 70
     6
  9
$SURFV
 70
     6
  9
$UCSNAME
  2

  9
$UCSORG
 10
0.0
 20
0.0
 30
0.0
  9
$UCSXDIR
 10
1.0
 20
0.0
 30
0.0
  9
$UCSYDIR
 10
0.0
 20
1.0
 30
0.0
  9
$PUCSNAME
  2

  9
$PUCSORG
 10
0.0
 20
0.0
 30
0.0
  9
$PUCSXDIR
 10
1.0
 20
0.0
 30
0.0
  9
$PUCSYDIR
 10
0.0
 20
1.0
 30
0.0
  9
$USERI1
 70
     0
  9
$USERI2
 70
     0
  9
$USERI3
 70
     0
  9
$USERI4
 70
     0
  9
$USERI5
 70
     0
  9
$USERR1
 40
0.0
  9
$USERR2
 40
0.0
  9
$USERR3
 40
0.0
  9
$USERR4
 40
0.0
  9
$USERR5
 40
0.0
  9
$WORLDVIEW
 70
     1
  9
$SHADEDGE
 70
     3
  9
$SHADEDIF
 70
    70
  9
$TILEMODE
 70
     1
  9
$MAXACTVP
 70
    48
  9
$PINSBASE
 10
0.0
 20
0.0
 30
0.0
  9
$PLIMCHECK
 70
     0
  9
$PEXTMIN
 10
-0.000001
 20
0.0
 30
0.0
  9
$PEXTMAX
 10
840.999999
 20
594.0
 30
0.0
  9
$PLIMMIN
 10
-20.0
 20
-7.5
  9
$PLIMMAX
 10
277.0
 20
202.5
  9
$UNITMODE
 70
     0
  9
$VISRETAIN
 70
     1
  9
$PLINEGEN
 70
     0
  9
$PSLTSCALE
 70
     1
  9
$TREEDEPTH
 70
  3020
  9
$PICKSTYLE
 70
     0
  9
$CMLSTYLE
  2
STANDARD
  9
$CMLJUST
 70
     0
  9
$CMLSCALE
 40
20.0
  9
$PROXYGRAPHICS
 70
     1
  9
$MEASUREMENT
 70
     0
  0
ENDSEC
  0
SECTION
  2
CLASSES
  0
CLASS
  1
ACDBDICTIONARYWDFLT
  2
AcDbDictionaryWithDefault
  3
AutoCAD 2000
 90
        0
280
     1
281
     0
  0
CLASS
  1
ACDBPLACEHOLDER
  2
AcDbPlaceHolder
  3
AutoCAD 2000
 90
        0
280
     1
281
     0
  0
CLASS
  1
LAYOUT
  2
AcDbLayout
  3
AutoCAD 2000
 90
        0
280
     1
281
     0
  0
CLASS
  1
DICTIONARYVAR
  2
AcDbDictionaryVar
  3
"AutoCAD"
 90
        0
280
     0
281
     0
  0
CLASS
  1
SORTENTSTABLE
  2
AcDbSortentsTable
  3
"AutoCAD"
 90
        0
280
     0
281
     0
  0
CLASS
  1
LONG_TRANSACTION
  2
AcDbLongTransaction
  3
AutoCAD 2000
 90
        0
280
     1
281
     0
  0
CLASS
  1
LWPOLYLINE
  2
AcDbPolyline
  3
"AutoCAD"
 90
        0
280
     0
281
     1
  0
CLASS
  1
HATCH
  2
AcDbHatch
  3
"ACAD_SEDONA"
 90
        0
280
     0
281
     1
  0
CLASS
  1
XRECORD
  2
AcDbXrecord
  3
"<Built In>"
 90
        0
280
     0
281
     0
  0
ENDSEC
  0
SECTION
  2
TABLES
  0
TABLE
  2
VPORT
  5
1DB
100
AcDbSymbolTable
 70
     1
  0
VPORT
  5
B2F
100
AcDbSymbolTableRecord
100
AcDbViewportTableRecord
  2
*ACTIVE
 70
     0
 10
0.0
 20
0.0
 11
1.0
 21
1.0
 12
-7455.111967
 22
29981.681664
 13
0.0
 23
0.0
 14
10.0
 24
10.0
 15
10.0
 25
10.0
 16
0.0
 26
1.0
 36
0.0
 17
0.0
 27
0.0
 37
0.0
 40
6432.558881
 41
1.449198
 42
50.0
 43
0.0
 44
0.0
 50
0.0
 51
0.0
 71
     0
 72
   100
 73
     1
 74
     3
 75
     0
 76
     0
 77
     0
 78
     0
  0
ENDTAB
  0
TABLE
  2
LTYPE
  5
1D2
100
AcDbSymbolTable
 70
     2
  0
LTYPE
  5
1D3
102
{ACAD_XDICTIONARY
360
1D4
102
}
100
AcDbSymbolTableRecord
100
AcDbLinetypeTableRecord
  2
BYBLOCK
 70
     0
  3

 72
    65
 73
     0
 40
0.0
  0
LTYPE
  5
1D6
102
{ACAD_XDICTIONARY
360
1D7
102
}
100
AcDbSymbolTableRecord
100
AcDbLinetypeTableRecord
  2
BYLAYER
 70
     0
  3

 72
    65
 73
     0
 40
0.0
  0
LTYPE
  5
9
102
{ACAD_XDICTIONARY
360
A
102
}
100
AcDbSymbolTableRecord
100
AcDbLinetypeTableRecord
  2
CONTINUOUS
 70
     0
  3
Solid line
 72
    65
 73
     0
 40
0.0
  0
LTYPE
  5
285
102
{ACAD_XDICTIONARY
360
286
102
}
100
AcDbSymbolTableRecord
100
AcDbLinetypeTableRecord
  2
GRDCON$0$CENTER
 70
     0
  3
Center ____ _ ____ _ ____ _ ____ _ ____ _ ____
 72
    65
 73
     4
 40
2.0
 49
1.25
 74
     0
 49
-0.25
 74
     0
 49
0.25
 74
     0
 49
-0.25
 74
     0
  0
ENDTAB
  0
TABLE
  2
LAYER
  5
13
102
{ACAD_XDICTIONARY
360
14
102
}
100
AcDbSymbolTable
 70
    32
  0
LAYER
  5
8
100
AcDbSymbolTableRecord
100
AcDbLayerTableRecord
  2
0
 70
     4
 62
    -7
  6
CONTINUOUS
  0
LAYER
  5
1EF
100
AcDbSymbolTableRecord
100
AcDbLayerTableRecord
  2
_AE_PILARES
 70
     4
 62
   -45
  6
CONTINUOUS
  0
LAYER
  5
284
100
AcDbSymbolTableRecord
100
AcDbLayerTableRecord
  2
MODELO1
 70
     4
 62
     7
  6
CONTINUOUS
  0
LAYER
  5
28C
100
AcDbSymbolTableRecord
100
AcDbLayerTableRecord
  2
MODELO2
 70
     4
 62
     8
  6
CONTINUOUS
  0
LAYER
  5
2A8
100
AcDbSymbolTableRecord
100
AcDbLayerTableRecord
  2
ALIN1
 70
     4
 62
    -1
  6
CONTINUOUS
  0
LAYER
  5
2D7
100
AcDbSymbolTableRecord
100
AcDbLayerTableRecord
  2
ALIN2
 70
     4
 62
    -2
  6
CONTINUOUS
  0
LAYER
  5
2FE
100
AcDbSymbolTableRecord
100
AcDbLayerTableRecord
  2
ALIN3
 70
     4
 62
    -3
  6
CONTINUOUS
  0
LAYER
  5
1E8
100
AcDbSymbolTableRecord
100
AcDbLayerTableRecord
  2
ALIN4
 70
     4
 62
    -4
  6
CONTINUOUS
  0
LAYER
  5
20C
100
AcDbSymbolTableRecord
100
AcDbLayerTableRecord
  2
VG1
 70
     4
 62
    -7
  6
CONTINUOUS
  0
LAYER
  5
240
100
AcDbSymbolTableRecord
100
AcDbLayerTableRecord
  2
VG2
 70
     4
 62
    -7
  6
CONTINUOUS
  0
LAYER
  5
3F4
100
AcDbSymbolTableRecord
100
AcDbLayerTableRecord
  2
CC
 70
     4
 62
    -7
  6
CONTINUOUS
  0
LAYER
  5
625
100
AcDbSymbolTableRecord
100
AcDbLayerTableRecord
  2
PILARESP
 70
     4
 62
    -6
  6
CONTINUOUS
  0
LAYER
  5
64D
100
AcDbSymbolTableRecord
100
AcDbLayerTableRecord
  2
PILARESPU
 70
     4
 62
    -7
  6
CONTINUOUS
  0
LAYER
  5
82B
100
AcDbSymbolTableRecord
100
AcDbLayerTableRecord
  2
PILARESN
 70
     0
 62
     7
  6
CONTINUOUS
  0
LAYER
  5
856
100
AcDbSymbolTableRecord
100
AcDbLayerTableRecord
  2
PILARESN2
 70
     4
 62
    -9
  6
CONTINUOUS
  0
LAYER
  5
87F
100
AcDbSymbolTableRecord
100
AcDbLayerTableRecord
  2
VIGASN
 70
     0
 62
     2
  6
CONTINUOUS
  0
LAYER
  5
880
100
AcDbSymbolTableRecord
100
AcDbLayerTableRecord
  2
VIGASN2
 70
     4
 62
    -2
  6
CONTINUOUS
  0
LAYER
  5
8D3
100
AcDbSymbolTableRecord
100
AcDbLayerTableRecord
  2
VIGASNT
 70
     4
 62
   -52
  6
CONTINUOUS
  0
LAYER
  5
8E7
100
AcDbSymbolTableRecord
100
AcDbLayerTableRecord
  2
VIGASINT
 70
     4
 62
    -4
  6
CONTINUOUS
  0
LAYER
  5
91B
100
AcDbSymbolTableRecord
100
AcDbLayerTableRecord
  2
PILARESINT
 70
     4
 62
    -5
  6
CONTINUOUS
  0
LAYER
  5
975
100
AcDbSymbolTableRecord
100
AcDbLayerTableRecord
  2
PILARESS
 70
     4
 62
    -1
  6
CONTINUOUS
  0
LAYER
  5
996
100
AcDbSymbolTableRecord
100
AcDbLayerTableRecord
  2
PILARESE1
 70
     4
 62
    -1
  6
CONTINUOUS
  0
LAYER
  5
9B1
100
AcDbSymbolTableRecord
100
AcDbLayerTableRecord
  2
PILARESSE1
 70
     4
 62
    -1
  6
CONTINUOUS
  0
LAYER
  5
9CD
100
AcDbSymbolTableRecord
100
AcDbLayerTableRecord
  2
PILARESE2
 70
     4
 62
    -1
  6
CONTINUOUS
  0
LAYER
  5
9E8
100
AcDbSymbolTableRecord
100
AcDbLayerTableRecord
  2
PILARESSE2
 70
     4
 62
    -1
  6
CONTINUOUS
  0
LAYER
  5
A38
100
AcDbSymbolTableRecord
100
AcDbLayerTableRecord
  2
00
 70
     4
 62
    -7
  6
CONTINUOUS
  0
LAYER
  5
A39
100
AcDbSymbolTableRecord
100
AcDbLayerTableRecord
  2
01
 70
     4
 62
    -7
  6
CONTINUOUS
  0
LAYER
  5
A3A
100
AcDbSymbolTableRecord
100
AcDbLayerTableRecord
  2
AUX1-VOLADIZOSUR
 70
     4
 62
    -2
  6
CONTINUOUS
  0
LAYER
  5
ACB
100
AcDbSymbolTableRecord
100
AcDbLayerTableRecord
  2
CCAUX
 70
     4
 62
    -7
  6
CONTINUOUS
  0
LAYER
  5
AE2
100
AcDbSymbolTableRecord
100
AcDbLayerTableRecord
  2
MUROOESTE
 70
     4
 62
     5
  6
CONTINUOUS
  0
LAYER
  5
B12
100
AcDbSymbolTableRecord
100
AcDbLayerTableRecord
  2
CC-ANULADA
 70
     4
 62
    -7
  6
CONTINUOUS
  0
LAYER
  5
B14
100
AcDbSymbolTableRecord
100
AcDbLayerTableRecord
  2
VIGACURVA
 70
     0
 62
     1
  6
CONTINUOUS
  0
ENDTAB
  0
TABLE
  2
STYLE
  5
1CE
100
AcDbSymbolTable
 70
     2
  0
STYLE
  5
1CF
102
{ACAD_XDICTIONARY
360
1D0
102
}
100
AcDbSymbolTableRecord
100
AcDbTextStyleTableRecord
  2
STANDARD
 70
     0
 40
0.0
 41
1.0
 50
0.0
 71
     0
 42
2.5
  3
txt
  4

  0
STYLE
  5
1E9
100
AcDbSymbolTableRecord
100
AcDbTextStyleTableRecord
  2
ROMANS
 70
     0
 40
0.0
 41
1.0
 50
0.0
 71
     0
 42
40.0
  3
romans.shx
  4

  0
ENDTAB
  0
TABLE
  2
VIEW
  5
1D9
100
AcDbSymbolTable
 70
     0
  0
ENDTAB
  0
TABLE
  2
UCS
  5
1DA
100
AcDbSymbolTable
 70
     0
  0
ENDTAB
  0
TABLE
  2
APPID
  5
1DD
100
AcDbSymbolTable
 70
     1
  0
APPID
  5
1DE
100
AcDbSymbolTableRecord
100
AcDbRegAppTableRecord
  2
ACAD
 70
     0
  0
ENDTAB
  0
TABLE
  2
DIMSTYLE
  5
1DF
100
AcDbSymbolTable
 70
     1
  0
DIMSTYLE
105
1EB
102
{ACAD_XDICTIONARY
360
1EC
102
}
100
AcDbSymbolTableRecord
100
AcDbDimStyleTableRecord
  2
HEMEROTECA-300
 70
     0
  3

  4

  5
ARCHTICK
  6

  7

 40
1.0
 41
25.0
 42
15.0
 43
1.0
 44
15.0
 45
0.0
 46
0.0
 47
0.0
 48
0.0
140
35.0
141
25.0
142
0.0
143
25.4
144
0.01
145
0.0
146
1.0
147
20.0
 71
     0
 72
     0
 73
     0
 74
     0
 75
     0
 76
     0
 77
     1
 78
     0
170
     0
171
     2
172
     0
173
     0
174
     1
175
     0
176
     1
177
     1
178
     0
270
     2
271
     2
272
     2
273
     2
274
     2
340
1E9
275
     0
280
     0
281
     0
282
     0
283
     1
284
     0
285
     0
286
     0
287
     2
288
     0
  0
ENDTAB
  0
TABLE
  2
BLOCK_RECORD
  5
1
100
AcDbSymbolTable
 70
    11
  0
BLOCK_RECORD
  5
2
102
{ACAD_XDICTIONARY
360
3
102
}
100
AcDbSymbolTableRecord
100
AcDbBlockTableRecord
  2
*MODEL_SPACE
  0
BLOCK_RECORD
  5
D
102
{ACAD_XDICTIONARY
360
E
102
}
100
AcDbSymbolTableRecord
100
AcDbBlockTableRecord
  2
*PAPER_SPACE
  0
BLOCK_RECORD
  5
3F5
100
AcDbSymbolTableRecord
100
AcDbBlockTableRecord
  2
APOYO
  0
BLOCK_RECORD
  5
437
100
AcDbSymbolTableRecord
100
AcDbBlockTableRecord
  2
APOYO2
  0
BLOCK_RECORD
  5
469
100
AcDbSymbolTableRecord
100
AcDbBlockTableRecord
  2
P1
  0
BLOCK_RECORD
  5
47C
100
AcDbSymbolTableRecord
100
AcDbBlockTableRecord
  2
P2
  0
BLOCK_RECORD
  5
48E
100
AcDbSymbolTableRecord
100
AcDbBlockTableRecord
  2
P3
  0
BLOCK_RECORD
  5
49F
100
AcDbSymbolTableRecord
100
AcDbBlockTableRecord
  2
P4
  0
BLOCK_RECORD
  5
4B0
100
AcDbSymbolTableRecord
100
AcDbBlockTableRecord
  2
P5
  0
BLOCK_RECORD
  5
4D2
100
AcDbSymbolTableRecord
100
AcDbBlockTableRecord
  2
P6
  0
BLOCK_RECORD
  5
4E5
100
AcDbSymbolTableRecord
100
AcDbBlockTableRecord
  2
P7
  0
BLOCK_RECORD
  5
4F3
100
AcDbSymbolTableRecord
100
AcDbBlockTableRecord
  2
P8
  0
BLOCK_RECORD
  5
94D
100
AcDbSymbolTableRecord
100
AcDbBlockTableRecord
  2
APOYO295
  0
ENDTAB
  0
ENDSEC
  0
SECTION
  2
BLOCKS
  0
BLOCK
  5
7
100
AcDbEntity
  8
0
100
AcDbBlockBegin
  2
*MODEL_SPACE
 70
     0
 10
0.0
 20
0.0
 30
0.0
  3
*MODEL_SPACE
  1

  0
ENDBLK
  5
C
100
AcDbEntity
  8
0
100
AcDbBlockEnd
  0
BLOCK
  5
11
100
AcDbEntity
 67
     1
  8
0
100
AcDbBlockBegin
  2
*PAPER_SPACE
 70
     0
 10
0.0
 20
0.0
 30
0.0
  3
*PAPER_SPACE
  1

  0
ENDBLK
  5
12
100
AcDbEntity
 67
     1
  8
0
100
AcDbBlockEnd
  0
BLOCK
  5
645
100
AcDbEntity
  8
0
100
AcDbBlockBegin
  2
APOYO
 70
     0
 10
0.0
 20
0.0
 30
0.0
  3
APOYO
  1

  0
LWPOLYLINE
  5
646
100
AcDbEntity
  8
PILARESP
100
AcDbPolyline
 90
        4
 70
     1
 43
0.0
 10
-40.0
 20
40.0
 10
40.0
 20
40.0
 10
40.0
 20
-40.0
 10
-40.0
 20
-40.0
  0
ENDBLK
  5
647
100
AcDbEntity
  8
0
100
AcDbBlockEnd
  0
BLOCK
  5
441
100
AcDbEntity
  8
0
100
AcDbBlockBegin
  2
APOYO2
 70
     0
 10
0.0
 20
0.0
 30
0.0
  3
APOYO2
  1

  0
LWPOLYLINE
  5
442
100
AcDbEntity
  8
CC
100
AcDbPolyline
 90
        4
 70
     1
 43
0.0
 10
-40.0
 20
40.0
 10
40.0
 20
40.0
 10
40.0
 20
-40.0
 10
-40.0
 20
-40.0
  0
LINE
  5
443
100
AcDbEntity
  8
CC
100
AcDbLine
 10
-40.0
 20
40.0
 30
0.0
 11
40.0
 21
-40.0
 31
0.0
  0
LINE
  5
444
100
AcDbEntity
  8
CC
100
AcDbLine
 10
40.0
 20
40.0
 30
0.0
 11
-40.0
 21
-40.0
 31
0.0
  0
ENDBLK
  5
445
100
AcDbEntity
  8
0
100
AcDbBlockEnd
  0
BLOCK
  5
98C
100
AcDbEntity
  8
0
100
AcDbBlockBegin
  2
P1
 70
     0
 10
0.0
 20
0.0
 30
0.0
  3
P1
  1

  0
LWPOLYLINE
  5
98D
100
AcDbEntity
  8
PILARESS
100
AcDbPolyline
 90
        4
 70
     1
 43
0.0
 10
-40.0
 20
40.0
 10
40.0
 20
40.0
 10
40.0
 20
-40.0
 10
-40.0
 20
-40.0
  0
LINE
  5
98E
100
AcDbEntity
  8
PILARESS
100
AcDbLine
 10
-40.0
 20
40.0
 30
0.0
 11
40.0
 21
-40.0
 31
0.0
  0
LINE
  5
98F
100
AcDbEntity
  8
PILARESS
100
AcDbLine
 10
40.0
 20
40.0
 30
0.0
 11
-40.0
 21
-40.0
 31
0.0
  0
ENDBLK
  5
990
100
AcDbEntity
  8
0
100
AcDbBlockEnd
  0
BLOCK
  5
9AB
100
AcDbEntity
  8
0
100
AcDbBlockBegin
  2
P2
 70
     0
 10
0.0
 20
0.0
 30
0.0
  3
P2
  1

  0
LWPOLYLINE
  5
9AC
100
AcDbEntity
  8
PILARESE1
100
AcDbPolyline
 90
        4
 70
     1
 43
0.0
 10
-40.0
 20
40.0
 10
40.0
 20
40.0
 10
40.0
 20
-40.0
 10
-40.0
 20
-40.0
  0
LINE
  5
9AD
100
AcDbEntity
  8
PILARESE1
100
AcDbLine
 10
-40.0
 20
40.0
 30
0.0
 11
40.0
 21
-40.0
 31
0.0
  0
LINE
  5
9AE
100
AcDbEntity
  8
PILARESE1
100
AcDbLine
 10
40.0
 20
40.0
 30
0.0
 11
-40.0
 21
-40.0
 31
0.0
  0
ENDBLK
  5
9AF
100
AcDbEntity
  8
0
100
AcDbBlockEnd
  0
BLOCK
  5
9C6
100
AcDbEntity
  8
0
100
AcDbBlockBegin
  2
P3
 70
     0
 10
0.0
 20
0.0
 30
0.0
  3
P3
  1

  0
LWPOLYLINE
  5
9C7
100
AcDbEntity
  8
PILARESSE1
100
AcDbPolyline
 90
        4
 70
     1
 43
0.0
 10
-40.0
 20
40.0
 10
40.0
 20
40.0
 10
40.0
 20
-40.0
 10
-40.0
 20
-40.0
  0
LINE
  5
9C8
100
AcDbEntity
  8
PILARESSE1
100
AcDbLine
 10
-40.0
 20
40.0
 30
0.0
 11
40.0
 21
-40.0
 31
0.0
  0
LINE
  5
9C9
100
AcDbEntity
  8
PILARESSE1
100
AcDbLine
 10
40.0
 20
40.0
 30
0.0
 11
-40.0
 21
-40.0
 31
0.0
  0
ENDBLK
  5
9CA
100
AcDbEntity
  8
0
100
AcDbBlockEnd
  0
BLOCK
  5
9E1
100
AcDbEntity
  8
0
100
AcDbBlockBegin
  2
P4
 70
     0
 10
0.0
 20
0.0
 30
0.0
  3
P4
  1

  0
LWPOLYLINE
  5
9E2
100
AcDbEntity
  8
PILARESE2
100
AcDbPolyline
 90
        4
 70
     1
 43
0.0
 10
-40.0
 20
40.0
 10
40.0
 20
40.0
 10
40.0
 20
-40.0
 10
-40.0
 20
-40.0
  0
LINE
  5
9E3
100
AcDbEntity
  8
PILARESE2
100
AcDbLine
 10
-40.0
 20
40.0
 30
0.0
 11
40.0
 21
-40.0
 31
0.0
  0
LINE
  5
9E4
100
AcDbEntity
  8
PILARESE2
100
AcDbLine
 10
40.0
 20
40.0
 30
0.0
 11
-40.0
 21
-40.0
 31
0.0
  0
ENDBLK
  5
9E5
100
AcDbEntity
  8
0
100
AcDbBlockEnd
  0
BLOCK
  5
9F6
100
AcDbEntity
  8
0
100
AcDbBlockBegin
  2
P5
 70
     0
 10
0.0
 20
0.0
 30
0.0
  3
P5
  1

  0
LWPOLYLINE
  5
9F7
100
AcDbEntity
  8
PILARESSE2
100
AcDbPolyline
 90
        4
 70
     1
 43
0.0
 10
-40.0
 20
40.0
 10
40.0
 20
40.0
 10
40.0
 20
-40.0
 10
-40.0
 20
-40.0
  0
LINE
  5
9F8
100
AcDbEntity
  8
PILARESSE2
100
AcDbLine
 10
-40.0
 20
40.0
 30
0.0
 11
40.0
 21
-40.0
 31
0.0
  0
LINE
  5
9F9
100
AcDbEntity
  8
PILARESSE2
100
AcDbLine
 10
40.0
 20
40.0
 30
0.0
 11
-40.0
 21
-40.0
 31
0.0
  0
ENDBLK
  5
9FA
100
AcDbEntity
  8
0
100
AcDbBlockEnd
  0
BLOCK
  5
4D3
100
AcDbEntity
  8
0
100
AcDbBlockBegin
  2
P6
 70
     0
 10
0.0
 20
0.0
 30
0.0
  3
P6
  1

  0
LWPOLYLINE
  5
4D4
100
AcDbEntity
  8
CC
 62
     1
100
AcDbPolyline
 90
        4
 70
     1
 43
0.0
 10
-40.0
 20
40.0
 10
40.0
 20
40.0
 10
40.0
 20
-40.0
 10
-40.0
 20
-40.0
  0
LINE
  5
4D5
100
AcDbEntity
  8
CC
 62
     1
100
AcDbLine
 10
-40.0
 20
40.0
 30
0.0
 11
40.0
 21
-40.0
 31
0.0
  0
LINE
  5
4D6
100
AcDbEntity
  8
CC
 62
     1
100
AcDbLine
 10
40.0
 20
40.0
 30
0.0
 11
-40.0
 21
-40.0
 31
0.0
  0
ENDBLK
  5
4D7
100
AcDbEntity
  8
0
100
AcDbBlockEnd
  0
BLOCK
  5
4E6
100
AcDbEntity
  8
0
100
AcDbBlockBegin
  2
P7
 70
     0
 10
0.0
 20
0.0
 30
0.0
  3
P7
  1

  0
LWPOLYLINE
  5
4E7
100
AcDbEntity
  8
CC
 62
     3
100
AcDbPolyline
 90
        4
 70
     1
 43
0.0
 10
-40.0
 20
40.0
 10
40.0
 20
40.0
 10
40.0
 20
-40.0
 10
-40.0
 20
-40.0
  0
LINE
  5
4E8
100
AcDbEntity
  8
CC
 62
     3
100
AcDbLine
 10
-40.0
 20
40.0
 30
0.0
 11
40.0
 21
-40.0
 31
0.0
  0
LINE
  5
4E9
100
AcDbEntity
  8
CC
 62
     3
100
AcDbLine
 10
40.0
 20
40.0
 30
0.0
 11
-40.0
 21
-40.0
 31
0.0
  0
ENDBLK
  5
4EA
100
AcDbEntity
  8
0
100
AcDbBlockEnd
  0
BLOCK
  5
4F4
100
AcDbEntity
  8
0
100
AcDbBlockBegin
  2
P8
 70
     0
 10
0.0
 20
0.0
 30
0.0
  3
P8
  1

  0
LWPOLYLINE
  5
4F5
100
AcDbEntity
  8
CC
 62
     4
100
AcDbPolyline
 90
        4
 70
     1
 43
0.0
 10
-40.0
 20
40.0
 10
40.0
 20
40.0
 10
40.0
 20
-40.0
 10
-40.0
 20
-40.0
  0
LINE
  5
4F6
100
AcDbEntity
  8
CC
 62
     4
100
AcDbLine
 10
-40.0
 20
40.0
 30
0.0
 11
40.0
 21
-40.0
 31
0.0
  0
LINE
  5
4F7
100
AcDbEntity
  8
CC
 62
     4
100
AcDbLine
 10
40.0
 20
40.0
 30
0.0
 11
-40.0
 21
-40.0
 31
0.0
  0
ENDBLK
  5
4F8
100
AcDbEntity
  8
0
100
AcDbBlockEnd
  0
BLOCK
  5
94E
100
AcDbEntity
  8
0
100
AcDbBlockBegin
  2
APOYO295
 70
     0
 10
0.0
 20
0.0
 30
0.0
  3
APOYO295
  1

  0
LWPOLYLINE
  5
94F
100
AcDbEntity
  8
PILARESINT
100
AcDbPolyline
 90
        4
 70
     1
 43
0.0
 10
-40.0
 20
40.0
 10
40.0
 20
40.0
 10
40.0
 20
-40.0
 10
-40.0
 20
-40.0
  0
ENDBLK
  5
950
100
AcDbEntity
  8
0
100
AcDbBlockEnd
  0
ENDSEC
  0
SECTION
  2
ENTITIES
  0
LINE
  5
20B
100
AcDbEntity
  8
VG1
100
AcDbLine
 10
7000.385678
 20
6032.65472
 30
29524.750052
 11
6974.425329
 21
6166.653353
 31
29524.750052
1001
ACAD
1000
RTLwPs
1070
   128
  0
LINE
  5
20D
100
AcDbEntity
  8
VG1
100
AcDbLine
 10
6266.682612
 20
5172.663224
 30
29534.769277
 11
6290.397117
 21
5431.39266
 31
29534.769277
1001
ACAD
1000
RTLwPs
1070
   128
  0
LINE
  5
20E
100
AcDbEntity
  8
VG1
100
AcDbLine
 10
5152.469455
 20
3605.185434
 30
29661.400744
 11
5291.769993
 21
3520.031255
 31
29661.400744
1001
ACAD
1000
RTLwPs
1070
   128
  0
LINE
  5
20F
100
AcDbEntity
  8
VG1
100
AcDbLine
 10
5049.001196
 20
3434.495553
 30
29674.215719
 11
5175.867245
 21
3356.942555
 31
29674.215719
1001
ACAD
1000
RTLwPs
1070
   128
  0
LINE
  5
210
100
AcDbEntity
  8
VG1
100
AcDbLine
 10
5359.820641
 20
3947.249347
 30
29633.878584
 11
5498.012467
 21
3862.772921
 31
29633.878584
1001
ACAD
1000
RTLwPs
1070
   128
  0
LINE
  5
211
100
AcDbEntity
  8
VG1
100
AcDbLine
 10
5463.496206
 20
4118.28132
 30
29613.832542
 11
5601.133704
 21
4034.143754
 31
29613.832542
1001
ACAD
1000
RTLwPs
1070
   128
  0
LINE
  5
212
100
AcDbEntity
  8
VG1
100
AcDbLine
 10
5567.171785
 20
4289.313285
 30
29593.786497
 11
5704.254941
 21
4205.514587
 31
29593.786497
1001
ACAD
1000
RTLwPs
1070
   128
  0
LINE
  5
213
100
AcDbEntity
  8
VG1
100
AcDbLine
 10
5670.847297
 20
4460.34529
 30
29573.740465
 11
5807.812447
 21
4376.618729
 31
29573.740465
1001
ACAD
1000
RTLwPs
1070
   128
  0
LINE
  5
214
100
AcDbEntity
  8
VG1
100
AcDbLine
 10
5778.036698
 20
4629.229261
 30
29544.160082
 11
5918.980189
 21
4543.070747
 31
29544.160082
1001
ACAD
1000
RTLwPs
1070
   128
  0
LINE
  5
215
100
AcDbEntity
  8
VG1
100
AcDbLine
 10
5885.715723
 20
4797.813926
 30
29539.716335
 11
6030.147931
 21
4709.522765
 31
29539.716335
1001
ACAD
1000
RTLwPs
1070
   128
  0
LINE
  5
216
100
AcDbEntity
  8
VG1
100
AcDbLine
 10
5993.39468
 20
4966.398632
 30
29535.272591
 11
6141.315672
 21
4875.974784
 31
29535.272591
1001
ACAD
1000
RTLwPs
1070
   128
  0
LINE
  5
217
100
AcDbEntity
  8
VG1
100
AcDbLine
 10
6103.613214
 20
5138.959385
 30
29534.917678
 11
6255.105285
 21
5046.352542
 31
29534.917678
1001
ACAD
1000
RTLwPs
1070
   128
  0
LINE
  5
218
100
AcDbEntity
  8
VG1
100
AcDbLine
 10
5256.14505
 20
3776.217389
 30
29648.56009
 11
5394.89123
 21
3691.402088
 31
29648.56009
1001
ACAD
1000
RTLwPs
1070
   128
  0
LINE
  5
219
100
AcDbEntity
  8
VG1
100
AcDbLine
 10
4267.477937
 20
2263.111645
 30
29645.840635
 11
4308.794445
 21
2235.620116
 31
29645.840635
1001
ACAD
1000
RTLwPs
1070
   128
  0
LINE
  5
21A
100
AcDbEntity
  8
VG1
100
AcDbLine
 10
4140.239544
 20
2108.026686
 30
29588.357134
 11
4183.491916
 21
2079.247055
 31
29588.357134
1001
ACAD
1000
RTLwPs
1070
   128
  0
LINE
  5
21B
100
AcDbEntity
  8
VG1
100
AcDbLine
 10
4495.861264
 20
2591.604765
 30
29690.622002
 11
4561.793471
 21
2547.734231
 31
29690.622002
1001
ACAD
1000
RTLwPs
1070
   128
  0
LINE
  5
21C
100
AcDbEntity
  8
VG1
100
AcDbLine
 10
4606.083776
 20
2758.492352
 30
29702.481516
 11
4686.7607
 21
2704.810853
 31
29702.481516
1001
ACAD
1000
RTLwPs
1070
   128
  0
LINE
  5
21D
100
AcDbEntity
  8
VG1
100
AcDbLine
 10
4716.306291
 20
2925.379937
 30
29720.2373
 11
4806.952975
 21
2865.064675
 31
29720.2373
1001
ACAD
1000
RTLwPs
1070
   128
  0
LINE
  5
21E
100
AcDbEntity
  8
VG1
100
AcDbLine
 10
4826.528804
 20
3092.267524
 30
29717.755002
 11
4927.145251
 21
3025.318496
 31
29717.755002
1001
ACAD
1000
RTLwPs
1070
   128
  0
LINE
  5
21F
100
AcDbEntity
  8
VG1
100
AcDbLine
 10
4936.751319
 20
3259.15511
 30
29694.4635
 11
5047.337526
 21
3185.572318
 31
29694.4635
1001
ACAD
1000
RTLwPs
1070
   128
  0
LINE
  5
220
100
AcDbEntity
  8
VG1
100
AcDbLine
 10
4385.638756
 20
2424.717175
 30
29678.762487
 11
4426.931588
 21
2397.241398
 31
29678.762487
1001
ACAD
1000
RTLwPs
1070
   128
  0
LINE
  5
221
100
AcDbEntity
  8
VG1
100
AcDbLine
 10
3347.505188
 20
1205.215491
 30
29235.577686
 11
3388.634461
 21
1168.933065
 31
29235.577686
1001
ACAD
1000
RTLwPs
1070
   128
  0
LINE
  5
222
100
AcDbEntity
  8
VG1
100
AcDbLine
 10
3613.695078
 20
1503.791026
 30
29346.774841
 11
3656.120411
 21
1466.365274
 31
29346.774841
1001
ACAD
1000
RTLwPs
1070
   128
  0
LINE
  5
223
100
AcDbEntity
  8
VG1
100
AcDbLine
 10
3746.790024
 20
1653.078794
 30
29408.17936
 11
3789.861286
 21
1615.083232
 31
29408.17936
1001
ACAD
1000
RTLwPs
1070
   128
  0
LINE
  5
224
100
AcDbEntity
  8
VG1
100
AcDbLine
 10
3879.884969
 20
1802.366561
 30
29469.583879
 11
3923.60216
 21
1763.80119
 31
29469.583879
1001
ACAD
1000
RTLwPs
1070
   128
  0
LINE
  5
225
100
AcDbEntity
  8
VG1
100
AcDbLine
 10
4012.379482
 20
1952.184004
 30
29530.592777
 11
4052.980474
 21
1916.367605
 31
29530.592777
1001
ACAD
1000
RTLwPs
1070
   128
  0
LINE
  5
226
100
AcDbEntity
  8
VG1
100
AcDbLine
 10
3480.600133
 20
1354.503259
 30
29287.960514
 11
3522.379537
 21
1317.647316
 31
29287.960514
1001
ACAD
1000
RTLwPs
1070
   128
  0
LINE
  5
227
100
AcDbEntity
  8
VG1
100
AcDbLine
 10
3081.315297
 20
906.639956
 30
29122.27065
 11
3111.082163
 21
880.380943
 31
29122.27065
1001
ACAD
1000
RTLwPs
1070
   128
  0
LINE
  5
228
100
AcDbEntity
  8
VG1
100
AcDbLine
 10
3214.410242
 20
1055.927723
 30
29179.164324
 11
3249.858312
 21
1024.657004
 31
29179.164324
1001
ACAD
1000
RTLwPs
1070
   128
  0
LINE
  5
229
100
AcDbEntity
  8
VG1
100
AcDbLine
 10
2948.220351
 20
757.352188
 30
29065.376977
 11
2972.306014
 21
736.104882
 31
29065.376977
1001
ACAD
1000
RTLwPs
1070
   128
  0
LINE
  5
22A
100
AcDbEntity
  8
VG1
100
AcDbLine
 10
7099.858733
 20
6288.667547
 30
29532.391881
 11
7203.747942
 21
6150.291056
 31
29532.391881
1001
ACAD
1000
RTLwPs
1070
   128
  0
LINE
  5
22B
100
AcDbEntity
  8
VG1
100
AcDbLine
 10
7419.740144
 20
6528.825585
 30
29547.245037
 11
7502.647792
 21
6418.395738
 31
29547.245037
1001
ACAD
1000
RTLwPs
1070
   128
  0
LINE
  5
22C
100
AcDbEntity
  8
VG1
100
AcDbLine
 10
7579.680849
 20
6648.904604
 30
29558.804723
 11
7652.278982
 21
6552.206641
 31
29558.804723
1001
ACAD
1000
RTLwPs
1070
   128
  0
LINE
  5
22D
100
AcDbEntity
  8
VG1
100
AcDbLine
 10
7739.621554
 20
6768.983623
 30
29570.364408
 11
7805.325519
 21
6681.468431
 31
29570.364408
1001
ACAD
1000
RTLwPs
1070
   128
  0
LINE
  5
22E
100
AcDbEntity
  8
VG1
100
AcDbLine
 10
7902.084029
 20
6885.70374
 30
29583.41667
 11
7968.536973
 21
6797.190936
 31
29583.41667
1001
ACAD
1000
RTLwPs
1070
   128
  0
LINE
  5
22F
100
AcDbEntity
  8
VG1
100
AcDbLine
 10
8066.904871
 20
6999.282602
 30
29598.798286
 11
8131.748427
 21
6912.913442
 31
29598.798286
1001
ACAD
1000
RTLwPs
1070
   128
  0
LINE
  5
230
100
AcDbEntity
  8
VG1
100
AcDbLine
 10
8231.725712
 20
7112.861465
 30
29615.545934
 11
8294.959881
 21
7028.635947
 31
29615.545934
1001
ACAD
1000
RTLwPs
1070
   128
  0
LINE
  5
231
100
AcDbEntity
  8
VG1
100
AcDbLine
 10
8396.546554
 20
7226.440327
 30
29632.293581
 11
8458.171335
 21
7144.358452
 31
29632.293581
1001
ACAD
1000
RTLwPs
1070
   128
  0
LINE
  5
232
100
AcDbEntity
  8
VG1
100
AcDbLine
 10
8561.703258
 20
7339.571833
 30
29649.029688
 11
8633.235367
 21
7244.293774
 31
29649.029688
1001
ACAD
1000
RTLwPs
1070
   128
  0
LINE
  5
233
100
AcDbEntity
  8
VG1
100
AcDbLine
 10
7259.799439
 20
6408.746566
 30
29538.288833
 11
7353.016602
 21
6284.584835
 31
29538.288833
1001
ACAD
1000
RTLwPs
1070
   128
  0
LINE
  5
234
100
AcDbEntity
  8
VG1
100
AcDbLine
 10
8935.854087
 20
7507.690637
 30
29686.66846
 11
8965.543926
 21
7429.677282
 31
29686.66846
1001
ACAD
1000
RTLwPs
1070
   128
  0
LINE
  5
235
100
AcDbEntity
  8
VG1
100
AcDbLine
 10
9109.460841
 20
7585.69811
 30
29705.15758
 11
9139.58854
 21
7506.534231
 31
29705.15758
1001
ACAD
1000
RTLwPs
1070
   128
  0
LINE
  5
236
100
AcDbEntity
  8
VG1
100
AcDbLine
 10
9292.204793
 20
7667.81124
 30
29724.61981
 11
9328.299932
 21
7572.967246
 31
29724.61981
1001
ACAD
1000
RTLwPs
1070
   128
  0
LINE
  5
237
100
AcDbEntity
  8
VG1
100
AcDbLine
 10
9481.229115
 20
7733.421999
 30
29744.999602
 11
9517.34205
 21
7638.531244
 31
29744.999602
1001
ACAD
1000
RTLwPs
1070
   128
  0
LINE
  5
238
100
AcDbEntity
  8
VG1
100
AcDbLine
 10
9676.433483
 20
7797.364848
 30
29766.0
 11
9711.282866
 21
7705.794218
 31
29766.0
1001
ACAD
1000
RTLwPs
1070
   128
  0
LINE
  5
239
100
AcDbEntity
  8
VG1
100
AcDbLine
 10
9844.37964
 20
7852.378759
 30
29784.363948
 11
9878.006116
 21
7763.617538
 31
29784.349003
1001
ACAD
1000
RTLwPs
1070
   128
  0
LINE
  5
23A
100
AcDbEntity
  8
VG1
100
AcDbLine
 10
8743.972938
 20
7421.471851
 30
29666.233118
 11
8779.7591
 21
7327.439728
 31
29666.233118
1001
ACAD
1000
RTLwPs
1070
   128
  0
LINE
  5
23B
100
AcDbEntity
  8
VG1
100
AcDbLine
 10
6361.564789
 20
5542.814479
 30
29534.712734
 11
6488.927667
 21
5431.096251
 31
29534.712734
1001
ACAD
1000
RTLwPs
1070
   128
  0
LINE
  5
23C
100
AcDbEntity
  8
VG1
100
AcDbLine
 10
6635.056238
 20
5821.205054
 30
29514.353205
 11
6741.876338
 21
5727.506229
 31
29514.353205
1001
ACAD
1000
RTLwPs
1070
   128
  0
LINE
  5
23D
100
AcDbEntity
  8
VG1
100
AcDbLine
 10
6775.440403
 20
5964.103958
 30
29516.506358
 11
6871.173319
 21
5880.130419
 31
29516.506358
1001
ACAD
1000
RTLwPs
1070
   128
  0
LINE
  5
23E
100
AcDbEntity
  8
VG1
100
AcDbLine
 10
6494.672073
 20
5678.306151
 30
29524.803955
 11
6612.579356
 21
5574.882038
 31
29524.803955
1001
ACAD
1000
RTLwPs
1070
   128
  0
LINE
  5
23F
100
AcDbEntity
  8
VG2
100
AcDbLine
 10
9771.976375
 20
14541.089066
 30
31774.338101
 11
9798.710428
 21
14481.351523
 31
31774.338101
1001
ACAD
1000
RTLwPs
1070
   128
  0
LINE
  5
241
100
AcDbEntity
  8
VG2
100
AcDbLine
 10
10135.008568
 20
14709.117041
 30
31719.36628
 11
10162.799977
 21
14647.016822
 31
31719.36628
1001
ACAD
1000
RTLwPs
1070
   128
  0
LINE
  5
242
100
AcDbEntity
  8
VG2
100
AcDbLine
 10
10319.593162
 20
14786.274436
 30
31604.856665
 11
10344.601209
 21
14730.393671
 31
31604.856665
1001
ACAD
1000
RTLwPs
1070
   128
  0
LINE
  5
243
100
AcDbEntity
  8
VG2
100
AcDbLine
 10
10504.177756
 20
14863.431832
 30
31490.347051
 11
10526.40244
 21
14813.770523
 31
31490.347051
1001
ACAD
1000
RTLwPs
1070
   128
  0
LINE
  5
244
100
AcDbEntity
  8
VG2
100
AcDbLine
 10
10688.890904
 20
14940.301969
 30
31348.983707
 11
10708.20367
 21
14897.147376
 31
31348.983707
1001
ACAD
1000
RTLwPs
1070
   128
  0
LINE
  5
245
100
AcDbEntity
  8
VG2
100
AcDbLine
 10
10853.271163
 20
14995.721157
 30
31148.639281
 11
10865.168759
 21
14969.135844
 31
31148.639281
1001
ACAD
1000
RTLwPs
1070
   128
  0
LINE
  5
246
100
AcDbEntity
  8
VG2
100
AcDbLine
 10
11069.670606
 20
15068.672935
 30
30578.444784
 11
11079.12873
 21
15047.53865
 31
30578.444784
1001
ACAD
1000
RTLwPs
1070
   128
  0
LINE
  5
247
100
AcDbEntity
  8
VG2
100
AcDbLine
 10
11260.57801
 20
15131.701938
 30
30076.783144
 11
11267.372408
 21
15116.519778
 31
30076.783144
1001
ACAD
1000
RTLwPs
1070
   128
  0
LINE
  5
248
100
AcDbEntity
  8
VG2
100
AcDbLine
 10
9971.713293
 20
14636.000107
 30
31784.0
 11
10000.0
 21
14572.793139
 31
31784.0
1001
ACAD
1000
RTLwPs
1070
   128
  0
LINE
  5
249
100
AcDbEntity
  8
VG2
100
AcDbLine
 10
8562.493972
 20
13940.295386
 30
31561.62836
 11
8572.973992
 21
13916.877663
 31
31561.62836
1001
ACAD
1000
RTLwPs
1070
   128
  0
LINE
  5
24A
100
AcDbEntity
  8
VG2
100
AcDbLine
 10
8695.788133
 20
14008.161319
 30
31600.486587
 11
8708.483757
 21
13979.792802
 31
31600.486587
1001
ACAD
1000
RTLwPs
1070
   128
  0
LINE
  5
24B
100
AcDbEntity
  8
VG2
100
AcDbLine
 10
8874.241214
 20
14099.019649
 30
31645.981403
 11
8889.902248
 21
14064.02489
 31
31645.981403
1001
ACAD
1000
RTLwPs
1070
   128
  0
LINE
  5
24C
100
AcDbEntity
  8
VG2
100
AcDbLine
 10
9052.774091
 20
14189.699674
 30
31691.476219
 11
9071.320738
 21
14148.256979
 31
31691.476219
1001
ACAD
1000
RTLwPs
1070
   128
  0
LINE
  5
24D
100
AcDbEntity
  8
VG2
100
AcDbLine
 10
9232.325967
 20
14278.102733
 30
31734.462095
 11
9252.739229
 21
14232.489068
 31
31734.462095
1001
ACAD
1000
RTLwPs
1070
   128
  0
LINE
  5
24E
100
AcDbEntity
  8
VG2
100
AcDbLine
 10
9411.877844
 20
14366.505792
 30
31756.857034
 11
9434.521548
 21
14315.908178
 31
31756.857034
1001
ACAD
1000
RTLwPs
1070
   128
  0
LINE
  5
24F
100
AcDbEntity
  8
VG2
100
AcDbLine
 10
9591.429721
 20
14454.90885
 30
31765.597567
 11
9616.615988
 21
14398.62985
 31
31765.597567
1001
ACAD
1000
RTLwPs
1070
   128
  0
POINT
  5
250
100
AcDbEntity
  8
_AE_PILARES
100
AcDbPoint
 10
4326.19169
 20
2334.691995
 30
29672.366214
  0
POINT
  5
251
100
AcDbEntity
  8
_AE_PILARES
100
AcDbPoint
 10
566.98698
 20
9463.768303
 30
29381.060145
  0
POINT
  5
252
100
AcDbEntity
  8
_AE_PILARES
100
AcDbPoint
 10
2520.844567
 20
10597.64629
 30
29884.300588
  0
POINT
  5
253
100
AcDbEntity
  8
_AE_PILARES
100
AcDbPoint
 10
1013.326406
 20
9723.645598
 30
29493.203253
  0
POINT
  5
254
100
AcDbEntity
  8
_AE_PILARES
100
AcDbPoint
 10
1766.878004
 20
10162.394539
 30
29686.648693
  0
POINT
  5
255
100
AcDbEntity
  8
_AE_PILARES
100
AcDbPoint
 10
3333.333332
 20
11065.363381
 30
30100.972574
  0
POINT
  5
256
100
AcDbEntity
  8
_AE_PILARES
100
AcDbPoint
 10
3929.364245
 20
11405.711076
 30
30261.663867
  0
POINT
  5
257
100
AcDbEntity
  8
_AE_PILARES
100
AcDbPoint
 10
4183.369128
 20
11550.477386
 30
30330.544759
  0
POINT
  5
258
100
AcDbEntity
  8
_AE_PILARES
100
AcDbPoint
 10
4250.833619
 20
11588.926671
 30
30348.880474
  0
POINT
  5
259
100
AcDbEntity
  8
_AE_PILARES
100
AcDbPoint
 10
8558.875475
 20
7338.30306
 30
29648.788022
  0
POINT
  5
25A
100
AcDbEntity
  8
_AE_PILARES
100
AcDbPoint
 10
5009.30125
 20
3369.00099
 30
29679.132723
  0
POINT
  5
25B
100
AcDbEntity
  8
_AE_PILARES
100
AcDbPoint
 10
5683.533204
 20
4481.270829
 30
29571.2876
  0
POINT
  5
25C
100
AcDbEntity
  8
_AE_PILARES
100
AcDbPoint
 10
6361.568213
 20
5542.817905
 30
29534.712731
  0
POINT
  5
25D
100
AcDbEntity
  8
_AE_PILARES
100
AcDbPoint
 10
7078.651805
 20
6272.746813
 30
29531.609989
  0
POINT
  5
25E
100
AcDbEntity
  8
_AE_PILARES
100
AcDbPoint
 10
7816.917527
 20
6827.016136
 30
29575.950961
  0
POINT
  5
25F
100
AcDbEntity
  8
_AE_PILARES
100
AcDbPoint
 10
9322.530984
 20
7681.439724
 30
29727.381517
  0
POINT
  5
260
100
AcDbEntity
  8
_AE_PILARES
100
AcDbPoint
 10
9841.601289
 20
7897.588714
 30
29787.478086
  0
POINT
  5
261
100
AcDbEntity
  8
_AE_PILARES
100
AcDbPoint
 10
9812.124398
 20
8377.495066
 30
29820.574947
  0
POINT
  5
262
100
AcDbEntity
  8
_AE_PILARES
100
AcDbPoint
 10
9612.853127
 20
7776.540214
 30
29759.238898
  0
POINT
  5
263
100
AcDbEntity
  8
_AE_PILARES
100
AcDbPoint
 10
9822.687627
 20
8205.356082
 30
29808.677619
  0
POINT
  5
264
100
AcDbEntity
  8
_AE_PILARES
100
AcDbPoint
 10
9797.475606
 20
8615.969313
 30
29837.124094
  0
POINT
  5
265
100
AcDbEntity
  8
_AE_PILARES
100
AcDbPoint
 10
9787.51055
 20
8778.452547
 30
29848.424465
  0
POINT
  5
266
100
AcDbEntity
  8
_AE_PILARES
100
AcDbPoint
 10
6475.195335
 20
12828.552939
 30
30959.183204
  0
POINT
  5
267
100
AcDbEntity
  8
_AE_PILARES
100
AcDbPoint
 10
6514.383567
 20
12435.912703
 30
30935.411604
  0
POINT
  5
268
100
AcDbEntity
  8
_AE_PILARES
100
AcDbPoint
 10
5590.397124
 20
11879.879941
 30
30674.713865
  0
POINT
  5
269
100
AcDbEntity
  8
_AE_PILARES
100
AcDbPoint
 10
4838.475773
 20
11427.391802
 30
30465.245423
  0
POINT
  5
26A
100
AcDbEntity
  8
_AE_PILARES
100
AcDbPoint
 10
6342.318475
 20
12332.368079
 30
30886.486436
  0
POINT
  5
26B
100
AcDbEntity
  8
_AE_PILARES
100
AcDbPoint
 10
7052.530647
 20
13143.888124
 30
31120.793287
  0
POINT
  5
26C
100
AcDbEntity
  8
_AE_PILARES
100
AcDbPoint
 10
6743.261286
 20
12974.968704
 30
31033.890498
  0
POINT
  5
26D
100
AcDbEntity
  8
_AE_PILARES
100
AcDbPoint
 10
7810.351324
 20
13549.203874
 30
31336.388208
  0
POINT
  5
26E
100
AcDbEntity
  8
_AE_PILARES
100
AcDbPoint
 10
10865.168759
 20
14969.135844
 30
31148.639281
  0
POINT
  5
26F
100
AcDbEntity
  8
_AE_PILARES
100
AcDbPoint
 10
10537.808989
 20
11224.070212
 30
29912.386413
  0
POINT
  5
270
100
AcDbEntity
  8
_AE_PILARES
100
AcDbPoint
 10
9748.492291
 20
9414.842845
 30
29893.034797
  0
POINT
  5
271
100
AcDbEntity
  8
_AE_PILARES
100
AcDbPoint
 10
10954.181228
 20
11979.479489
 30
29870.93211
  0
POINT
  5
272
100
AcDbEntity
  8
_AE_PILARES
100
AcDbPoint
 10
10869.848735
 20
11412.531337
 30
29863.278831
  0
POINT
  5
273
100
AcDbEntity
  8
_AE_PILARES
100
AcDbPoint
 10
10971.780282
 20
11567.800924
 30
29848.909192
  0
POINT
  5
274
100
AcDbEntity
  8
_AE_PILARES
100
AcDbPoint
 10
10964.283377
 20
11743.181631
 30
29858.299064
  0
POINT
  5
275
100
AcDbEntity
  8
_AE_PILARES
100
AcDbPoint
 10
10638.169653
 20
11281.101029
 30
29900.139814
  0
POINT
  5
276
100
AcDbEntity
  8
_AE_PILARES
100
AcDbPoint
 10
10919.913474
 20
12780.85565
 30
29913.665421
  0
POINT
  5
277
100
AcDbEntity
  8
_AE_PILARES
100
AcDbPoint
 10
10955.108322
 20
14168.711156
 30
29844.318039
  0
POINT
  5
278
100
AcDbEntity
  8
_AE_PILARES
100
AcDbPoint
 10
11741.558859
 20
14407.586677
 30
29212.584407
  0
POINT
  5
279
100
AcDbEntity
  8
_AE_PILARES
100
AcDbPoint
 10
9690.031456
 20
10369.982874
 30
29960.865349
  0
POINT
  5
27A
100
AcDbEntity
  8
_AE_PILARES
100
AcDbPoint
 10
9699.505363
 20
10214.989052
 30
29949.754977
  0
POINT
  5
27B
100
AcDbEntity
  8
_AE_PILARES
100
AcDbPoint
 10
10040.702999
 20
10941.056874
 30
29963.532455
  0
POINT
  5
27C
100
AcDbEntity
  8
_AE_PILARES
100
AcDbPoint
 10
9701.417973
 20
10747.548671
 30
29987.435413
  0
POINT
  5
27D
100
AcDbEntity
  8
_AE_PILARES
100
AcDbPoint
 10
10162.661046
 20
11010.561365
 30
29952.04699
  0
POINT
  5
27E
100
AcDbEntity
  8
_AE_PILARES
100
AcDbPoint
 10
8572.973992
 20
13916.877663
 30
31561.62836
  0
POINT
  5
27F
100
AcDbEntity
  8
_AE_PILARES
100
AcDbPoint
 10
9336.520758
 20
14271.39035
 30
31752.787633
  0
POINT
  5
280
100
AcDbEntity
  8
_AE_PILARES
100
AcDbPoint
 10
10101.13369
 20
14618.737914
 30
31758.207506
  0
POINT
  5
281
100
AcDbEntity
  8
_AE_PILARES
100
AcDbPoint
 10
10885.579902
 20
13582.184015
 30
29955.4014
  0
POINT
  5
282
100
AcDbEntity
  8
_AE_PILARES
100
AcDbPoint
 10
11638.567155
 20
15252.587529
 30
29491.198009
  0
LINE
  5
283
100
AcDbEntity
  8
MODELO1
  6
GRDCON$0$CENTER
100
AcDbLine
 10
6498.265962
 20
12597.364848
 30
30945.0
 11
6666.666667
 21
12597.364848
 31
30985.0
1001
ACAD
1000
RTLwPs
1070
   131
  0
LINE
  5
288
100
AcDbEntity
  8
MODELO1
  6
GRDCON$0$CENTER
100
AcDbLine
 10
540.513203
 20
9397.364848
 30
29370.0
 11
666.666667
 21
9397.364848
 31
29395.0
1001
ACAD
1000
RTLwPs
1070
   131
  0
LINE
  5
289
100
AcDbEntity
  8
MODELO1
  6
GRDCON$0$CENTER
100
AcDbLine
 10
-580.699143
 20
2997.364848
 30
28595.0
 11
0.0
 21
2997.364848
 31
28703.0
1001
ACAD
1000
RTLwPs
1070
   131
  0
LINE
  5
28A
100
AcDbEntity
  8
MODELO1
  6
GRDCON$0$CENTER
100
AcDbLine
 10
-1200.656122
 20
6197.364848
 30
28759.0
 11
-666.666667
 21
6197.364848
 31
28858.0
1001
ACAD
1000
RTLwPs
1070
   131
  0
LINE
  5
28B
100
AcDbEntity
  8
MODELO2
  6
GRDCON$0$CENTER
100
AcDbLine
 10
9333.333333
 20
14269.908681
 30
31752.0
 11
9333.333333
 21
14197.364848
 31
31744.0
1001
ACAD
1000
RTLwPs
1070
   131
  0
LINE
  5
28D
100
AcDbEntity
  8
MODELO2
  6
GRDCON$0$CENTER
100
AcDbLine
 10
7333.333333
 20
13294.072136
 30
31200.0
 11
7333.333333
 21
12597.364848
 31
31147.0
1001
ACAD
1000
RTLwPs
1070
   131
  0
LINE
  5
28E
100
AcDbEntity
  8
MODELO2
  6
GRDCON$0$CENTER
100
AcDbLine
 10
3333.333333
 20
11065.361924
 30
30101.0
 11
3333.333333
 21
10997.364848
 31
30095.0
1001
ACAD
1000
RTLwPs
1070
   131
  0
LINE
  5
28F
100
AcDbEntity
  8
MODELO2
  6
GRDCON$0$CENTER
100
AcDbLine
 10
5333.333333
 20
11725.183785
 30
30603.0
 11
5333.333333
 21
10997.364848
 31
30540.0
1001
ACAD
1000
RTLwPs
1070
   131
  0
LINE
  5
290
100
AcDbEntity
  8
MODELO2
  6
GRDCON$0$CENTER
100
AcDbLine
 10
1333.333333
 20
9909.96545
 30
29575.0
 11
1333.333333
 21
9397.364848
 31
29529.0
1001
ACAD
1000
RTLwPs
1070
   131
  0
LINE
  5
291
100
AcDbEntity
  8
MODELO2
  6
GRDCON$0$CENTER
100
AcDbLine
 10
11333.333333
 20
15140.690862
 30
29901.0
 11
11333.333333
 21
14294.221483
 31
29470.0
1001
ACAD
1000
RTLwPs
1070
   131
  0
LINE
  5
292
100
AcDbEntity
  8
MODELO1
  6
GRDCON$0$CENTER
100
AcDbLine
 10
9177.088927
 20
14197.364848
 30
31718.0
 11
9333.333333
 21
14197.364848
 31
31744.0
1001
ACAD
1000
RTLwPs
1070
   131
  0
LINE
  5
293
100
AcDbEntity
  8
MODELO1
  6
GRDCON$0$CENTER
100
AcDbLine
 10
3215.213007
 20
10997.364848
 30
30069.0
 11
3333.333333
 21
10997.364848
 31
30095.0
1001
ACAD
1000
RTLwPs
1070
   131
  0
LINE
  5
294
100
AcDbEntity
  8
MODELO1
  6
GRDCON$0$CENTER
100
AcDbLine
 10
-1510.634611
 20
7797.364848
 30
28841.0
 11
-1333.333333
 21
7797.364848
 31
28874.0
1001
ACAD
1000
RTLwPs
1070
   131
  0
LINE
  5
295
100
AcDbEntity
  8
MODELO1
  6
GRDCON$0$CENTER
100
AcDbLine
 10
-890.677632
 20
4597.364848
 30
28677.0
 11
-666.666667
 21
4597.364848
 31
28719.0
1001
ACAD
1000
RTLwPs
1070
   131
  0
LINE
  5
296
100
AcDbEntity
  8
MODELO1
  6
GRDCON$0$CENTER
100
AcDbLine
 10
-270.720653
 20
1397.364848
 30
28511.0
 11
0.0
 21
1397.364848
 31
28562.0
1001
ACAD
1000
RTLwPs
1070
   131
  0
LINE
  5
297
100
AcDbEntity
  8
MODELO2
  6
GRDCON$0$CENTER
100
AcDbLine
 10
-666.666667
 20
7924.599615
 30
29009.0
 11
-666.666667
 21
7797.364848
 31
28997.0
1001
ACAD
1000
RTLwPs
1070
   131
  0
LINE
  5
298
100
AcDbEntity
  8
MODELO2
  6
GRDCON$0$CENTER
100
AcDbLine
 10
666.666667
 20
9521.804513
 30
29406.0
 11
666.666667
 21
9397.364848
 31
29395.0
1001
ACAD
1000
RTLwPs
1070
   131
  0
LINE
  5
299
100
AcDbEntity
  8
MODELO2
  6
GRDCON$0$CENTER
100
AcDbLine
 10
2666.666667
 20
10681.588815
 30
29923.0
 11
2666.666667
 21
9397.364848
 31
29807.0
1001
ACAD
1000
RTLwPs
1070
   131
  0
LINE
  5
29A
100
AcDbEntity
  8
MODELO2
  6
GRDCON$0$CENTER
100
AcDbLine
 10
4666.666667
 20
11323.99986
 30
30418.0
 11
4666.666667
 21
10997.364848
 31
30389.0
1001
ACAD
1000
RTLwPs
1070
   131
  0
LINE
  5
29B
100
AcDbEntity
  8
MODELO2
  6
GRDCON$0$CENTER
100
AcDbLine
 10
10666.666667
 20
14878.097865
 30
31402.0
 11
10666.666667
 21
14197.364848
 31
30233.0
1001
ACAD
1000
RTLwPs
1070
   131
  0
LINE
  5
29C
100
AcDbEntity
  8
MODELO2
  6
GRDCON$0$CENTER
100
AcDbLine
 10
-1333.333333
 20
7797.364848
 30
28874.0
 11
-1333.333333
 21
6882.197976
 31
28794.0
1001
ACAD
1000
RTLwPs
1070
   131
  0
LINE
  5
29D
100
AcDbEntity
  8
MODELO2
  6
GRDCON$0$CENTER
100
AcDbLine
 10
0.0
 20
8378.239204
 30
29175.0
 11
0.0
 21
7797.364848
 31
29134.0
1001
ACAD
1000
RTLwPs
1070
   131
  0
LINE
  5
29E
100
AcDbEntity
  8
MODELO2
  6
GRDCON$0$CENTER
100
AcDbLine
 10
2000.0
 20
10296.970355
 30
29727.0
 11
2000.0
 21
9397.364848
 31
29666.0
1001
ACAD
1000
RTLwPs
1070
   131
  0
LINE
  5
29F
100
AcDbEntity
  8
MODELO2
  6
GRDCON$0$CENTER
100
AcDbLine
 10
4000.0
 20
11445.967402
 30
30281.0
 11
4000.0
 21
10997.364848
 31
30241.0
1001
ACAD
1000
RTLwPs
1070
   131
  0
LINE
  5
2A0
100
AcDbEntity
  8
MODELO2
  6
GRDCON$0$CENTER
100
AcDbLine
 10
10000.0
 20
14572.793139
 30
31784.0
 11
10000.0
 21
14197.364848
 31
31638.0
1001
ACAD
1000
RTLwPs
1070
   131
  0
LINE
  5
2A1
100
AcDbEntity
  8
MODELO2
  6
GRDCON$0$CENTER
100
AcDbLine
 10
6000.0
 20
12126.367711
 30
30790.0
 11
6000.0
 21
10997.364848
 31
30694.0
1001
ACAD
1000
RTLwPs
1070
   131
  0
LINE
  5
2A2
100
AcDbEntity
  8
MODELO2
  6
GRDCON$0$CENTER
100
AcDbLine
 10
6666.666667
 20
12933.132036
 30
31013.0
 11
6666.666667
 21
12597.364848
 31
30985.0
1001
ACAD
1000
RTLwPs
1070
   131
  0
LINE
  5
2A3
100
AcDbEntity
  8
MODELO2
  6
GRDCON$0$CENTER
100
AcDbLine
 10
8000.0
 20
13640.635261
 30
31392.0
 11
8000.0
 21
12597.364848
 31
31322.0
1001
ACAD
1000
RTLwPs
1070
   131
  0
LINE
  5
2A4
100
AcDbEntity
  8
MODELO2
  6
GRDCON$0$CENTER
100
AcDbLine
 10
8666.666667
 20
13960.377245
 30
31590.0
 11
8666.666667
 21
12597.364848
 31
31453.0
1001
ACAD
1000
RTLwPs
1070
   131
  0
LINE
  5
2A5
100
AcDbEntity
  8
MODELO2
  6
GRDCON$0$CENTER
100
AcDbLine
 10
12000.0
 20
15415.362157
 30
29219.0
 11
12000.0
 21
14474.867739
 31
29102.0
1001
ACAD
1000
RTLwPs
1070
   131
  0
LINE
  5
2A6
100
AcDbEntity
  8
MODELO1
  6
GRDCON$0$CENTER
100
AcDbLine
 10
2592.66808
 20
1397.364848
 30
29071.0
 11
2666.666667
 21
1397.364848
 31
29087.0
1001
ACAD
1000
RTLwPs
1070
   131
  0
LINE
  5
2A9
100
AcDbEntity
  8
ALIN1
100
AcDbLine
 10
3333.333333
 20
1189.319437
 30
29230.0
 11
3518.812647
 21
1397.364848
 31
29303.0
  0
LINE
  5
2AA
100
AcDbEntity
  8
ALIN1
100
AcDbLine
 10
3518.812647
 20
1397.364848
 30
29303.0
 11
4000.0
 21
1937.09523
 31
29525.0
  0
LINE
  5
2AB
100
AcDbEntity
  8
ALIN1
100
AcDbLine
 10
4000.0
 20
1937.09523
 30
29525.0
 11
4326.19169
 21
2334.691995
 31
29672.366214
  0
LINE
  5
2AC
100
AcDbEntity
  8
ALIN1
100
AcDbLine
 10
4326.19169
 20
2334.691995
 30
29672.366214
 11
4666.666667
 21
2850.220723
 31
29709.0
  0
LINE
  5
2AD
100
AcDbEntity
  8
ALIN1
100
AcDbLine
 10
4666.666667
 20
2850.220723
 30
29709.0
 11
4763.849417
 21
2997.364848
 31
29731.0
  0
LINE
  5
2AE
100
AcDbEntity
  8
ALIN1
100
AcDbLine
 10
4763.849417
 20
2997.364848
 30
29731.0
 11
5009.30125
 21
3369.00099
 31
29679.132723
  0
LINE
  5
2AF
100
AcDbEntity
  8
ALIN1
100
AcDbLine
 10
5009.30125
 20
3369.00099
 30
29679.132723
 11
5333.333333
 21
3903.553643
 31
29639.0
  0
LINE
  5
2B0
100
AcDbEntity
  8
ALIN1
100
AcDbLine
 10
5333.333333
 20
3903.553643
 30
29639.0
 11
5683.533204
 21
4481.270829
 31
29571.2876
  0
LINE
  5
2B1
100
AcDbEntity
  8
ALIN1
100
AcDbLine
 10
5683.533204
 20
4481.270829
 30
29571.2876
 11
5757.450597
 21
4596.999201
 31
29545.082795
  0
LINE
  5
2B2
100
AcDbEntity
  8
ALIN1
100
AcDbLine
 10
5757.684141
 20
4597.364848
 30
29545.0
 11
6000.0
 21
4976.740083
 31
29535.0
  0
LINE
  5
2B3
100
AcDbEntity
  8
ALIN1
100
AcDbLine
 10
6000.0
 20
4976.740083
 30
29535.0
 11
6361.568213
 21
5542.817905
 31
29534.712731
  0
LINE
  5
2B4
100
AcDbEntity
  8
ALIN1
100
AcDbLine
 10
6361.568213
 20
5542.817905
 30
29534.712731
 11
6666.666667
 21
5853.381729
 31
29512.0
  0
LINE
  5
2B5
100
AcDbEntity
  8
ALIN1
100
AcDbLine
 10
6666.666667
 20
5853.381729
 30
29512.0
 11
7004.596363
 21
6197.364848
 31
29526.0
  0
LINE
  5
2B6
100
AcDbEntity
  8
ALIN1
100
AcDbLine
 10
7004.596363
 20
6197.364848
 30
29526.0
 11
7078.651805
 21
6272.746813
 31
29531.609989
  0
LINE
  5
2B7
100
AcDbEntity
  8
ALIN1
100
AcDbLine
 10
7078.651805
 20
6272.746813
 30
29531.609989
 11
7333.333333
 21
6463.953762
 31
29541.0
  0
LINE
  5
2B8
100
AcDbEntity
  8
ALIN1
100
AcDbLine
 10
7333.333333
 20
6463.953762
 30
29541.0
 11
7816.917527
 21
6827.016136
 31
29575.950961
  0
LINE
  5
2B9
100
AcDbEntity
  8
ALIN1
100
AcDbLine
 10
7816.917527
 20
6827.016136
 30
29575.950961
 11
8000.0
 21
6953.178123
 31
29592.0
  0
LINE
  5
2BA
100
AcDbEntity
  8
ALIN1
100
AcDbLine
 10
8000.0
 20
6953.178123
 30
29592.0
 11
8558.875475
 21
7338.30306
 31
29648.788022
  0
LINE
  5
2BB
100
AcDbEntity
  8
ALIN1
100
AcDbLine
 10
8558.875475
 20
7338.30306
 30
29648.788022
 11
8666.666667
 21
7386.73549
 31
29658.0
  0
LINE
  5
2BC
100
AcDbEntity
  8
ALIN1
100
AcDbLine
 10
9841.601289
 20
7897.588714
 30
29787.478086
 11
9822.687627
 21
8205.356082
 31
29808.677619
  0
LINE
  5
2BD
100
AcDbEntity
  8
ALIN1
100
AcDbLine
 10
9822.687627
 20
8205.356082
 30
29808.677619
 11
9812.124398
 21
8377.495066
 31
29820.574947
  0
LINE
  5
2BE
100
AcDbEntity
  8
ALIN1
100
AcDbLine
 10
9812.124398
 20
8377.495066
 30
29820.574947
 11
9797.475606
 21
8615.969313
 31
29837.124094
  0
LINE
  5
2BF
100
AcDbEntity
  8
ALIN1
100
AcDbLine
 10
9797.475606
 20
8615.969313
 30
29837.124094
 11
9787.51055
 21
8778.452547
 31
29848.424465
  0
LINE
  5
2C2
100
AcDbEntity
  8
ALIN1
100
AcDbLine
 10
9699.505363
 20
10214.989052
 30
29949.754977
 11
9690.031456
 21
10369.982874
 31
29960.865349
  0
LINE
  5
2C5
100
AcDbEntity
  8
ALIN1
100
AcDbLine
 10
10040.702999
 20
10941.056874
 30
29963.532455
 11
10139.501744
 21
10997.364848
 31
29954.0
  0
LINE
  5
2C6
100
AcDbEntity
  8
ALIN1
100
AcDbLine
 10
10537.808989
 20
11224.070212
 30
29912.386413
 11
10638.169653
 21
11281.101029
 31
29900.139814
  0
LINE
  5
2C7
100
AcDbEntity
  8
ALIN1
 62
     3
100
AcDbLine
 10
10638.169653
 20
11281.101029
 30
29900.139814
 11
10666.666667
 21
11297.283945
 31
29896.0
  0
LINE
  5
2C8
100
AcDbEntity
  8
ALIN1
100
AcDbLine
 10
10666.666667
 20
11297.283945
 30
29896.0
 11
10869.848735
 21
11412.531337
 31
29863.278831
  0
LINE
  5
2CB
100
AcDbEntity
  8
ALIN1
100
AcDbLine
 10
10971.780282
 20
11567.800924
 30
29848.909192
 11
10964.283377
 21
11743.181631
 31
29858.299064
  0
LINE
  5
2CC
100
AcDbEntity
  8
ALIN1
100
AcDbLine
 10
10964.283377
 20
11743.181631
 30
29858.299064
 11
10954.181228
 21
11979.479489
 31
29870.93211
  0
LINE
  5
2CD
100
AcDbEntity
  8
ALIN1
100
AcDbLine
 10
10954.181228
 20
11979.479489
 30
29870.93211
 11
10927.760646
 21
12597.364848
 31
29904.0
  0
LINE
  5
2CE
100
AcDbEntity
  8
ALIN1
100
AcDbLine
 10
10927.760646
 20
12597.364848
 30
29904.0
 11
10919.913474
 21
12780.85565
 31
29913.665421
  0
LINE
  5
2CF
100
AcDbEntity
  8
ALIN1
100
AcDbLine
 10
10919.913474
 20
12780.85565
 30
29913.665421
 11
10885.202243
 21
13591.068977
 31
29955.4014
  0
LINE
  5
2D2
100
AcDbEntity
  8
ALIN1
100
AcDbLine
 10
10960.704837
 20
14170.767929
 30
29844.318
 11
11034.618383
 21
14197.364848
 31
29750.0
  0
LINE
  5
2D3
100
AcDbEntity
  8
ALIN1
100
AcDbLine
 10
11034.618383
 20
14197.364848
 30
29750.0
 11
11333.333333
 21
14294.221483
 31
29470.0
  0
LINE
  5
2D4
100
AcDbEntity
  8
ALIN1
100
AcDbLine
 10
11333.333333
 20
14294.221483
 30
29470.0
 11
11741.558859
 21
14407.586677
 31
29212.584407
  0
LINE
  5
2D5
100
AcDbEntity
  8
ALIN1
100
AcDbLine
 10
11741.558859
 20
14407.586677
 30
29212.584407
 11
12000.0
 21
14474.867739
 31
29102.0
  0
LINE
  5
2D6
100
AcDbEntity
  8
ALIN2
100
AcDbLine
 10
566.98698
 20
9463.768303
 30
29381.060145
 11
666.666667
 21
9521.804513
 31
29406.0
  0
LINE
  5
2D8
100
AcDbEntity
  8
ALIN2
100
AcDbLine
 10
666.666667
 20
9521.804513
 30
29406.0
 11
1013.326406
 21
9723.645598
 31
29493.203253
  0
LINE
  5
2D9
100
AcDbEntity
  8
ALIN2
100
AcDbLine
 10
1013.326406
 20
9723.645598
 30
29493.203253
 11
1333.333333
 21
9909.96545
 31
29575.0
  0
LINE
  5
2DA
100
AcDbEntity
  8
ALIN2
100
AcDbLine
 10
1333.333333
 20
9909.96545
 30
29575.0
 11
1766.878004
 21
10162.394539
 31
29686.648693
  0
LINE
  5
2DB
100
AcDbEntity
  8
ALIN2
100
AcDbLine
 10
1766.878004
 20
10162.394539
 30
29686.648693
 11
2000.0
 21
10296.970355
 31
29727.0
  0
LINE
  5
2DC
100
AcDbEntity
  8
ALIN2
100
AcDbLine
 10
2000.0
 20
10296.970355
 30
29727.0
 11
2520.844567
 21
10597.64629
 31
29884.300588
  0
LINE
  5
2DD
100
AcDbEntity
  8
ALIN2
100
AcDbLine
 10
2520.844567
 20
10597.64629
 30
29884.300588
 11
2666.666667
 21
10681.588815
 31
29923.0
  0
LINE
  5
2DE
100
AcDbEntity
  8
ALIN2
100
AcDbLine
 10
2666.666667
 20
10681.588815
 30
29923.0
 11
3215.213007
 21
10997.364848
 31
30069.0
  0
LINE
  5
2DF
100
AcDbEntity
  8
ALIN2
100
AcDbLine
 10
3215.213007
 20
10997.364848
 30
30069.0
 11
3333.333332
 21
11065.363381
 31
30100.972574
  0
LINE
  5
2E0
100
AcDbEntity
  8
ALIN2
100
AcDbLine
 10
3333.333332
 20
11065.363381
 30
30100.972574
 11
3929.364245
 21
11405.711076
 31
30261.663867
  0
LINE
  5
2E2
100
AcDbEntity
  8
ALIN2
100
AcDbLine
 10
4183.369128
 20
11550.477386
 30
30330.544759
 11
4250.833619
 21
11588.926671
 31
30348.880474
  0
LINE
  5
2E5
100
AcDbEntity
  8
ALIN2
100
AcDbLine
 10
4838.475773
 20
11427.391802
 30
30465.245423
 11
5333.333333
 21
11725.183785
 31
30603.0
  0
LINE
  5
2E6
100
AcDbEntity
  8
ALIN2
100
AcDbLine
 10
5333.333333
 20
11725.183785
 30
30603.0
 11
5590.397124
 21
11879.879941
 31
30674.713865
  0
LINE
  5
2E7
100
AcDbEntity
  8
ALIN2
100
AcDbLine
 10
5590.397124
 20
11879.879941
 30
30674.713865
 11
6000.0
 21
12126.367711
 31
30790.0
  0
LINE
  5
2E8
100
AcDbEntity
  8
ALIN2
100
AcDbLine
 10
6000.0
 20
12126.367711
 30
30790.0
 11
6342.318475
 21
12332.368079
 31
30886.486436
  0
LINE
  5
2E9
100
AcDbEntity
  8
ALIN2
100
AcDbLine
 10
6342.318475
 20
12332.368079
 30
30886.486436
 11
6514.383567
 21
12435.912703
 31
30935.411604
  0
LINE
  5
2EA
100
AcDbEntity
  8
ALIN2
100
AcDbLine
 10
6514.383567
 20
12435.912703
 30
30935.411604
 11
6498.265962
 21
12597.364848
 31
30945.0
  0
LINE
  5
2EB
100
AcDbEntity
  8
ALIN2
100
AcDbLine
 10
6498.265962
 20
12597.364848
 30
30945.0
 11
6474.777474
 21
12832.701846
 31
30959.1832
  0
LINE
  5
2EC
100
AcDbEntity
  8
ALIN2
100
AcDbLine
 10
6474.777474
 20
12832.701846
 30
30959.1832
 11
6666.666667
 21
12933.132036
 31
31013.0
  0
LINE
  5
2ED
100
AcDbEntity
  8
ALIN2
100
AcDbLine
 10
6666.666667
 20
12933.132036
 30
31013.0
 11
6743.261286
 21
12974.968704
 31
31033.890498
  0
LINE
  5
2EE
100
AcDbEntity
  8
ALIN2
100
AcDbLine
 10
6743.261286
 20
12974.968704
 30
31033.890498
 11
7052.530647
 21
13143.888124
 31
31120.793287
  0
LINE
  5
2EF
100
AcDbEntity
  8
ALIN2
100
AcDbLine
 10
7052.530647
 20
13143.888124
 30
31120.793287
 11
7333.333333
 21
13294.072136
 31
31200.0
  0
LINE
  5
2F0
100
AcDbEntity
  8
ALIN2
100
AcDbLine
 10
7333.333333
 20
13294.072136
 30
31200.0
 11
7810.351324
 21
13549.203874
 31
31336.388208
  0
LINE
  5
2F1
100
AcDbEntity
  8
ALIN2
100
AcDbLine
 10
7810.351324
 20
13549.203874
 30
31336.388208
 11
7992.885668
 21
13637.205375
 31
31389.913823
  0
LINE
  5
2F2
100
AcDbEntity
  8
ALIN2
100
AcDbLine
 10
8000.0
 20
13640.635261
 30
31392.0
 11
8572.973992
 21
13916.877663
 31
31561.62836
  0
LINE
  5
2F3
100
AcDbEntity
  8
ALIN2
100
AcDbLine
 10
8572.973992
 20
13916.877663
 30
31561.62836
 11
8666.666667
 21
13960.377245
 31
31590.0
  0
LINE
  5
2F4
100
AcDbEntity
  8
ALIN2
100
AcDbLine
 10
8666.666667
 20
13960.377245
 30
31590.0
 11
9177.088927
 21
14197.364848
 31
31718.0
  0
LINE
  5
2F5
100
AcDbEntity
  8
ALIN2
100
AcDbLine
 10
9177.088927
 20
14197.364848
 30
31718.0
 11
9333.333333
 21
14269.908681
 31
31752.0
  0
LINE
  5
2F6
100
AcDbEntity
  8
ALIN2
100
AcDbLine
 10
9333.333333
 20
14269.908681
 30
31752.0
 11
10000.0
 21
14572.793139
 31
31784.0
  0
LINE
  5
2F7
100
AcDbEntity
  8
ALIN2
100
AcDbLine
 10
10000.0
 20
14572.793139
 30
31784.0
 11
10101.13369
 21
14618.737914
 31
31758.207506
  0
LINE
  5
2F8
100
AcDbEntity
  8
ALIN2
100
AcDbLine
 10
10101.13369
 20
14618.737914
 30
31758.207506
 11
10666.666667
 21
14878.097865
 31
31402.0
  0
LINE
  5
2F9
100
AcDbEntity
  8
ALIN2
100
AcDbLine
 10
10666.666667
 20
14878.097865
 30
31402.0
 11
10865.168759
 21
14969.135844
 31
31148.639281
  0
LINE
  5
2FA
100
AcDbEntity
  8
ALIN2
100
AcDbLine
 10
10865.168759
 20
14969.135844
 30
31148.639281
 11
11333.333333
 21
15140.690862
 31
29901.0
  0
LINE
  5
2FB
100
AcDbEntity
  8
ALIN2
100
AcDbLine
 10
11333.333333
 20
15140.690862
 30
29901.0
 11
11638.567155
 21
15252.587529
 31
29491.198009
  0
LINE
  5
2FC
100
AcDbEntity
  8
ALIN2
100
AcDbLine
 10
11638.567155
 20
15252.587529
 30
29491.198009
 11
12000.0
 21
15415.362157
 31
29219.0
  0
LINE
  5
2FD
100
AcDbEntity
  8
ALIN3
100
AcDbLine
 10
8000.0
 20
13640.635261
 30
31392.0
 11
8434.216721
 21
13874.983783
 31
31520.549413
  0
LINE
  5
300
100
AcDbEntity
  8
ALIN1
100
AcDbLine
 10
9690.031456
 20
10369.982874
 30
29960.865349
 11
9701.417973
 21
10747.548671
 31
29987.435413
  0
LINE
  5
301
100
AcDbEntity
  8
ALIN1
100
AcDbLine
 10
10139.501744
 20
10997.364848
 30
29954.0
 11
10537.808989
 21
11224.070212
 31
29912.386413
  0
LINE
  5
303
100
AcDbEntity
  8
ALIN3
100
AcDbLine
 10
11260.57801
 20
15131.701938
 30
30076.783144
 11
11069.670606
 21
15068.672935
 31
30578.444784
  0
LINE
  5
304
100
AcDbEntity
  8
ALIN3
100
AcDbLine
 10
11069.670606
 20
15068.672935
 30
30578.444784
 11
10853.271163
 21
14995.721157
 31
31148.639281
  0
LINE
  5
305
100
AcDbEntity
  8
ALIN3
100
AcDbLine
 10
10853.271163
 20
14995.721157
 30
31148.639281
 11
10688.890904
 21
14940.301969
 31
31348.983707
  0
LINE
  5
306
100
AcDbEntity
  8
ALIN3
100
AcDbLine
 10
10688.890904
 20
14940.301969
 30
31348.983707
 11
10504.177756
 21
14863.431832
 31
31490.347051
  0
LINE
  5
307
100
AcDbEntity
  8
ALIN3
100
AcDbLine
 10
10504.177756
 20
14863.431832
 30
31490.347051
 11
10319.593162
 21
14786.274436
 31
31604.856665
  0
LINE
  5
308
100
AcDbEntity
  8
ALIN3
100
AcDbLine
 10
10319.593162
 20
14786.274436
 30
31604.856665
 11
10135.008568
 21
14709.117041
 31
31719.36628
  0
LINE
  5
309
100
AcDbEntity
  8
ALIN3
100
AcDbLine
 10
10135.008568
 20
14709.117041
 30
31719.36628
 11
9971.713293
 21
14636.000107
 31
31784.0
  0
LINE
  5
30A
100
AcDbEntity
  8
ALIN3
100
AcDbLine
 10
9971.713293
 20
14636.000107
 30
31784.0
 11
9771.976375
 21
14541.089066
 31
31774.338101
  0
LINE
  5
30B
100
AcDbEntity
  8
ALIN3
100
AcDbLine
 10
9771.976375
 20
14541.089066
 30
31774.338101
 11
9591.429721
 21
14454.90885
 31
31765.597567
  0
LINE
  5
30C
100
AcDbEntity
  8
ALIN3
100
AcDbLine
 10
9591.429721
 20
14454.90885
 30
31765.597567
 11
9411.877844
 21
14366.505792
 31
31756.857034
  0
LINE
  5
30D
100
AcDbEntity
  8
ALIN3
100
AcDbLine
 10
9411.877844
 20
14366.505792
 30
31756.857034
 11
9232.325967
 21
14278.102733
 31
31734.462095
  0
LINE
  5
30E
100
AcDbEntity
  8
ALIN3
100
AcDbLine
 10
9232.325967
 20
14278.102733
 30
31734.462095
 11
9052.774091
 21
14189.699674
 31
31691.476219
  0
LINE
  5
30F
100
AcDbEntity
  8
ALIN3
 62
     1
100
AcDbLine
 10
8434.216721
 20
13874.983783
 30
31520.549413
 11
8562.493972
 21
13940.295386
 31
31561.62836
  0
LINE
  5
310
100
AcDbEntity
  8
ALIN3
 62
     1
100
AcDbLine
 10
8562.493972
 20
13940.295386
 30
31561.62836
 11
8695.788133
 21
14008.161319
 31
31600.486587
  0
LINE
  5
311
100
AcDbEntity
  8
ALIN3
100
AcDbLine
 10
8695.788133
 20
14008.161319
 30
31600.486587
 11
8874.241214
 21
14099.019649
 31
31645.981403
  0
LINE
  5
312
100
AcDbEntity
  8
ALIN3
100
AcDbLine
 10
8874.241214
 20
14099.019649
 30
31645.981403
 11
9052.774091
 21
14189.699674
 31
31691.476219
  0
LINE
  5
318
100
AcDbEntity
  8
ALIN4
100
AcDbLine
 10
9878.006116
 20
7763.617538
 30
29784.349003
 11
9711.282866
 21
7705.794218
 31
29766.0
  0
LINE
  5
319
100
AcDbEntity
  8
ALIN4
100
AcDbLine
 10
9711.282866
 20
7705.794218
 30
29766.0
 11
9517.34205
 21
7638.531244
 31
29744.999602
  0
LINE
  5
31A
100
AcDbEntity
  8
ALIN4
100
AcDbLine
 10
9517.34205
 20
7638.531244
 30
29744.999602
 11
9328.299932
 21
7572.967246
 31
29724.61981
  0
LINE
  5
31B
100
AcDbEntity
  8
ALIN4
100
AcDbLine
 10
9328.299932
 20
7572.967246
 30
29724.61981
 11
9139.58854
 21
7506.534231
 31
29705.15758
  0
LINE
  5
31C
100
AcDbEntity
  8
ALIN4
100
AcDbLine
 10
9139.58854
 20
7506.534231
 30
29705.15758
 11
8965.543926
 21
7429.677282
 31
29686.66846
  0
LINE
  5
31D
100
AcDbEntity
  8
ALIN4
100
AcDbLine
 10
8965.543926
 20
7429.677282
 30
29686.66846
 11
8779.7591
 21
7327.439728
 31
29666.233118
  0
LINE
  5
31E
100
AcDbEntity
  8
ALIN4
100
AcDbLine
 10
8779.7591
 20
7327.439728
 30
29666.233118
 11
8633.235367
 21
7244.293774
 31
29649.029688
  0
LINE
  5
31F
100
AcDbEntity
  8
ALIN4
100
AcDbLine
 10
8633.235367
 20
7244.293774
 30
29649.029688
 11
8458.171335
 21
7144.358452
 31
29632.293581
  0
LINE
  5
320
100
AcDbEntity
  8
ALIN4
100
AcDbLine
 10
8458.171335
 20
7144.358452
 30
29632.293581
 11
8294.959881
 21
7028.635947
 31
29615.545934
  0
LINE
  5
321
100
AcDbEntity
  8
ALIN4
100
AcDbLine
 10
8294.959881
 20
7028.635947
 30
29615.545934
 11
8131.748427
 21
6912.913442
 31
29598.798286
  0
LINE
  5
322
100
AcDbEntity
  8
ALIN4
100
AcDbLine
 10
8131.748427
 20
6912.913442
 30
29598.798286
 11
7968.536973
 21
6797.190936
 31
29583.41667
  0
LINE
  5
323
100
AcDbEntity
  8
ALIN4
100
AcDbLine
 10
7968.536973
 20
6797.190936
 30
29583.41667
 11
7805.325519
 21
6681.468431
 31
29570.364408
  0
LINE
  5
324
100
AcDbEntity
  8
ALIN4
100
AcDbLine
 10
7805.325519
 20
6681.468431
 30
29570.364408
 11
7652.278982
 21
6552.206641
 31
29558.804723
  0
LINE
  5
325
100
AcDbEntity
  8
ALIN4
100
AcDbLine
 10
7652.278982
 20
6552.206641
 30
29558.804723
 11
7502.647792
 21
6418.395738
 31
29547.245037
  0
LINE
  5
326
100
AcDbEntity
  8
ALIN4
100
AcDbLine
 10
7502.647792
 20
6418.395738
 30
29547.245037
 11
7353.016602
 21
6284.584835
 31
29538.288833
  0
LINE
  5
327
100
AcDbEntity
  8
ALIN4
100
AcDbLine
 10
7353.016602
 20
6284.584835
 30
29538.288833
 11
7203.747942
 21
6150.291056
 31
29532.391881
  0
LINE
  5
328
100
AcDbEntity
  8
ALIN4
100
AcDbLine
 10
7203.747942
 20
6150.291056
 30
29532.391881
 11
7014.845942
 21
5958.015675
 31
29524.750052
  0
LINE
  5
32A
100
AcDbEntity
  8
ALIN4
100
AcDbLine
 10
6741.876338
 20
5727.506229
 30
29514.353205
 11
6612.579356
 21
5574.882038
 31
29524.803955
  0
LINE
  5
32C
100
AcDbEntity
  8
ALIN4
100
AcDbLine
 10
6255.105285
 20
5046.352542
 30
29534.917678
 11
6141.315672
 21
4875.974784
 31
29535.272591
  0
LINE
  5
32D
100
AcDbEntity
  8
ALIN4
100
AcDbLine
 10
6141.315672
 20
4875.974784
 30
29535.272591
 11
6030.147931
 21
4709.522765
 31
29539.716335
  0
LINE
  5
32E
100
AcDbEntity
  8
ALIN4
100
AcDbLine
 10
6030.147931
 20
4709.522765
 30
29539.716335
 11
5918.980189
 21
4543.070747
 31
29544.160082
  0
LINE
  5
32F
100
AcDbEntity
  8
ALIN4
100
AcDbLine
 10
5918.980189
 20
4543.070747
 30
29544.160082
 11
5807.812447
 21
4376.618729
 31
29573.740465
  0
LINE
  5
330
100
AcDbEntity
  8
ALIN4
100
AcDbLine
 10
5807.812447
 20
4376.618729
 30
29573.740465
 11
5704.254941
 21
4205.514587
 31
29593.786497
  0
LINE
  5
331
100
AcDbEntity
  8
ALIN4
100
AcDbLine
 10
5704.254941
 20
4205.514587
 30
29593.786497
 11
5601.133704
 21
4034.143754
 31
29613.832542
  0
LINE
  5
332
100
AcDbEntity
  8
ALIN4
100
AcDbLine
 10
5601.133704
 20
4034.143754
 30
29613.832542
 11
5498.012467
 21
3862.772921
 31
29633.878584
  0
LINE
  5
333
100
AcDbEntity
  8
ALIN4
100
AcDbLine
 10
5498.012467
 20
3862.772921
 30
29633.878584
 11
5394.89123
 21
3691.402088
 31
29648.56009
  0
LINE
  5
334
100
AcDbEntity
  8
ALIN4
100
AcDbLine
 10
5394.89123
 20
3691.402088
 30
29648.56009
 11
5291.769993
 21
3520.031255
 31
29661.400744
  0
LINE
  5
335
100
AcDbEntity
  8
ALIN4
100
AcDbLine
 10
5291.769993
 20
3520.031255
 30
29661.400744
 11
5175.867245
 21
3356.942555
 31
29674.215719
  0
LINE
  5
336
100
AcDbEntity
  8
ALIN4
100
AcDbLine
 10
5175.867245
 20
3356.942555
 30
29674.215719
 11
5047.337526
 21
3185.572318
 31
29694.4635
  0
LINE
  5
337
100
AcDbEntity
  8
ALIN4
100
AcDbLine
 10
5047.337526
 20
3185.572318
 30
29694.4635
 11
4927.145251
 21
3025.318496
 31
29717.755002
  0
LINE
  5
338
100
AcDbEntity
  8
ALIN4
100
AcDbLine
 10
4927.145251
 20
3025.318496
 30
29717.755002
 11
4806.952975
 21
2865.064675
 31
29720.237301
  0
LINE
  5
339
100
AcDbEntity
  8
ALIN4
100
AcDbLine
 10
4806.952975
 20
2865.064675
 30
29720.237301
 11
4686.7607
 21
2704.810853
 31
29702.481516
  0
LINE
  5
33A
100
AcDbEntity
  8
ALIN4
100
AcDbLine
 10
4686.7607
 20
2704.810853
 30
29702.481516
 11
4561.793471
 21
2547.734231
 31
29690.622002
  0
LINE
  5
33B
100
AcDbEntity
  8
ALIN4
100
AcDbLine
 10
4561.793471
 20
2547.734231
 30
29690.622002
 11
4426.931588
 21
2397.241398
 31
29678.762487
  0
LINE
  5
33C
100
AcDbEntity
  8
ALIN4
100
AcDbLine
 10
4426.931588
 20
2397.241398
 30
29678.762487
 11
4308.794445
 21
2235.620116
 31
29645.840635
  0
LINE
  5
33D
100
AcDbEntity
  8
ALIN4
100
AcDbLine
 10
4308.794445
 20
2235.620116
 30
29645.840635
 11
4183.491916
 21
2079.247055
 31
29588.357134
  0
LINE
  5
33E
100
AcDbEntity
  8
ALIN4
100
AcDbLine
 10
4183.491916
 20
2079.247055
 30
29588.357134
 11
4052.980474
 21
1916.367605
 31
29530.592777
  0
LINE
  5
33F
100
AcDbEntity
  8
ALIN4
100
AcDbLine
 10
4052.980474
 20
1916.367605
 30
29530.592777
 11
3923.60216
 21
1763.80119
 31
29469.583879
  0
LINE
  5
340
100
AcDbEntity
  8
ALIN4
100
AcDbLine
 10
3923.60216
 20
1763.80119
 30
29469.583879
 11
3789.861286
 21
1615.083232
 31
29408.17936
  0
LINE
  5
341
100
AcDbEntity
  8
ALIN4
100
AcDbLine
 10
3789.861286
 20
1615.083232
 30
29408.17936
 11
3656.120411
 21
1466.365274
 31
29346.774841
  0
LINE
  5
342
100
AcDbEntity
  8
ALIN4
100
AcDbLine
 10
3656.120411
 20
1466.365274
 30
29346.774841
 11
3522.379537
 21
1317.647316
 31
29287.960514
  0
LINE
  5
343
100
AcDbEntity
  8
ALIN4
100
AcDbLine
 10
3522.379537
 20
1317.647316
 30
29287.960514
 11
3388.634461
 21
1168.933065
 31
29235.577686
  0
LINE
  5
344
100
AcDbEntity
  8
ALIN4
100
AcDbLine
 10
3388.634461
 20
1168.933065
 30
29235.577686
 11
3249.858312
 21
1024.657004
 31
29179.164324
  0
LINE
  5
345
100
AcDbEntity
  8
ALIN4
100
AcDbLine
 10
3249.858312
 20
1024.657004
 30
29179.164324
 11
3111.082163
 21
880.380943
 31
29122.27065
  0
LINE
  5
346
100
AcDbEntity
  8
ALIN4
100
AcDbLine
 10
3111.082163
 20
880.380943
 30
29122.27065
 11
2972.306014
 21
736.104882
 31
29065.376977
  0
LINE
  5
347
100
AcDbEntity
  8
ALIN4
100
AcDbLine
 10
2972.306014
 20
736.104882
 30
29065.376977
 11
2870.901973
 21
630.682043
 31
29027.478932
  0
LINE
  5
357
100
AcDbEntity
  8
ALIN4
100
AcDbLine
 10
2859.563072
 20
657.908538
 30
29027.478932
 11
2870.901973
 21
630.682043
 31
29027.478932
  0
LINE
  5
358
100
AcDbEntity
  8
ALIN4
100
AcDbLine
 10
6255.105285
 20
5046.352542
 30
29534.917678
 11
6266.682612
 21
5172.663224
 31
29534.769277
  0
LINE
  5
359
100
AcDbEntity
  8
ALIN4
100
AcDbLine
 10
7000.385678
 20
6032.65472
 30
29524.750052
 11
7014.845942
 21
5958.015675
 31
29524.750052
  0
LINE
  5
3E9
100
AcDbEntity
  8
ALIN3
 62
     1
100
AcDbLine
 10
11260.57801
 20
15131.701938
 30
30076.783144
 11
11638.567155
 21
15252.587529
 31
29491.198009
  0
INSERT
  5
407
100
AcDbEntity
  8
PILARESP
100
AcDbBlockReference
  2
APOYO
 10
9333.333333
 20
9397.364848
 30
28575.0
  0
INSERT
  5
408
100
AcDbEntity
  8
PILARESP
100
AcDbBlockReference
  2
APOYO
 10
7333.333333
 20
9397.364848
 30
27775.0
  0
INSERT
  5
409
100
AcDbEntity
  8
PILARESP
100
AcDbBlockReference
  2
APOYO
 10
9333.333333
 20
10997.364848
 30
28125.0
  0
INSERT
  5
40A
100
AcDbEntity
  8
PILARESP
100
AcDbBlockReference
  2
APOYO
 10
7333.333333
 20
10997.364848
 30
28125.0
  0
INSERT
  5
40B
100
AcDbEntity
  8
PILARESP
100
AcDbBlockReference
  2
APOYO
 10
9333.333333
 20
12597.364848
 30
28125.0
  0
INSERT
  5
40C
100
AcDbEntity
  8
PILARESP
100
AcDbBlockReference
  2
APOYO
 10
7333.333333
 20
12597.364848
 30
28575.0
  0
INSERT
  5
40D
100
AcDbEntity
  8
PILARESP
100
AcDbBlockReference
  2
APOYO
 10
5333.333333
 20
10997.364848
 30
28575.0
  0
INSERT
  5
40E
100
AcDbEntity
  8
PILARESP
100
AcDbBlockReference
  2
APOYO
 10
5333.333333
 20
9397.364848
 30
27775.0
  0
INSERT
  5
410
100
AcDbEntity
  8
PILARESP
100
AcDbBlockReference
  2
APOYO
 10
3333.333333
 20
10997.364848
 30
28575.0
  0
INSERT
  5
411
100
AcDbEntity
  8
PILARESP
100
AcDbBlockReference
  2
APOYO
 10
7333.333333
 20
7797.364848
 30
28575.0
  0
INSERT
  5
412
100
AcDbEntity
  8
PILARESP
100
AcDbBlockReference
  2
APOYO
 10
9333.333333
 20
7797.364848
 30
28575.0
  0
INSERT
  5
413
100
AcDbEntity
  8
PILARESP
100
AcDbBlockReference
  2
APOYO
 10
5333.333333
 20
7797.364848
 30
27775.0
  0
INSERT
  5
414
100
AcDbEntity
  8
PILARESP
100
AcDbBlockReference
  2
APOYO
 10
3333.333333
 20
7797.364848
 30
27775.0
  0
INSERT
  5
415
100
AcDbEntity
  8
PILARESP
100
AcDbBlockReference
  2
APOYO
 10
1333.333333
 20
7797.364848
 30
28515.0
  0
INSERT
  5
416
100
AcDbEntity
  8
PILARESP
100
AcDbBlockReference
  2
APOYO
 10
1333.333333
 20
9397.364848
 30
28575.0
  0
INSERT
  5
417
100
AcDbEntity
  8
PILARESP
100
AcDbBlockReference
  2
APOYO
 10
5333.333333
 20
6197.364848
 30
27775.0
  0
INSERT
  5
418
100
AcDbEntity
  8
PILARESP
100
AcDbBlockReference
  2
APOYO
 10
5333.333333
 20
4597.364848
 30
28515.0
  0
INSERT
  5
419
100
AcDbEntity
  8
PILARESP
100
AcDbBlockReference
  2
APOYO
 10
3333.333333
 20
4597.364848
 30
28515.0
  0
INSERT
  5
41A
100
AcDbEntity
  8
PILARESP
100
AcDbBlockReference
  2
APOYO
 10
3333.333333
 20
6197.364848
 30
27775.0
  0
INSERT
  5
41B
100
AcDbEntity
  8
PILARESP
100
AcDbBlockReference
  2
APOYO
 10
3333.333333
 20
2997.364848
 30
28515.0
  0
INSERT
  5
41C
100
AcDbEntity
  8
PILARESP
100
AcDbBlockReference
  2
APOYO
 10
3333.333333
 20
1397.364848
 30
28515.0
  0
INSERT
  5
41D
100
AcDbEntity
  8
PILARESP
100
AcDbBlockReference
  2
APOYO
 10
1333.333333
 20
2997.364848
 30
28515.0
  0
INSERT
  5
41E
100
AcDbEntity
  8
PILARESP
100
AcDbBlockReference
  2
APOYO
 10
1333.333333
 20
4597.364848
 30
28515.0
  0
INSERT
  5
41F
100
AcDbEntity
  8
PILARESP
100
AcDbBlockReference
  2
APOYO
 10
1333.333333
 20
6197.364848
 30
28515.0
  0
INSERT
  5
420
100
AcDbEntity
  8
PILARESP
100
AcDbBlockReference
  2
APOYO
 10
-666.666667
 20
7797.364848
 30
28515.0
  0
INSERT
  5
421
100
AcDbEntity
  8
PILARESP
100
AcDbBlockReference
  2
APOYO
 10
-666.666667
 20
6197.364848
 30
28515.0
  0
INSERT
  5
422
100
AcDbEntity
  8
PILARESP
100
AcDbBlockReference
  2
APOYO
 10
-666.666667
 20
4597.364848
 30
28515.0
  0
INSERT
  5
446
100
AcDbEntity
  8
CCAUX
100
AcDbBlockReference
  2
APOYO2
 10
2000.0
 20
1596.590003
 30
28966.0
  0
INSERT
  5
447
100
AcDbEntity
  8
CC
100
AcDbBlockReference
  2
APOYO2
 10
2592.66808
 20
1397.364848
 30
29071.0
  0
INSERT
  5
448
100
AcDbEntity
  8
CC-ANULADA
100
AcDbBlockReference
  2
APOYO2
 10
2666.666667
 20
1192.345183
 30
29068.0
  0
INSERT
  5
449
100
AcDbEntity
  8
CC
100
AcDbBlockReference
  2
APOYO2
 10
2859.563072
 20
657.908538
 30
29027.478932
  0
INSERT
  5
44A
100
AcDbEntity
  8
CC-ANULADA
100
AcDbBlockReference
  2
APOYO2
 10
1438.424358
 20
1397.364848
 30
28837.0
  0
INSERT
  5
44B
100
AcDbEntity
  8
CCAUX
100
AcDbBlockReference
  2
APOYO2
 10
1333.333333
 20
1360.082648
 30
28813.0
  0
INSERT
  5
44C
100
AcDbEntity
  8
CCAUX
100
AcDbBlockReference
  2
APOYO2
 10
666.666667
 20
1123.575293
 30
28664.0
  0
INSERT
  5
44D
100
AcDbEntity
  8
CC
100
AcDbBlockReference
  2
APOYO2
 10
0.0
 20
0.0
 30
28437.0
  0
INSERT
  5
44E
100
AcDbEntity
  8
CC
100
AcDbBlockReference
  2
APOYO2
 10
-270.720653
 20
1397.364848
 30
28511.0
  0
INSERT
  5
44F
100
AcDbEntity
  8
CC
100
AcDbBlockReference
  2
APOYO2
 10
-580.699143
 20
2997.364848
 30
28595.0
  0
INSERT
  5
450
100
AcDbEntity
  8
CC
100
AcDbBlockReference
  2
APOYO2
 10
-666.666667
 20
3441.098988
 30
28618.0
  0
INSERT
  5
451
100
AcDbEntity
  8
CC-ANULADA
100
AcDbBlockReference
  2
APOYO2
 10
-890.677632
 20
4597.364848
 30
28677.0
  0
INSERT
  5
452
100
AcDbEntity
  8
CC-ANULADA
100
AcDbBlockReference
  2
APOYO2
 10
-1200.656122
 20
6197.364848
 30
28759.0
  0
INSERT
  5
453
100
AcDbEntity
  8
CC
100
AcDbBlockReference
  2
APOYO2
 10
-1333.333333
 20
6882.197976
 30
28794.0
  0
INSERT
  5
454
100
AcDbEntity
  8
CC
100
AcDbBlockReference
  2
APOYO2
 10
-1510.634611
 20
7797.364848
 30
28841.0
  0
INSERT
  5
455
100
AcDbEntity
  8
CC-ANULADA
100
AcDbBlockReference
  2
APOYO2
 10
-1333.333333
 20
7969.120751
 30
28889.0
  0
INSERT
  5
456
100
AcDbEntity
  8
CC-ANULADA
100
AcDbBlockReference
  2
APOYO2
 10
-666.666667
 20
7924.599615
 30
29009.0
  0
INSERT
  5
457
100
AcDbEntity
  8
CCAUX
100
AcDbBlockReference
  2
APOYO2
 10
0.0
 20
8378.239204
 30
29175.0
  0
INSERT
  5
458
100
AcDbEntity
  8
CCAUX
100
AcDbBlockReference
  2
APOYO2
 10
540.513203
 20
9397.364848
 30
29370.0
  0
INSERT
  5
46F
100
AcDbEntity
  8
PILARESS
100
AcDbBlockReference
  2
P1
 10
4326.109955
 20
2334.58018
 30
28465.0
  0
INSERT
  5
470
100
AcDbEntity
  8
PILARESS
100
AcDbBlockReference
  2
P1
 10
5009.219057
 20
3368.888549
 30
28465.009336
  0
INSERT
  5
471
100
AcDbEntity
  8
PILARESS
100
AcDbBlockReference
  2
P1
 10
5683.459273
 20
4481.16969
 30
28479.204401
  0
INSERT
  5
472
100
AcDbEntity
  8
PILARESS
100
AcDbBlockReference
  2
P1
 10
6361.495797
 20
5542.718838
 30
28465.0
  0
INSERT
  5
473
100
AcDbEntity
  8
PILARESS
100
AcDbBlockReference
  2
P1
 10
7078.651805
 20
6272.746813
 30
28464.9963
  0
INSERT
  5
474
100
AcDbEntity
  8
PILARESS
100
AcDbBlockReference
  2
P1
 10
7816.842081
 20
6826.912925
 30
28461.487922
  0
INSERT
  5
475
100
AcDbEntity
  8
PILARESS
100
AcDbBlockReference
  2
P1
 10
8558.795319
 20
7338.193405
 30
28464.75212
  0
INSERT
  5
476
100
AcDbEntity
  8
PILARESS
100
AcDbBlockReference
  2
P1
 10
9333.247764
 20
7684.858902
 30
28464.991549
  0
INSERT
  5
477
100
AcDbEntity
  8
PILARESS
100
AcDbBlockReference
  2
P1
 10
9612.853128
 20
7776.540215
 30
28460.74639
  0
INSERT
  5
482
100
AcDbEntity
  8
CC
100
AcDbBlockReference
  2
P2
 10
9670.538975
 20
7897.503468
 30
28867.0
  0
INSERT
  5
483
100
AcDbEntity
  8
CC
100
AcDbBlockReference
  2
P2
 10
9651.623871
 20
8205.268863
 30
28866.895737
  0
INSERT
  5
484
100
AcDbEntity
  8
CC
100
AcDbBlockReference
  2
P2
 10
9641.059843
 20
8377.406754
 30
28867.0
  0
INSERT
  5
485
100
AcDbEntity
  8
CC
100
AcDbBlockReference
  2
P2
 10
9626.409932
 20
8615.879468
 30
28867.0
  0
INSERT
  5
486
100
AcDbEntity
  8
CC
100
AcDbBlockReference
  2
P2
 10
9616.444111
 20
8778.361657
 30
28867.0
  0
INSERT
  5
487
100
AcDbEntity
  8
CC
100
AcDbBlockReference
  2
P2
 10
9578.492973
 20
9397.271636
 30
28885.507492
  0
INSERT
  5
488
100
AcDbEntity
  8
CC
100
AcDbBlockReference
  2
P2
 10
9528.432064
 20
10214.888777
 30
28867.0
  0
INSERT
  5
489
100
AcDbEntity
  8
CC
100
AcDbBlockReference
  2
P2
 10
9518.957405
 20
10369.88157
 30
28867.0
  0
INSERT
  5
494
100
AcDbEntity
  8
CC
100
AcDbBlockReference
  2
P3
 10
9701.351126
 20
10747.457224
 30
29000.0
  0
INSERT
  5
495
100
AcDbEntity
  8
CC
100
AcDbBlockReference
  2
P3
 10
10040.63777
 20
10940.96764
 30
29000.0
  0
INSERT
  5
496
100
AcDbEntity
  8
CC
100
AcDbBlockReference
  2
P3
 10
10139.437163
 20
10997.2765
 30
29000.032601
  0
INSERT
  5
497
100
AcDbEntity
  8
CC
100
AcDbBlockReference
  2
P3
 10
10537.747223
 20
11223.985715
 30
29000.0
  0
INSERT
  5
498
100
AcDbEntity
  8
CC
100
AcDbBlockReference
  2
P3
 10
10638.108716
 20
11281.017666
 30
29000.0
  0
INSERT
  5
499
100
AcDbEntity
  8
CC
100
AcDbBlockReference
  2
P3
 10
10869.790293
 20
11412.451387
 30
29000.0
  0
INSERT
  5
4A5
100
AcDbEntity
  8
PILARESE2
100
AcDbBlockReference
  2
P4
 10
10800.727891
 20
11567.729251
 30
29075.0
  0
INSERT
  5
4A6
100
AcDbEntity
  8
PILARESE2
100
AcDbBlockReference
  2
P4
 10
10793.23035
 20
11743.109089
 30
29075.0
  0
INSERT
  5
4A7
100
AcDbEntity
  8
PILARESE2
100
AcDbBlockReference
  2
P4
 10
10783.127346
 20
11979.405777
 30
29075.0
  0
INSERT
  5
4A8
100
AcDbEntity
  8
PILARESE2
100
AcDbBlockReference
  2
P4
 10
10748.856699
 20
12780.77798
 30
29075.0
  0
INSERT
  5
4A9
100
AcDbEntity
  8
PILARESE2
100
AcDbBlockReference
  2
P4
 10
10714.142642
 20
13590.987441
 30
29074.990671
  0
INSERT
  5
4B7
100
AcDbEntity
  8
PILARESSE2
100
AcDbBlockReference
  2
P5
 10
11741.549414
 20
14407.573755
 30
29073.057221
  0
LINE
  5
4BB
100
AcDbEntity
  8
ALIN1
100
AcDbLine
 10
9699.505363
 20
10214.989052
 30
29949.754977
 11
9749.561109
 21
9397.364848
 31
29892.0
  0
LINE
  5
4BC
100
AcDbEntity
  8
ALIN1
100
AcDbLine
 10
9749.561109
 20
9397.364848
 30
29892.0
 11
9787.51055
 21
8778.452547
 31
29848.424465
  0
INSERT
  5
4D8
100
AcDbEntity
  8
CC
100
AcDbBlockReference
  2
P6
 10
11638.567155
 20
15252.587529
 30
28975.0
  0
INSERT
  5
4D9
100
AcDbEntity
  8
CC
100
AcDbBlockReference
  2
P6
 10
10865.168759
 20
14969.135844
 30
29175.0
  0
INSERT
  5
4DA
100
AcDbEntity
  8
CC
100
AcDbBlockReference
  2
P6
 10
10101.13369
 20
14618.737914
 30
29175.0
  0
INSERT
  5
4DB
100
AcDbEntity
  8
CC
100
AcDbBlockReference
  2
P6
 10
9333.333333
 20
14269.908681
 30
29175.0
  0
INSERT
  5
4DC
100
AcDbEntity
  8
CC
100
AcDbBlockReference
  2
P6
 10
8572.973992
 20
13916.877663
 30
29064.62836
  0
INSERT
  5
4DD
100
AcDbEntity
  8
CC
100
AcDbBlockReference
  2
P6
 10
7810.351324
 20
13549.203874
 30
29019.672644
  0
INSERT
  5
4DE
100
AcDbEntity
  8
CC
100
AcDbBlockReference
  2
P6
 10
7052.530647
 20
13143.888124
 30
28975.0
  0
INSERT
  5
4DF
100
AcDbEntity
  8
CC
100
AcDbBlockReference
  2
P6
 10
6743.261286
 20
12974.968704
 30
28975.0
  0
INSERT
  5
4E0
100
AcDbEntity
  8
CC
100
AcDbBlockReference
  2
P6
 10
6474.777474
 20
12832.701846
 30
28975.0
  0
INSERT
  5
4EB
100
AcDbEntity
  8
CC
100
AcDbBlockReference
  2
P7
 10
6514.383567
 20
12435.912703
 30
28975.0
  0
INSERT
  5
4EC
100
AcDbEntity
  8
CC
100
AcDbBlockReference
  2
P7
 10
6342.318475
 20
12332.368079
 30
28975.0
  0
INSERT
  5
4ED
100
AcDbEntity
  8
CC
100
AcDbBlockReference
  2
P7
 10
5590.397124
 20
11879.879941
 30
28975.0
  0
INSERT
  5
4EE
100
AcDbEntity
  8
CC
100
AcDbBlockReference
  2
P7
 10
4838.475773
 20
11427.391802
 30
28926.010907
  0
INSERT
  5
4F9
100
AcDbEntity
  8
CC
100
AcDbBlockReference
  2
P8
 10
4250.833619
 20
11588.926671
 30
28887.724914
  0
INSERT
  5
4FA
100
AcDbEntity
  8
CC
100
AcDbBlockReference
  2
P8
 10
4413.292596
 20
11171.526152
 30
28898.309422
  0
INSERT
  5
4FB
100
AcDbEntity
  8
CC
100
AcDbBlockReference
  2
P8
 10
3929.364245
 20
11405.711076
 30
28866.780578
  0
INSERT
  5
4FD
100
AcDbEntity
  8
CC
100
AcDbBlockReference
  2
P8
 10
2520.844567
 20
10597.64629
 30
28775.012867
  0
INSERT
  5
4FE
100
AcDbEntity
  8
CC
100
AcDbBlockReference
  2
P8
 10
1766.878004
 20
10162.394539
 30
28725.890525
  0
INSERT
  5
4FF
100
AcDbEntity
  8
CC
100
AcDbBlockReference
  2
P8
 10
1013.326406
 20
9723.645598
 30
28676.795218
  0
INSERT
  5
500
100
AcDbEntity
  8
CC
100
AcDbBlockReference
  2
P8
 10
566.98698
 20
9463.768303
 30
28647.715364
  0
LINE
  5
509
100
AcDbEntity
  8
MODELO2
  6
GRDCON$0$CENTER
100
AcDbLine
 10
10666.666667
 20
12597.364848
 30
29969.0
 11
10666.666667
 21
11297.283945
 31
29896.0
1001
ACAD
1000
RTLwPs
1070
   131
  0
LINE
  5
50A
100
AcDbEntity
  8
MODELO2
  6
GRDCON$0$CENTER
100
AcDbLine
 10
10000.0
 20
10997.364848
 30
29973.0
 11
10000.0
 21
10917.848621
 31
29967.0
1001
ACAD
1000
RTLwPs
1070
   131
  0
LINE
  5
50B
100
AcDbEntity
  8
MODELO2
  6
GRDCON$0$CENTER
100
AcDbLine
 10
9333.333333
 20
12597.364848
 30
31302.0
 11
9333.333333
 21
10997.364848
 31
30016.0
1001
ACAD
1000
RTLwPs
1070
   131
  0
LINE
  5
50C
100
AcDbEntity
  8
MODELO1
  6
GRDCON$0$CENTER
100
AcDbLine
 10
10666.666667
 20
14197.364848
 30
30233.0
 11
11034.618383
 21
14197.364848
 31
29750.0
1001
ACAD
1000
RTLwPs
1070
   131
  0
LINE
  5
50D
100
AcDbEntity
  8
MODELO1
100
AcDbLine
 10
9333.333333
 20
14197.364848
 30
31744.0
 11
10000.0
 21
14197.364848
 31
31638.0
  0
LINE
  5
50E
100
AcDbEntity
  8
MODELO1
100
AcDbLine
 10
10000.0
 20
14197.364848
 30
31638.0
 11
10666.666667
 21
14197.364848
 31
30233.0
  0
LINE
  5
50F
100
AcDbEntity
  8
MODELO2
  6
GRDCON$0$CENTER
100
AcDbLine
 10
8666.666667
 20
10997.364848
 30
30924.0
 11
8666.666667
 21
9397.364848
 31
29888.0
1001
ACAD
1000
RTLwPs
1070
   131
  0
LINE
  5
510
100
AcDbEntity
  8
MODELO2
  6
GRDCON$0$CENTER
100
AcDbLine
 10
8000.0
 20
10997.364848
 30
31163.0
 11
8000.0
 21
9397.364848
 31
30376.0
1001
ACAD
1000
RTLwPs
1070
   131
  0
LINE
  5
511
100
AcDbEntity
  8
MODELO2
  6
GRDCON$0$CENTER
100
AcDbLine
 10
7333.333333
 20
10997.364848
 30
31041.0
 11
7333.333333
 21
9397.364848
 31
30875.0
1001
ACAD
1000
RTLwPs
1070
   131
  0
LINE
  5
512
100
AcDbEntity
  8
MODELO2
  6
GRDCON$0$CENTER
100
AcDbLine
 10
6666.666667
 20
10997.364848
 30
30858.0
 11
6666.666667
 21
9397.364848
 31
30758.0
1001
ACAD
1000
RTLwPs
1070
   131
  0
LINE
  5
513
100
AcDbEntity
  8
MODELO1
  6
GRDCON$0$CENTER
100
AcDbLine
 10
10666.666667
 20
12597.364848
 30
29969.0
 11
10927.760646
 21
12597.364848
 31
29904.0
1001
ACAD
1000
RTLwPs
1070
   131
  0
LINE
  5
514
100
AcDbEntity
  8
MODELO1
100
AcDbLine
 10
6666.666667
 20
12597.364848
 30
30985.0
 11
7333.333333
 21
12597.364848
 31
31147.0
  0
LINE
  5
515
100
AcDbEntity
  8
MODELO1
100
AcDbLine
 10
7333.333333
 20
12597.364848
 30
31147.0
 11
8000.0
 21
12597.364848
 31
31322.0
  0
LINE
  5
516
100
AcDbEntity
  8
MODELO1
100
AcDbLine
 10
8000.0
 20
12597.364848
 30
31322.0
 11
8666.666667
 21
12597.364848
 31
31453.0
  0
LINE
  5
517
100
AcDbEntity
  8
MODELO1
100
AcDbLine
 10
8666.666667
 20
12597.364848
 30
31453.0
 11
9333.333333
 21
12597.364848
 31
31302.0
  0
LINE
  5
518
100
AcDbEntity
  8
MODELO1
100
AcDbLine
 10
9333.333333
 20
12597.364848
 30
31302.0
 11
10000.0
 21
12597.364848
 31
30095.0
  0
LINE
  5
519
100
AcDbEntity
  8
MODELO1
100
AcDbLine
 10
10000.0
 20
12597.364848
 30
30095.0
 11
10666.666667
 21
12597.364848
 31
29969.0
  0
LINE
  5
51A
100
AcDbEntity
  8
MODELO2
100
AcDbLine
 10
10000.0
 20
10997.364848
 30
29973.0
 11
10000.0
 21
12597.364848
 31
30095.0
  0
LINE
  5
51C
100
AcDbEntity
  8
MODELO2
  6
GRDCON$0$CENTER
100
AcDbLine
 10
6000.0
 20
9397.364848
 30
30567.0
 11
6000.0
 21
7797.364848
 31
30499.0
1001
ACAD
1000
RTLwPs
1070
   131
  0
LINE
  5
51D
100
AcDbEntity
  8
MODELO2
  6
GRDCON$0$CENTER
100
AcDbLine
 10
5333.333333
 20
9397.364848
 30
30403.0
 11
5333.333333
 21
7797.364848
 31
30273.0
1001
ACAD
1000
RTLwPs
1070
   131
  0
LINE
  5
51E
100
AcDbEntity
  8
MODELO2
  6
GRDCON$0$CENTER
100
AcDbLine
 10
4666.666667
 20
9397.364848
 30
30248.0
 11
4666.666667
 21
7797.364848
 31
30109.0
1001
ACAD
1000
RTLwPs
1070
   131
  0
LINE
  5
51F
100
AcDbEntity
  8
MODELO2
  6
GRDCON$0$CENTER
100
AcDbLine
 10
4000.0
 20
9397.364848
 30
30098.0
 11
4000.0
 21
7797.364848
 31
29955.0
1001
ACAD
1000
RTLwPs
1070
   131
  0
LINE
  5
520
100
AcDbEntity
  8
MODELO2
  6
GRDCON$0$CENTER
100
AcDbLine
 10
3333.333333
 20
9397.364848
 30
29951.0
 11
3333.333333
 21
7797.364848
 31
29807.0
1001
ACAD
1000
RTLwPs
1070
   131
  0
LINE
  5
521
100
AcDbEntity
  8
MODELO1
  6
GRDCON$0$CENTER
100
AcDbLine
 10
10000.0
 20
10997.364848
 30
29973.0
 11
10139.501744
 21
10997.364848
 31
29954.0
1001
ACAD
1000
RTLwPs
1070
   131
  0
LINE
  5
522
100
AcDbEntity
  8
MODELO1
100
AcDbLine
 10
3333.333333
 20
10997.364848
 30
30095.0
 11
4000.0
 21
10997.364848
 31
30241.0
  0
LINE
  5
523
100
AcDbEntity
  8
MODELO1
100
AcDbLine
 10
4000.0
 20
10997.364848
 30
30241.0
 11
4666.666667
 21
10997.364848
 31
30389.0
  0
LINE
  5
524
100
AcDbEntity
  8
MODELO1
100
AcDbLine
 10
4666.666667
 20
10997.364848
 30
30389.0
 11
5333.333333
 21
10997.364848
 31
30540.0
  0
LINE
  5
525
100
AcDbEntity
  8
MODELO1
100
AcDbLine
 10
5333.333333
 20
10997.364848
 30
30540.0
 11
6000.0
 21
10997.364848
 31
30694.0
  0
LINE
  5
526
100
AcDbEntity
  8
MODELO1
100
AcDbLine
 10
6000.0
 20
10997.364848
 30
30694.0
 11
6666.666667
 21
10997.364848
 31
30858.0
  0
LINE
  5
527
100
AcDbEntity
  8
MODELO1
100
AcDbLine
 10
6666.666667
 20
10997.364848
 30
30858.0
 11
7333.333333
 21
10997.364848
 31
31041.0
  0
LINE
  5
528
100
AcDbEntity
  8
MODELO1
100
AcDbLine
 10
7333.333333
 20
10997.364848
 30
31041.0
 11
8000.0
 21
10997.364848
 31
31163.0
  0
LINE
  5
529
100
AcDbEntity
  8
MODELO1
100
AcDbLine
 10
8000.0
 20
10997.364848
 30
31163.0
 11
8666.666667
 21
10997.364848
 31
30924.0
  0
LINE
  5
52B
100
AcDbEntity
  8
MODELO1
100
AcDbLine
 10
8666.666667
 20
10997.364848
 30
30924.0
 11
9333.333333
 21
10997.364848
 31
30016.0
  0
LINE
  5
52C
100
AcDbEntity
  8
MODELO1
100
AcDbLine
 10
9333.333333
 20
10997.364848
 30
30016.0
 11
10000.0
 21
10997.364848
 31
29973.0
  0
LINE
  5
52E
100
AcDbEntity
  8
MODELO2
  6
GRDCON$0$CENTER
100
AcDbLine
 10
2666.666667
 20
7797.364848
 30
29663.0
 11
2666.666667
 21
6197.364848
 31
29519.0
1001
ACAD
1000
RTLwPs
1070
   131
  0
LINE
  5
52F
100
AcDbEntity
  8
MODELO2
  6
GRDCON$0$CENTER
100
AcDbLine
 10
2000.0
 20
7797.364848
 30
29523.0
 11
2000.0
 21
6197.364848
 31
29379.0
1001
ACAD
1000
RTLwPs
1070
   131
  0
LINE
  5
530
100
AcDbEntity
  8
MODELO2
  6
GRDCON$0$CENTER
100
AcDbLine
 10
1333.333333
 20
7797.364848
 30
29386.0
 11
1333.333333
 21
6197.364848
 31
29243.0
1001
ACAD
1000
RTLwPs
1070
   131
  0
LINE
  5
531
100
AcDbEntity
  8
MODELO2
  6
GRDCON$0$CENTER
100
AcDbLine
 10
666.666667
 20
7797.364848
 30
29283.0
 11
666.666667
 21
6197.364848
 31
29111.0
1001
ACAD
1000
RTLwPs
1070
   131
  0
LINE
  5
532
100
AcDbEntity
  8
MODELO2
  6
GRDCON$0$CENTER
100
AcDbLine
 10
6666.666667
 20
6197.364848
 30
29612.0
 11
6666.666667
 21
5853.381729
 31
29512.0
1001
ACAD
1000
RTLwPs
1070
   131
  0
LINE
  5
533
100
AcDbEntity
  8
MODELO2
  6
GRDCON$0$CENTER
100
AcDbLine
 10
7333.333333
 20
7797.364848
 30
29865.0
 11
7333.333333
 21
6463.953762
 31
29541.0
1001
ACAD
1000
RTLwPs
1070
   131
  0
LINE
  5
534
100
AcDbEntity
  8
MODELO2
  6
GRDCON$0$CENTER
100
AcDbLine
 10
8000.0
 20
7797.364848
 30
29710.0
 11
8000.0
 21
6953.178123
 31
29592.0
1001
ACAD
1000
RTLwPs
1070
   131
  0
LINE
  5
535
100
AcDbEntity
  8
MODELO2
  6
GRDCON$0$CENTER
100
AcDbLine
 10
8666.666667
 20
7797.364848
 30
29703.0
 11
8666.666667
 21
7386.73549
 31
29658.0
1001
ACAD
1000
RTLwPs
1070
   131
  0
LINE
  5
536
100
AcDbEntity
  8
MODELO1
  6
GRDCON$0$CENTER
100
AcDbLine
 10
9333.333333
 20
9397.364848
 30
29882.0
 11
9749.561109
 21
9397.364848
 31
29892.0
1001
ACAD
1000
RTLwPs
1070
   131
  0
LINE
  5
537
100
AcDbEntity
  8
MODELO1
100
AcDbLine
 10
666.666667
 20
9397.364848
 30
29395.0
 11
1333.333333
 21
9397.364848
 31
29529.0
  0
LINE
  5
538
100
AcDbEntity
  8
MODELO1
100
AcDbLine
 10
1333.333333
 20
9397.364848
 30
29529.0
 11
2000.0
 21
9397.364848
 31
29666.0
  0
LINE
  5
539
100
AcDbEntity
  8
MODELO1
100
AcDbLine
 10
2000.0
 20
9397.364848
 30
29666.0
 11
2666.666667
 21
9397.364848
 31
29807.0
  0
LINE
  5
53A
100
AcDbEntity
  8
MODELO1
100
AcDbLine
 10
2666.666667
 20
9397.364848
 30
29807.0
 11
3333.333333
 21
9397.364848
 31
29951.0
  0
LINE
  5
53B
100
AcDbEntity
  8
MODELO1
100
AcDbLine
 10
3333.333333
 20
9397.364848
 30
29951.0
 11
4000.0
 21
9397.364848
 31
30098.0
  0
LINE
  5
53C
100
AcDbEntity
  8
MODELO1
100
AcDbLine
 10
4000.0
 20
9397.364848
 30
30098.0
 11
4666.666667
 21
9397.364848
 31
30248.0
  0
LINE
  5
53D
100
AcDbEntity
  8
MODELO1
100
AcDbLine
 10
4666.666667
 20
9397.364848
 30
30248.0
 11
5333.333333
 21
9397.364848
 31
30403.0
  0
LINE
  5
53E
100
AcDbEntity
  8
MODELO1
100
AcDbLine
 10
5333.333333
 20
9397.364848
 30
30403.0
 11
6000.0
 21
9397.364848
 31
30567.0
  0
LINE
  5
53F
100
AcDbEntity
  8
MODELO1
100
AcDbLine
 10
6000.0
 20
9397.364848
 30
30567.0
 11
6666.666667
 21
9397.364848
 31
30758.0
  0
LINE
  5
540
100
AcDbEntity
  8
MODELO1
100
AcDbLine
 10
6666.666667
 20
9397.364848
 30
30758.0
 11
7333.333333
 21
9397.364848
 31
30875.0
  0
LINE
  5
541
100
AcDbEntity
  8
MODELO1
100
AcDbLine
 10
7333.333333
 20
9397.364848
 30
30875.0
 11
8000.0
 21
9397.364848
 31
30376.0
  0
LINE
  5
542
100
AcDbEntity
  8
MODELO1
100
AcDbLine
 10
8000.0
 20
9397.364848
 30
30376.0
 11
8666.666667
 21
9397.364848
 31
29888.0
  0
LINE
  5
543
100
AcDbEntity
  8
MODELO1
100
AcDbLine
 10
8666.666667
 20
9397.364848
 30
29888.0
 11
9333.333333
 21
9397.364848
 31
29882.0
  0
LINE
  5
545
100
AcDbEntity
  8
MODELO2
  6
GRDCON$0$CENTER
100
AcDbLine
 10
0.0
 20
6197.364848
 30
28983.0
 11
0.0
 21
4597.364848
 31
28843.0
1001
ACAD
1000
RTLwPs
1070
   131
  0
LINE
  5
546
100
AcDbEntity
  8
MODELO2
  6
GRDCON$0$CENTER
100
AcDbLine
 10
3333.333333
 20
6197.364848
 30
29664.0
 11
3333.333333
 21
4597.364848
 31
29521.0
1001
ACAD
1000
RTLwPs
1070
   131
  0
LINE
  5
547
100
AcDbEntity
  8
MODELO2
  6
GRDCON$0$CENTER
100
AcDbLine
 10
4000.0
 20
6197.364848
 30
29815.0
 11
4000.0
 21
4597.364848
 31
29679.0
1001
ACAD
1000
RTLwPs
1070
   131
  0
LINE
  5
548
100
AcDbEntity
  8
MODELO2
  6
GRDCON$0$CENTER
100
AcDbLine
 10
4666.666667
 20
6197.364848
 30
29977.0
 11
4666.666667
 21
4597.364848
 31
29867.0
1001
ACAD
1000
RTLwPs
1070
   131
  0
LINE
  5
54A
100
AcDbEntity
  8
MODELO2
  6
GRDCON$0$CENTER
100
AcDbLine
 10
6000.0
 20
6197.364848
 30
30310.0
 11
6000.0
 21
4976.740083
 31
29535.0
1001
ACAD
1000
RTLwPs
1070
   131
  0
LINE
  5
54B
100
AcDbEntity
  8
MODELO1
  6
GRDCON$0$CENTER
100
AcDbLine
 10
9333.333333
 20
7797.364848
 30
29739.0
 11
9676.433483
 21
7797.364848
 31
29766.0
1001
ACAD
1000
RTLwPs
1070
   131
  0
LINE
  5
54C
100
AcDbEntity
  8
MODELO1
100
AcDbLine
 10
-1333.333333
 20
7797.364848
 30
28874.0
 11
-666.666667
 21
7797.364848
 31
28997.0
  0
LINE
  5
54D
100
AcDbEntity
  8
MODELO1
100
AcDbLine
 10
-666.666667
 20
7797.364848
 30
28997.0
 11
0.0
 21
7797.364848
 31
29134.0
  0
LINE
  5
54E
100
AcDbEntity
  8
MODELO1
100
AcDbLine
 10
0.0
 20
7797.364848
 30
29134.0
 11
666.666667
 21
7797.364848
 31
29283.0
  0
LINE
  5
54F
100
AcDbEntity
  8
MODELO1
100
AcDbLine
 10
666.666667
 20
7797.364848
 30
29283.0
 11
1333.333333
 21
7797.364848
 31
29386.0
  0
LINE
  5
550
100
AcDbEntity
  8
MODELO1
100
AcDbLine
 10
1333.333333
 20
7797.364848
 30
29386.0
 11
2000.0
 21
7797.364848
 31
29523.0
  0
LINE
  5
551
100
AcDbEntity
  8
MODELO1
100
AcDbLine
 10
2000.0
 20
7797.364848
 30
29523.0
 11
2666.666667
 21
7797.364848
 31
29663.0
  0
LINE
  5
552
100
AcDbEntity
  8
MODELO1
100
AcDbLine
 10
2666.666667
 20
7797.364848
 30
29663.0
 11
3333.333333
 21
7797.364848
 31
29807.0
  0
LINE
  5
553
100
AcDbEntity
  8
MODELO1
100
AcDbLine
 10
3333.333333
 20
7797.364848
 30
29807.0
 11
4000.0
 21
7797.364848
 31
29955.0
  0
LINE
  5
554
100
AcDbEntity
  8
MODELO1
100
AcDbLine
 10
4000.0
 20
7797.364848
 30
29955.0
 11
4666.666667
 21
7797.364848
 31
30109.0
  0
LINE
  5
555
100
AcDbEntity
  8
MODELO1
100
AcDbLine
 10
4666.666667
 20
7797.364848
 30
30109.0
 11
5333.333333
 21
7797.364848
 31
30273.0
  0
LINE
  5
556
100
AcDbEntity
  8
MODELO1
100
AcDbLine
 10
5333.333333
 20
7797.364848
 30
30273.0
 11
6000.0
 21
7797.364848
 31
30499.0
  0
LINE
  5
557
100
AcDbEntity
  8
MODELO1
100
AcDbLine
 10
6000.0
 20
7797.364848
 30
30499.0
 11
6666.666667
 21
7797.364848
 31
30590.0
  0
LINE
  5
558
100
AcDbEntity
  8
MODELO1
100
AcDbLine
 10
7333.333333
 20
7797.364848
 30
29865.0
 11
8000.0
 21
7797.364848
 31
29710.0
  0
LINE
  5
559
100
AcDbEntity
  8
MODELO1
100
AcDbLine
 10
8000.0
 20
7797.364848
 30
29710.0
 11
8666.666667
 21
7797.364848
 31
29703.0
  0
LINE
  5
55A
100
AcDbEntity
  8
MODELO1
100
AcDbLine
 10
8666.666667
 20
7797.364848
 30
29703.0
 11
9333.333333
 21
7797.364848
 31
29739.0
  0
LINE
  5
55B
100
AcDbEntity
  8
MODELO2
  6
GRDCON$0$CENTER
100
AcDbLine
 10
666.666667
 20
4597.364848
 30
28970.0
 11
666.666667
 21
2997.364848
 31
28829.0
1001
ACAD
1000
RTLwPs
1070
   131
  0
LINE
  5
55C
100
AcDbEntity
  8
MODELO2
  6
GRDCON$0$CENTER
100
AcDbLine
 10
1333.333333
 20
4597.364848
 30
29100.0
 11
1333.333333
 21
2997.364848
 31
28958.0
1001
ACAD
1000
RTLwPs
1070
   131
  0
LINE
  5
55E
100
AcDbEntity
  8
MODELO2
  6
GRDCON$0$CENTER
100
AcDbLine
 10
2666.666667
 20
4597.364848
 30
29375.0
 11
2666.666667
 21
2997.364848
 31
29231.0
1001
ACAD
1000
RTLwPs
1070
   131
  0
LINE
  5
55F
100
AcDbEntity
  8
MODELO1
  6
GRDCON$0$CENTER
100
AcDbLine
 10
6666.666667
 20
6197.364848
 30
29612.0
 11
7004.596363
 21
6197.364848
 31
29526.0
1001
ACAD
1000
RTLwPs
1070
   131
  0
LINE
  5
560
100
AcDbEntity
  8
MODELO1
100
AcDbLine
 10
-666.666667
 20
6197.364848
 30
28858.0
 11
0.0
 21
6197.364848
 31
28983.0
  0
LINE
  5
561
100
AcDbEntity
  8
MODELO1
100
AcDbLine
 10
0.0
 20
6197.364848
 30
28983.0
 11
666.666667
 21
6197.364848
 31
29111.0
  0
LINE
  5
562
100
AcDbEntity
  8
MODELO1
100
AcDbLine
 10
666.666667
 20
6197.364848
 30
29111.0
 11
1333.333333
 21
6197.364848
 31
29243.0
  0
LINE
  5
563
100
AcDbEntity
  8
MODELO1
100
AcDbLine
 10
1333.333333
 20
6197.364848
 30
29243.0
 11
2000.0
 21
6197.364848
 31
29379.0
  0
LINE
  5
564
100
AcDbEntity
  8
MODELO1
100
AcDbLine
 10
2000.0
 20
6197.364848
 30
29379.0
 11
2666.666667
 21
6197.364848
 31
29519.0
  0
LINE
  5
565
100
AcDbEntity
  8
MODELO1
100
AcDbLine
 10
2666.666667
 20
6197.364848
 30
29519.0
 11
3333.333333
 21
6197.364848
 31
29664.0
  0
LINE
  5
566
100
AcDbEntity
  8
MODELO1
100
AcDbLine
 10
3333.333333
 20
6197.364848
 30
29664.0
 11
4000.0
 21
6197.364848
 31
29815.0
  0
LINE
  5
567
100
AcDbEntity
  8
MODELO1
100
AcDbLine
 10
4000.0
 20
6197.364848
 30
29815.0
 11
4666.666667
 21
6197.364848
 31
29977.0
  0
LINE
  5
568
100
AcDbEntity
  8
MODELO1
100
AcDbLine
 10
4666.666667
 20
6197.364848
 30
29977.0
 11
5333.333333
 21
6197.364848
 31
30172.0
  0
LINE
  5
569
100
AcDbEntity
  8
MODELO1
100
AcDbLine
 10
5333.333333
 20
6197.364848
 30
30172.0
 11
6000.0
 21
6197.364848
 31
30310.0
  0
LINE
  5
56B
100
AcDbEntity
  8
MODELO1
100
AcDbLine
 10
6000.0
 20
6197.364848
 30
30310.0
 11
6666.666667
 21
6197.364848
 31
29612.0
  0
LINE
  5
56E
100
AcDbEntity
  8
MODELO2
  6
GRDCON$0$CENTER
100
AcDbLine
 10
4000.0
 20
2997.364848
 30
29558.0
 11
4000.0
 21
1937.09523
 31
29525.0
1001
ACAD
1000
RTLwPs
1070
   131
  0
LINE
  5
56F
100
AcDbEntity
  8
MODELO2
  6
GRDCON$0$CENTER
100
AcDbLine
 10
4666.666667
 20
2997.364848
 30
29781.0
 11
4666.666667
 21
2850.220723
 31
29709.0
1001
ACAD
1000
RTLwPs
1070
   131
  0
LINE
  5
570
100
AcDbEntity
  8
MODELO1
  6
GRDCON$0$CENTER
100
AcDbLine
 10
5333.333333
 20
4597.364848
 30
30039.0
 11
5757.684141
 21
4597.364848
 31
29545.0
1001
ACAD
1000
RTLwPs
1070
   131
  0
LINE
  5
571
100
AcDbEntity
  8
MODELO1
100
AcDbLine
 10
-666.666667
 20
4597.364848
 30
28719.0
 11
0.0
 21
4597.364848
 31
28843.0
  0
LINE
  5
572
100
AcDbEntity
  8
MODELO1
100
AcDbLine
 10
0.0
 20
4597.364848
 30
28843.0
 11
666.666667
 21
4597.364848
 31
28970.0
  0
LINE
  5
573
100
AcDbEntity
  8
MODELO1
100
AcDbLine
 10
666.666667
 20
4597.364848
 30
28970.0
 11
1333.333333
 21
4597.364848
 31
29100.0
  0
LINE
  5
574
100
AcDbEntity
  8
MODELO1
100
AcDbLine
 10
1333.333333
 20
4597.364848
 30
29100.0
 11
2000.0
 21
4597.364848
 31
29235.0
  0
LINE
  5
575
100
AcDbEntity
  8
MODELO1
100
AcDbLine
 10
2000.0
 20
4597.364848
 30
29235.0
 11
2666.666667
 21
4597.364848
 31
29375.0
  0
LINE
  5
576
100
AcDbEntity
  8
MODELO1
100
AcDbLine
 10
2666.666667
 20
4597.364848
 30
29375.0
 11
3333.333333
 21
4597.364848
 31
29521.0
  0
LINE
  5
577
100
AcDbEntity
  8
MODELO1
100
AcDbLine
 10
3333.333333
 20
4597.364848
 30
29521.0
 11
4000.0
 21
4597.364848
 31
29679.0
  0
LINE
  5
578
100
AcDbEntity
  8
MODELO1
100
AcDbLine
 10
4000.0
 20
4597.364848
 30
29679.0
 11
4666.666667
 21
4597.364848
 31
29867.0
  0
LINE
  5
579
100
AcDbEntity
  8
MODELO1
100
AcDbLine
 10
4666.666667
 20
4597.364848
 30
29867.0
 11
5333.333333
 21
4597.364848
 31
30039.0
  0
LINE
  5
57A
100
AcDbEntity
  8
MODELO2
  6
GRDCON$0$CENTER
100
AcDbLine
 10
666.666667
 20
1397.364848
 30
28688.0
 11
666.666667
 21
1123.575293
 31
28664.0
1001
ACAD
1000
RTLwPs
1070
   131
  0
LINE
  5
57B
100
AcDbEntity
  8
MODELO2
  6
GRDCON$0$CENTER
100
AcDbLine
 10
1333.333333
 20
1397.364848
 30
28817.0
 11
1333.333333
 21
1360.082648
 31
28813.0
1001
ACAD
1000
RTLwPs
1070
   131
  0
LINE
  5
57C
100
AcDbEntity
  8
MODELO2
  6
GRDCON$0$CENTER
100
AcDbLine
 10
2666.666667
 20
1397.364848
 30
29087.0
 11
2666.666667
 21
1192.345183
 31
29068.0
1001
ACAD
1000
RTLwPs
1070
   131
  0
LINE
  5
57D
100
AcDbEntity
  8
MODELO1
  6
GRDCON$0$CENTER
100
AcDbLine
 10
4666.666667
 20
2997.364848
 30
29781.0
 11
4763.849417
 21
2997.364848
 31
29731.0
1001
ACAD
1000
RTLwPs
1070
   131
  0
LINE
  5
57E
100
AcDbEntity
  8
MODELO1
100
AcDbLine
 10
0.0
 20
2997.364848
 30
28703.0
 11
666.666667
 21
2997.364848
 31
28829.0
  0
LINE
  5
57F
100
AcDbEntity
  8
MODELO1
100
AcDbLine
 10
666.666667
 20
2997.364848
 30
28829.0
 11
1333.333333
 21
2997.364848
 31
28958.0
  0
LINE
  5
581
100
AcDbEntity
  8
MODELO1
100
AcDbLine
 10
2666.666667
 20
2997.364848
 30
29231.0
 11
2000.0
 21
2997.364848
 31
29092.0
  0
LINE
  5
582
100
AcDbEntity
  8
MODELO1
100
AcDbLine
 10
1333.333333
 20
2997.364848
 30
28958.0
 11
2000.0
 21
2997.364848
 31
29092.0
  0
LINE
  5
583
100
AcDbEntity
  8
MODELO1
100
AcDbLine
 10
2666.666667
 20
2997.364848
 30
29231.0
 11
3333.333333
 21
2997.364848
 31
29380.0
  0
LINE
  5
584
100
AcDbEntity
  8
MODELO1
100
AcDbLine
 10
3333.333333
 20
2997.364848
 30
29380.0
 11
4000.0
 21
2997.364848
 31
29558.0
  0
LINE
  5
585
100
AcDbEntity
  8
MODELO1
100
AcDbLine
 10
4000.0
 20
2997.364848
 30
29558.0
 11
4666.666667
 21
2997.364848
 31
29781.0
  0
LINE
  5
586
100
AcDbEntity
  8
MODELO1
  6
GRDCON$0$CENTER
100
AcDbLine
 10
1333.333333
 20
1397.364848
 30
28817.0
 11
1438.424358
 21
1397.364848
 31
28837.0
1001
ACAD
1000
RTLwPs
1070
   131
  0
LINE
  5
587
100
AcDbEntity
  8
MODELO1
100
AcDbLine
 10
0.0
 20
1397.364848
 30
28562.0
 11
666.666667
 21
1397.364848
 31
28688.0
  0
LINE
  5
588
100
AcDbEntity
  8
MODELO1
100
AcDbLine
 10
666.666667
 20
1397.364848
 30
28688.0
 11
1333.333333
 21
1397.364848
 31
28817.0
  0
LINE
  5
589
100
AcDbEntity
  8
MODELO1
  6
GRDCON$0$CENTER
100
AcDbLine
 10
3333.333333
 20
1397.364848
 30
29246.0
 11
3518.812647
 21
1397.364848
 31
29303.0
1001
ACAD
1000
RTLwPs
1070
   131
  0
LINE
  5
58A
100
AcDbEntity
  8
MODELO1
100
AcDbLine
 10
2666.666667
 20
1397.364848
 30
29087.0
 11
3333.333333
 21
1397.364848
 31
29246.0
  0
LINE
  5
58B
100
AcDbEntity
  8
MODELO2
100
AcDbLine
 10
9333.333333
 20
14197.364848
 30
31744.0
 11
9333.333333
 21
12597.364848
 31
31302.0
  0
LINE
  5
58C
100
AcDbEntity
  8
MODELO2
100
AcDbLine
 10
10000.0
 20
12597.364848
 30
30095.0
 11
10000.0
 21
14197.364848
 31
31638.0
  0
LINE
  5
58D
100
AcDbEntity
  8
MODELO2
100
AcDbLine
 10
10666.666667
 20
14197.364848
 30
30233.0
 11
10666.666667
 21
12597.364848
 31
29969.0
  0
LINE
  5
58F
100
AcDbEntity
  8
MODELO2
100
AcDbLine
 10
8666.666667
 20
12597.364848
 30
31453.0
 11
8666.666667
 21
10997.364848
 31
30924.0
  0
LINE
  5
59F
100
AcDbEntity
  8
MODELO2
100
AcDbLine
 10
-1333.333333
 20
7797.364848
 30
28874.0
 11
-1333.333333
 21
7969.120751
 31
28889.0
  0
LINE
  5
5A0
100
AcDbEntity
  8
MODELO2
100
AcDbLine
 10
6666.666667
 20
6197.364848
 30
29612.0
 11
6666.666667
 21
7797.364848
 31
30590.0
  0
LINE
  5
5A1
100
AcDbEntity
  8
MODELO1
100
AcDbLine
 10
6666.666667
 20
7797.364848
 30
30590.0
 11
7333.333333
 21
7797.364848
 31
29865.0
  0
LINE
  5
5AC
100
AcDbEntity
  8
MODELO2
100
AcDbLine
 10
-666.666667
 20
3441.098988
 30
28618.0
 11
-666.666667
 21
4597.364848
 31
28719.0
  0
LINE
  5
5B7
100
AcDbEntity
  8
MODELO2
100
AcDbLine
 10
666.666667
 20
7797.364848
 30
29283.0
 11
666.666667
 21
9397.364848
 31
29395.0
  0
LINE
  5
5B8
100
AcDbEntity
  8
MODELO2
100
AcDbLine
 10
1333.333333
 20
7797.364848
 30
29386.0
 11
1333.333333
 21
9397.364848
 31
29529.0
  0
LINE
  5
5B9
100
AcDbEntity
  8
MODELO2
100
AcDbLine
 10
2000.0
 20
4597.364848
 30
29235.0
 11
2000.0
 21
2997.364848
 31
29092.0
  0
LINE
  5
5BA
100
AcDbEntity
  8
MODELO2
100
AcDbLine
 10
2000.0
 20
2997.364848
 30
29092.0
 11
2000.0
 21
1596.590003
 31
28966.0
  0
LINE
  5
5BB
100
AcDbEntity
  8
MODELO2
100
AcDbLine
 10
3333.333333
 20
1397.364848
 30
29246.0
 11
3333.333333
 21
2997.364848
 31
29380.0
  0
LINE
  5
5BC
100
AcDbEntity
  8
MODELO2
100
AcDbLine
 10
3333.333333
 20
1397.364848
 30
29246.0
 11
3333.333333
 21
1189.319437
 31
29230.0
  0
LINE
  5
5BD
100
AcDbEntity
  8
MODELO2
100
AcDbLine
 10
0.0
 20
2997.364848
 30
28703.0
 11
0.0
 21
1397.364848
 31
28562.0
  0
LINE
  5
5BE
100
AcDbEntity
  8
MODELO2
100
AcDbLine
 10
0.0
 20
1397.364848
 30
28562.0
 11
0.0
 21
0.0
 31
28437.0
  0
LINE
  5
5C4
100
AcDbEntity
  8
MODELO2
100
AcDbLine
 10
9333.333333
 20
9397.364848
 30
29882.0
 11
9333.333333
 21
7797.364848
 31
29739.0
  0
LINE
  5
5C5
100
AcDbEntity
  8
MODELO2
100
AcDbLine
 10
9333.333333
 20
7797.364848
 30
29739.0
 11
9333.333333
 21
7684.975963
 31
29729.0
  0
LINE
  5
5CB
100
AcDbEntity
  8
MODELO2
100
AcDbLine
 10
-666.666667
 20
7797.364848
 30
28997.0
 11
-666.666667
 21
6197.364848
 31
28858.0
  0
LINE
  5
5CC
100
AcDbEntity
  8
MODELO2
100
AcDbLine
 10
-666.666667
 20
6197.364848
 30
28858.0
 11
-666.666667
 21
4597.364848
 31
28719.0
  0
LINE
  5
5CD
100
AcDbEntity
  8
MODELO2
100
AcDbLine
 10
0.0
 20
7797.364848
 30
29134.0
 11
0.0
 21
6197.364848
 31
28983.0
  0
LINE
  5
5CE
100
AcDbEntity
  8
MODELO2
100
AcDbLine
 10
0.0
 20
2997.364848
 30
28703.0
 11
0.0
 21
4597.364848
 31
28843.0
  0
LINE
  5
5D0
100
AcDbEntity
  8
MODELO2
100
AcDbLine
 10
666.666667
 20
6197.364848
 30
29111.0
 11
666.666667
 21
4597.364848
 31
28970.0
  0
LINE
  5
5D1
100
AcDbEntity
  8
MODELO2
100
AcDbLine
 10
666.666667
 20
2997.364848
 30
28829.0
 11
666.666667
 21
1397.364848
 31
28688.0
  0
LINE
  5
5D2
100
AcDbEntity
  8
MODELO2
100
AcDbLine
 10
1333.333333
 20
6197.364848
 30
29243.0
 11
1333.333333
 21
4597.364848
 31
29100.0
  0
LINE
  5
5D3
100
AcDbEntity
  8
MODELO2
100
AcDbLine
 10
1333.333333
 20
2997.364848
 30
28958.0
 11
1333.333333
 21
1397.364848
 31
28817.0
  0
LINE
  5
5D4
100
AcDbEntity
  8
MODELO2
100
AcDbLine
 10
2000.0
 20
9397.364848
 30
29666.0
 11
2000.0
 21
7797.364848
 31
29523.0
  0
LINE
  5
5D5
100
AcDbEntity
  8
MODELO2
100
AcDbLine
 10
2000.0
 20
6197.364848
 30
29379.0
 11
2000.0
 21
4597.364848
 31
29235.0
  0
LINE
  5
5D6
100
AcDbEntity
  8
MODELO2
100
AcDbLine
 10
2666.666667
 20
9397.364848
 30
29807.0
 11
2666.666667
 21
7797.364848
 31
29663.0
  0
LINE
  5
5D7
100
AcDbEntity
  8
MODELO2
100
AcDbLine
 10
2666.666667
 20
6197.364848
 30
29519.0
 11
2666.666667
 21
4597.364848
 31
29375.0
  0
LINE
  5
5D8
100
AcDbEntity
  8
MODELO2
100
AcDbLine
 10
2666.666667
 20
2997.364848
 30
29231.0
 11
2666.666667
 21
1397.364848
 31
29087.0
  0
LINE
  5
5DB
100
AcDbEntity
  8
MODELO2
100
AcDbLine
 10
3333.333333
 20
10997.364848
 30
30095.0
 11
3333.333333
 21
9397.364848
 31
29951.0
  0
LINE
  5
5DC
100
AcDbEntity
  8
MODELO2
100
AcDbLine
 10
3333.333333
 20
7797.364848
 30
29807.0
 11
3333.333333
 21
6197.364848
 31
29664.0
  0
LINE
  5
5DD
100
AcDbEntity
  8
MODELO2
100
AcDbLine
 10
3333.333333
 20
4597.364848
 30
29521.0
 11
3333.333333
 21
2997.364848
 31
29380.0
  0
LINE
  5
5DE
100
AcDbEntity
  8
MODELO2
100
AcDbLine
 10
4000.0
 20
10997.364848
 30
30241.0
 11
4000.0
 21
9397.364848
 31
30098.0
  0
LINE
  5
5DF
100
AcDbEntity
  8
MODELO2
100
AcDbLine
 10
4000.0
 20
7797.364848
 30
29955.0
 11
4000.0
 21
6197.364848
 31
29815.0
  0
LINE
  5
5E0
100
AcDbEntity
  8
MODELO2
100
AcDbLine
 10
4000.0
 20
4597.364848
 30
29679.0
 11
4000.0
 21
2997.364848
 31
29558.0
  0
LINE
  5
5E1
100
AcDbEntity
  8
MODELO2
100
AcDbLine
 10
4666.666667
 20
10997.364848
 30
30389.0
 11
4666.666667
 21
9397.364848
 31
30248.0
  0
LINE
  5
5E2
100
AcDbEntity
  8
MODELO2
100
AcDbLine
 10
4666.666667
 20
7797.364848
 30
30109.0
 11
4666.666667
 21
6197.364848
 31
29977.0
  0
LINE
  5
5E3
100
AcDbEntity
  8
MODELO2
100
AcDbLine
 10
4666.666667
 20
4597.364848
 30
29867.0
 11
4666.666667
 21
2997.364848
 31
29781.0
  0
LINE
  5
5E4
100
AcDbEntity
  8
MODELO2
100
AcDbLine
 10
5333.333333
 20
6197.364848
 30
30172.0
 11
5333.333333
 21
4597.364848
 31
30039.0
  0
LINE
  5
5E5
100
AcDbEntity
  8
MODELO2
100
AcDbLine
 10
5333.333333
 20
3903.553643
 30
29639.0
 11
5333.333333
 21
4597.364848
 31
30039.0
  0
LINE
  5
5E6
100
AcDbEntity
  8
MODELO2
100
AcDbLine
 10
5333.333333
 20
10997.364848
 30
30540.0
 11
5333.333333
 21
9397.364848
 31
30403.0
  0
LINE
  5
5E7
100
AcDbEntity
  8
MODELO2
100
AcDbLine
 10
5333.333333
 20
7797.364848
 30
30273.0
 11
5333.333333
 21
6197.364848
 31
30172.0
  0
LINE
  5
5E8
100
AcDbEntity
  8
MODELO2
100
AcDbLine
 10
6000.0
 20
10997.364848
 30
30694.0
 11
6000.0
 21
9397.364848
 31
30567.0
  0
LINE
  5
5E9
100
AcDbEntity
  8
MODELO2
100
AcDbLine
 10
6000.0
 20
7797.364848
 30
30499.0
 11
6000.0
 21
6197.364848
 31
30310.0
  0
LINE
  5
5EA
100
AcDbEntity
  8
MODELO2
100
AcDbLine
 10
6666.666667
 20
12597.364848
 30
30985.0
 11
6666.666667
 21
10997.364848
 31
30858.0
  0
LINE
  5
5EB
100
AcDbEntity
  8
MODELO2
100
AcDbLine
 10
6666.666667
 20
9397.364848
 30
30758.0
 11
6666.666667
 21
7797.364848
 31
30590.0
  0
LINE
  5
5EE
100
AcDbEntity
  8
MODELO2
100
AcDbLine
 10
7333.333333
 20
12597.364848
 30
31147.0
 11
7333.333333
 21
10997.364848
 31
31041.0
  0
LINE
  5
5EF
100
AcDbEntity
  8
MODELO2
100
AcDbLine
 10
7333.333333
 20
9397.364848
 30
30875.0
 11
7333.333333
 21
7797.364848
 31
29865.0
  0
LINE
  5
5F0
100
AcDbEntity
  8
MODELO2
100
AcDbLine
 10
8000.0
 20
12597.364848
 30
31322.0
 11
8000.0
 21
10997.364848
 31
31163.0
  0
LINE
  5
5F1
100
AcDbEntity
  8
MODELO2
100
AcDbLine
 10
8000.0
 20
9397.364848
 30
30376.0
 11
8000.0
 21
7797.364848
 31
29710.0
  0
LINE
  5
5F2
100
AcDbEntity
  8
MODELO2
100
AcDbLine
 10
8666.666667
 20
7797.364848
 30
29703.0
 11
8666.666667
 21
9397.364848
 31
29888.0
  0
LINE
  5
5F3
100
AcDbEntity
  8
MODELO2
100
AcDbLine
 10
9333.333333
 20
10997.364848
 30
30016.0
 11
9333.333333
 21
9397.364848
 31
29882.0
  0
LINE
  5
5F5
100
AcDbEntity
  8
ALIN2
100
AcDbLine
 10
4666.666667
 20
11323.99986
 30
30418.0
 11
4838.475773
 21
11427.391802
 31
30465.245423
  0
LINE
  5
5F8
100
AcDbEntity
  8
ALIN2
100
AcDbLine
 10
4413.292596
 20
11171.526152
 30
30347.467708
 11
4666.666667
 21
11323.99986
 31
30418.0
  0
LINE
  5
5F9
100
AcDbEntity
  8
ALIN2
100
AcDbLine
 10
4250.833619
 20
11588.926671
 30
30348.880474
 11
4413.292596
 21
11171.526152
 31
30347.467708
  0
LINE
  5
5FF
100
AcDbEntity
  8
ALIN1
100
AcDbLine
 10
10040.702999
 20
10941.056874
 30
29963.532455
 11
10000.0
 21
10917.848621
 31
29967.0
  0
LINE
  5
601
100
AcDbEntity
  8
ALIN1
100
AcDbLine
 10
10000.0
 20
10917.848621
 30
29967.0
 11
9701.417973
 21
10747.548671
 31
29987.435413
  0
LINE
  5
605
100
AcDbEntity
  8
ALIN1
100
AcDbLine
 10
10975.852436
 20
11472.537983
 30
29843.80882
 11
10971.780282
 21
11567.800924
 31
29848.909192
  0
LINE
  5
607
100
AcDbEntity
  8
ALIN1
100
AcDbLine
 10
10869.848735
 20
11412.531337
 30
29863.278831
 11
10975.852436
 21
11472.537983
 31
29843.80882
  0
LINE
  5
608
100
AcDbEntity
  8
ALIN1
100
AcDbLine
 10
10885.202243
 20
13591.068977
 30
29955.4014
 11
10861.945368
 21
14133.920093
 31
29983.364928
  0
LINE
  5
609
100
AcDbEntity
  8
ALIN1
100
AcDbLine
 10
10861.945368
 20
14133.920093
 30
29983.364928
 11
10960.704837
 21
14170.767929
 31
29844.318
  0
LINE
  5
610
100
AcDbEntity
  8
ALIN1
100
AcDbLine
 10
3333.333333
 20
1189.319437
 30
29230.0
 11
2859.563072
 21
657.908538
 31
29027.478932
  0
LINE
  5
611
100
AcDbEntity
  8
ALIN1
100
AcDbLine
 10
9844.37964
 20
7852.378759
 30
29784.363948
 11
9841.601289
 21
7897.588714
 31
29787.478086
  0
LINE
  5
612
100
AcDbEntity
  8
ALIN1
100
AcDbLine
 10
9676.433483
 20
7797.364848
 30
29766.0
 11
9844.37964
 21
7852.378759
 31
29784.363948
  0
LINE
  5
613
100
AcDbEntity
  8
ALIN1
100
AcDbLine
 10
9612.853127
 20
7776.540214
 30
29759.238898
 11
9671.498969
 21
7795.748634
 31
29765.475266
  0
LINE
  5
61E
100
AcDbEntity
  8
ALIN1
100
AcDbLine
 10
8666.666668
 20
7386.735491
 30
29658.0
 11
8743.972938
 21
7421.471851
 31
29666.233118
210
0.0
220
-1.0
230
0.0
  0
LINE
  5
61F
100
AcDbEntity
  8
ALIN1
100
AcDbLine
 10
8743.972938
 20
7421.471851
 30
29666.233118
 11
8935.854087
 21
7507.690637
 31
29686.66846
210
0.0
220
-1.0
230
0.0
  0
LINE
  5
620
100
AcDbEntity
  8
ALIN1
100
AcDbLine
 10
8935.854087
 20
7507.690637
 30
29686.66846
 11
9109.460841
 21
7585.69811
 31
29705.15758
210
0.0
220
-1.0
230
0.0
  0
LINE
  5
621
100
AcDbEntity
  8
ALIN1
100
AcDbLine
 10
9109.460841
 20
7585.69811
 30
29705.15758
 11
9292.204793
 21
7667.81124
 31
29724.61981
210
0.0
220
-1.0
230
0.0
  0
LINE
  5
622
100
AcDbEntity
  8
ALIN1
100
AcDbLine
 10
9292.204793
 20
7667.81124
 30
29724.61981
 11
9333.333333
 21
7684.975963
 31
29729.0
210
0.0
220
-1.0
230
0.0
  0
LINE
  5
623
100
AcDbEntity
  8
ALIN1
100
AcDbLine
 10
9333.333333
 20
7684.975963
 30
29729.0
 11
9481.229115
 21
7733.421999
 31
29744.999602
210
0.0
220
-1.0
230
0.0
  0
LINE
  5
624
100
AcDbEntity
  8
ALIN1
100
AcDbLine
 10
9481.229115
 20
7733.421999
 30
29744.999602
 11
9612.853127
 21
7776.540214
 31
29759.238898
210
0.0
220
-1.0
230
0.0
  0
LINE
  5
626
100
AcDbEntity
  8
PILARESP
100
AcDbLine
 10
1333.333333
 20
7797.364848
 30
28515.0
 11
1333.333333
 21
7797.364848
 31
29311.0
  0
LINE
  5
627
100
AcDbEntity
  8
PILARESP
100
AcDbLine
 10
-666.666667
 20
7797.364848
 30
28515.0
 11
-666.666667
 21
7797.364848
 31
28922.0
  0
LINE
  5
628
100
AcDbEntity
  8
PILARESP
100
AcDbLine
 10
1333.333333
 20
6197.364848
 30
28515.0
 11
1333.333333
 21
6197.364848
 31
29168.0
  0
LINE
  5
629
100
AcDbEntity
  8
PILARESP
100
AcDbLine
 10
-666.666667
 20
6197.364848
 30
28515.0
 11
-666.666667
 21
6197.364848
 31
28783.0
  0
LINE
  5
62A
100
AcDbEntity
  8
PILARESP
100
AcDbLine
 10
1333.333333
 20
4597.364848
 30
28515.0
 11
1333.333333
 21
4597.364848
 31
29025.0
  0
LINE
  5
62B
100
AcDbEntity
  8
PILARESP
100
AcDbLine
 10
3333.333333
 20
9397.364848
 30
28575.0
 11
3333.333333
 21
9397.364848
 31
29876.0
  0
LINE
  5
62C
100
AcDbEntity
  8
PILARESP
100
AcDbLine
 10
3333.333333
 20
7797.364848
 30
27775.0
 11
3333.333333
 21
7797.364848
 31
29732.0
  0
LINE
  5
62D
100
AcDbEntity
  8
PILARESP
100
AcDbLine
 10
3333.333333
 20
6197.364848
 30
27775.0
 11
3333.333333
 21
6197.364848
 31
29589.0
  0
LINE
  5
62E
100
AcDbEntity
  8
PILARESP
100
AcDbLine
 10
5333.333333
 20
9397.364848
 30
27775.0
 11
5333.333333
 21
9397.364848
 31
30328.0
  0
LINE
  5
62F
100
AcDbEntity
  8
PILARESP
100
AcDbLine
 10
5333.333333
 20
7797.364848
 30
27775.0
 11
5333.333333
 21
7797.364848
 31
30198.0
  0
LINE
  5
630
100
AcDbEntity
  8
PILARESP
100
AcDbLine
 10
5333.333333
 20
6197.364848
 30
27775.0
 11
5333.333333
 21
6197.364848
 31
30097.0
  0
LINE
  5
631
100
AcDbEntity
  8
PILARESP
100
AcDbLine
 10
3333.333333
 20
4597.364848
 30
28515.0
 11
3333.333333
 21
4597.364848
 31
29446.0
  0
LINE
  5
632
100
AcDbEntity
  8
PILARESP
100
AcDbLine
 10
3333.333333
 20
2997.364848
 30
28515.0
 11
3333.333333
 21
2997.364848
 31
29305.0
  0
LINE
  5
633
100
AcDbEntity
  8
PILARESP
100
AcDbLine
 10
1333.333333
 20
9397.364848
 30
28575.0
 11
1333.333333
 21
9397.364848
 31
29454.0
  0
LINE
  5
634
100
AcDbEntity
  8
PILARESP
100
AcDbLine
 10
3333.333333
 20
10997.364848
 30
29375.0
 11
3333.333333
 21
10997.364848
 31
30020.0
  0
LINE
  5
635
100
AcDbEntity
  8
PILARESP
100
AcDbLine
 10
-666.666667
 20
4597.364848
 30
28515.0
 11
-666.666667
 21
4597.364848
 31
28644.0
  0
LINE
  5
636
100
AcDbEntity
  8
PILARESP
100
AcDbLine
 10
5333.333333
 20
10997.364848
 30
28575.0
 11
5333.333333
 21
10997.364848
 31
30465.0
  0
LINE
  5
637
100
AcDbEntity
  8
PILARESP
100
AcDbLine
 10
7333.333333
 20
10997.364848
 30
28125.0
 11
7333.333333
 21
10997.364848
 31
30966.0
  0
LINE
  5
638
100
AcDbEntity
  8
PILARESP
100
AcDbLine
 10
9333.333333
 20
10997.364848
 30
28125.0
 11
9333.333333
 21
10997.364848
 31
29941.0
  0
LINE
  5
639
100
AcDbEntity
  8
PILARESP
100
AcDbLine
 10
7333.333333
 20
12597.364848
 30
28575.0
 11
7333.333333
 21
12597.364848
 31
31072.0
  0
LINE
  5
63A
100
AcDbEntity
  8
PILARESP
100
AcDbLine
 10
9333.333333
 20
9397.364848
 30
28575.0
 11
9333.333333
 21
9397.364848
 31
29807.0
  0
LINE
  5
63B
100
AcDbEntity
  8
PILARESP
100
AcDbLine
 10
7333.333333
 20
9397.364848
 30
27775.0
 11
7333.333333
 21
9397.364848
 31
30800.0
  0
LINE
  5
63C
100
AcDbEntity
  8
PILARESP
100
AcDbLine
 10
7333.333333
 20
7797.364848
 30
28575.0
 11
7333.333333
 21
7797.364848
 31
29790.0
  0
LINE
  5
63D
100
AcDbEntity
  8
PILARESP
100
AcDbLine
 10
5333.333333
 20
4597.364848
 30
28515.0
 11
5333.333333
 21
4597.364848
 31
29964.0
  0
LINE
  5
63E
100
AcDbEntity
  8
PILARESP
100
AcDbLine
 10
9333.333333
 20
12597.364848
 30
28125.0
 11
9333.333333
 21
12597.364848
 31
31227.0
  0
LINE
  5
63F
100
AcDbEntity
  8
PILARESP
100
AcDbLine
 10
1333.333333
 20
2997.364848
 30
28515.0
 11
1333.333333
 21
2997.364848
 31
28883.0
  0
LINE
  5
640
100
AcDbEntity
  8
PILARESP
100
AcDbLine
 10
3333.333333
 20
1397.364848
 30
28515.0
 11
3333.333333
 21
1397.364848
 31
29171.0
  0
LINE
  5
641
100
AcDbEntity
  8
PILARESP
100
AcDbLine
 10
9333.333333
 20
7797.364848
 30
28575.0
 11
9333.333333
 21
7797.364848
 31
29664.0
  0
LINE
  5
64E
100
AcDbEntity
  8
PILARESPU
100
AcDbLine
 10
3333.333333
 20
1397.364848
 30
29246.0
 11
3333.333333
 21
1397.364848
 31
29171.0
  0
LINE
  5
64F
100
AcDbEntity
  8
PILARESPU
100
AcDbLine
 10
3333.333333
 20
2997.364848
 30
29380.0
 11
3333.333333
 21
2997.364848
 31
29305.0
  0
LINE
  5
650
100
AcDbEntity
  8
PILARESPU
100
AcDbLine
 10
1333.333333
 20
2997.364848
 30
28958.0
 11
1333.333333
 21
2997.364848
 31
28883.0
  0
LINE
  5
651
100
AcDbEntity
  8
PILARESPU
100
AcDbLine
 10
-666.666667
 20
4597.364848
 30
28719.0
 11
-666.666667
 21
4597.364848
 31
28644.0
  0
LINE
  5
652
100
AcDbEntity
  8
PILARESPU
100
AcDbLine
 10
1333.333333
 20
4597.364848
 30
29100.0
 11
1333.333333
 21
4597.364848
 31
29025.0
  0
LINE
  5
653
100
AcDbEntity
  8
PILARESPU
100
AcDbLine
 10
3333.333333
 20
4597.364848
 30
29521.0
 11
3333.333333
 21
4597.364848
 31
29446.0
  0
LINE
  5
654
100
AcDbEntity
  8
PILARESPU
100
AcDbLine
 10
5333.333333
 20
4597.364848
 30
30039.0
 11
5333.333333
 21
4597.364848
 31
29964.0
  0
LINE
  5
655
100
AcDbEntity
  8
PILARESPU
100
AcDbLine
 10
-666.666667
 20
6197.364848
 30
28858.0
 11
-666.666667
 21
6197.364848
 31
28783.0
  0
LINE
  5
656
100
AcDbEntity
  8
PILARESPU
100
AcDbLine
 10
1333.333333
 20
6197.364848
 30
29243.0
 11
1333.333333
 21
6197.364848
 31
29168.0
  0
LINE
  5
657
100
AcDbEntity
  8
PILARESPU
100
AcDbLine
 10
3333.333333
 20
6197.364848
 30
29664.0
 11
3333.333333
 21
6197.364848
 31
29589.0
  0
LINE
  5
658
100
AcDbEntity
  8
PILARESPU
100
AcDbLine
 10
5333.333333
 20
6197.364848
 30
30172.0
 11
5333.333333
 21
6197.364848
 31
30097.0
  0
LINE
  5
659
100
AcDbEntity
  8
PILARESPU
100
AcDbLine
 10
-666.666667
 20
7797.364848
 30
28997.0
 11
-666.666667
 21
7797.364848
 31
28922.0
  0
LINE
  5
65A
100
AcDbEntity
  8
PILARESPU
100
AcDbLine
 10
1333.333333
 20
7797.364848
 30
29386.0
 11
1333.333333
 21
7797.364848
 31
29311.0
  0
LINE
  5
65B
100
AcDbEntity
  8
PILARESPU
100
AcDbLine
 10
3333.333333
 20
7797.364848
 30
29807.0
 11
3333.333333
 21
7797.364848
 31
29732.0
  0
LINE
  5
65C
100
AcDbEntity
  8
PILARESPU
100
AcDbLine
 10
5333.333333
 20
7797.364848
 30
30273.0
 11
5333.333333
 21
7797.364848
 31
30198.0
  0
LINE
  5
65D
100
AcDbEntity
  8
PILARESPU
100
AcDbLine
 10
7333.333333
 20
7797.364848
 30
29865.0
 11
7333.333333
 21
7797.364848
 31
29790.0
  0
LINE
  5
65E
100
AcDbEntity
  8
PILARESPU
100
AcDbLine
 10
9333.333333
 20
7797.364848
 30
29739.0
 11
9333.333333
 21
7797.364848
 31
29664.0
  0
LINE
  5
65F
100
AcDbEntity
  8
PILARESPU
100
AcDbLine
 10
9333.333333
 20
9397.364848
 30
29882.0
 11
9333.333333
 21
9397.364848
 31
29807.0
  0
LINE
  5
660
100
AcDbEntity
  8
PILARESPU
100
AcDbLine
 10
7333.333333
 20
9397.364848
 30
30875.0
 11
7333.333333
 21
9397.364848
 31
30800.0
  0
LINE
  5
661
100
AcDbEntity
  8
PILARESPU
100
AcDbLine
 10
5333.333333
 20
9397.364848
 30
30403.0
 11
5333.333333
 21
9397.364848
 31
30328.0
  0
LINE
  5
662
100
AcDbEntity
  8
PILARESPU
100
AcDbLine
 10
3333.333333
 20
9397.364848
 30
29951.0
 11
3333.333333
 21
9397.364848
 31
29876.0
  0
LINE
  5
663
100
AcDbEntity
  8
PILARESPU
100
AcDbLine
 10
1333.333333
 20
9397.364848
 30
29529.0
 11
1333.333333
 21
9397.364848
 31
29454.0
  0
LINE
  5
664
100
AcDbEntity
  8
PILARESPU
100
AcDbLine
 10
3333.333333
 20
10997.364848
 30
30095.0
 11
3333.333333
 21
10997.364848
 31
30020.0
  0
LINE
  5
665
100
AcDbEntity
  8
PILARESPU
100
AcDbLine
 10
5333.333333
 20
10997.364848
 30
30540.0
 11
5333.333333
 21
10997.364848
 31
30465.0
  0
LINE
  5
666
100
AcDbEntity
  8
PILARESPU
100
AcDbLine
 10
7333.333333
 20
10997.364848
 30
31041.0
 11
7333.333333
 21
10997.364848
 31
30966.0
  0
LINE
  5
667
100
AcDbEntity
  8
PILARESPU
100
AcDbLine
 10
9333.333333
 20
10997.364848
 30
30016.0
 11
9333.333333
 21
10997.364848
 31
29941.0
  0
LINE
  5
668
100
AcDbEntity
  8
PILARESPU
100
AcDbLine
 10
7333.333333
 20
12597.364848
 30
31147.0
 11
7333.333333
 21
12597.364848
 31
31072.0
  0
LINE
  5
669
100
AcDbEntity
  8
PILARESPU
100
AcDbLine
 10
9333.333333
 20
12597.364848
 30
31302.0
 11
9333.333333
 21
12597.364848
 31
31227.0
  0
LINE
  5
82A
100
AcDbEntity
  8
PILARESN
100
AcDbLine
 10
10865.168759
 20
14969.135844
 30
29175.0
 11
10865.168759
 21
14969.135844
 31
29375.0
  0
LINE
  5
82D
100
AcDbEntity
  8
PILARESN
100
AcDbLine
 10
10101.13369
 20
14618.737914
 30
29175.0
 11
10101.13369
 21
14618.737914
 31
29375.0
  0
LINE
  5
82E
100
AcDbEntity
  8
PILARESN
100
AcDbLine
 10
9333.333333
 20
14269.908681
 30
29175.0
 11
9333.333333
 21
14269.908681
 31
29375.0
  0
LINE
  5
82F
100
AcDbEntity
  8
PILARESN
100
AcDbLine
 10
8572.973992
 20
13916.877663
 30
29064.62836
 11
8572.973992
 21
13916.877663
 31
29375.0
  0
LINE
  5
830
100
AcDbEntity
  8
PILARESN
100
AcDbLine
 10
7810.351324
 20
13549.203874
 30
29019.672644
 11
7810.351324
 21
13549.203874
 31
29375.0
  0
LINE
  5
831
100
AcDbEntity
  8
PILARESN
100
AcDbLine
 10
7052.530647
 20
13143.888124
 30
28975.0
 11
7052.530647
 21
13143.888124
 31
29375.0
  0
LINE
  5
832
100
AcDbEntity
  8
PILARESN
100
AcDbLine
 10
6743.261286
 20
12974.968704
 30
28975.0
 11
6743.261286
 21
12974.968704
 31
29375.0
  0
LINE
  5
833
100
AcDbEntity
  8
PILARESN
100
AcDbLine
 10
6474.777474
 20
12832.701846
 30
28975.0
 11
6474.777474
 21
12832.701846
 31
29375.0
  0
LINE
  5
834
100
AcDbEntity
  8
PILARESN2
100
AcDbLine
 10
6514.383567
 20
12435.912703
 30
28975.0
 11
6514.383567
 21
12435.912703
 31
29375.0
  0
LINE
  5
835
100
AcDbEntity
  8
PILARESN2
100
AcDbLine
 10
6342.318475
 20
12332.368079
 30
28975.0
 11
6342.318475
 21
12332.368079
 31
29375.0
  0
LINE
  5
836
100
AcDbEntity
  8
PILARESN2
100
AcDbLine
 10
5590.397124
 20
11879.879941
 30
28975.0
 11
5590.397124
 21
11879.879941
 31
29375.0
  0
LINE
  5
837
100
AcDbEntity
  8
PILARESN2
100
AcDbLine
 10
4838.475773
 20
11427.391802
 30
28926.010907
 11
4838.475773
 21
11427.391802
 31
29375.0
  0
LINE
  5
838
100
AcDbEntity
  8
PILARESN
100
AcDbLine
 10
4250.833619
 20
11588.926671
 30
28887.724914
 11
4250.833619
 21
11588.926671
 31
29375.0
  0
LINE
  5
839
100
AcDbEntity
  8
PILARESN2
100
AcDbLine
 10
4413.292596
 20
11171.526152
 30
28898.309422
 11
4413.292596
 21
11171.526152
 31
29375.0
  0
LINE
  5
83A
100
AcDbEntity
  8
PILARESN
100
AcDbLine
 10
3929.364245
 20
11405.711076
 30
28866.780578
 11
3929.364245
 21
11405.711076
 31
29375.0
  0
LINE
  5
83C
100
AcDbEntity
  8
PILARESN
100
AcDbLine
 10
2520.844567
 20
10597.64629
 30
28775.012867
 11
2520.844567
 21
10597.64629
 31
29375.0
  0
LINE
  5
83D
100
AcDbEntity
  8
PILARESN
100
AcDbLine
 10
1766.878004
 20
10162.394539
 30
28725.890525
 11
1766.878004
 21
10162.394539
 31
29375.0
  0
LINE
  5
83E
100
AcDbEntity
  8
PILARESN
100
AcDbLine
 10
1013.326406
 20
9723.645598
 30
28676.795218
 11
1013.326406
 21
9723.645598
 31
29375.0
  0
LINE
  5
83F
100
AcDbEntity
  8
PILARESN
100
AcDbLine
 10
566.98698
 20
9463.768303
 30
28647.715364
 11
566.98698
 21
9463.768303
 31
29381.060145
  0
LINE
  5
84C
100
AcDbEntity
  8
PILARESN
100
AcDbLine
 10
10865.168759
 20
14969.135844
 30
30975.0
 11
10865.168759
 21
14969.135844
 31
31148.639281
  0
LINE
  5
84D
100
AcDbEntity
  8
PILARESN
100
AcDbLine
 10
10101.13369
 20
14618.737914
 30
30975.0
 11
10101.13369
 21
14618.737914
 31
31758.207506
  0
LINE
  5
84E
100
AcDbEntity
  8
PILARESN
100
AcDbLine
 10
9333.333333
 20
14269.908681
 30
31091.281914
 11
9333.333333
 21
14269.908681
 31
31752.0
  0
LINE
  5
84F
100
AcDbEntity
  8
PILARESN
100
AcDbLine
 10
8572.973992
 20
13916.877663
 30
31195.597635
 11
8572.973992
 21
13916.877663
 31
31561.62836
  0
LINE
  5
850
100
AcDbEntity
  8
PILARESN
100
AcDbLine
 10
7810.351324
 20
13549.203874
 30
31173.202795
 11
7810.351324
 21
13549.203874
 31
31336.388208
  0
LINE
  5
851
100
AcDbEntity
  8
PILARESN
100
AcDbLine
 10
7052.530647
 20
13143.888124
 30
30975.0
 11
7052.530647
 21
13143.888124
 31
31120.793287
  0
LINE
  5
852
100
AcDbEntity
  8
PILARESN
100
AcDbLine
 10
6743.261286
 20
12974.968704
 30
30975.0
 11
6743.261286
 21
12974.968704
 31
31033.890498
  0
LINE
  5
853
100
AcDbEntity
  8
PILARESN
100
AcDbLine
 10
11638.567155
 20
15252.587529
 30
29375.0
 11
11638.567155
 21
15252.587529
 31
29491.198009
  0
LINE
  5
854
100
AcDbEntity
  8
PILARESN
100
AcDbLine
 10
11638.567155
 20
15252.587529
 30
28975.0
 11
11638.567155
 21
15252.587529
 31
29375.0
210
0.0
220
1.0
230
0.0
  0
LINE
  5
857
100
AcDbEntity
  8
PILARESN
100
AcDbLine
 10
6474.777474
 20
12832.701846
 30
30175.0
 11
6474.777474
 21
12832.701846
 31
30959.1832
  0
LINE
  5
85B
100
AcDbEntity
  8
PILARESN
100
AcDbLine
 10
10101.13369
 20
14618.737914
 30
29375.0
 11
10101.13369
 21
14618.737914
 31
30175.0
210
0.0
220
1.0
230
0.0
  0
LINE
  5
85C
100
AcDbEntity
  8
PILARESN
100
AcDbLine
 10
9333.333333
 20
14269.908681
 30
29375.0
 11
9333.333333
 21
14269.908681
 31
30175.0
210
0.0
220
1.0
230
0.0
  0
LINE
  5
85D
100
AcDbEntity
  8
PILARESN
100
AcDbLine
 10
8572.973992
 20
13916.877663
 30
29375.0
 11
8572.973992
 21
13916.877663
 31
30175.0
210
0.0
220
1.0
230
0.0
  0
LINE
  5
85E
100
AcDbEntity
  8
PILARESN
100
AcDbLine
 10
7810.351324
 20
13549.203874
 30
29375.0
 11
7810.351324
 21
13549.203874
 31
30175.0
210
0.0
220
1.0
230
0.0
  0
LINE
  5
85F
100
AcDbEntity
  8
PILARESN
100
AcDbLine
 10
7052.530647
 20
13143.888124
 30
29375.0
 11
7052.530647
 21
13143.888124
 31
30175.0
210
0.0
220
1.0
230
0.0
  0
LINE
  5
860
100
AcDbEntity
  8
PILARESN
100
AcDbLine
 10
6743.261286
 20
12974.968704
 30
29375.0
 11
6743.261286
 21
12974.968704
 31
30175.0
210
0.0
220
1.0
230
0.0
  0
LINE
  5
861
100
AcDbEntity
  8
PILARESN
100
AcDbLine
 10
6474.777474
 20
12832.701846
 30
29375.0
 11
6474.777474
 21
12832.701846
 31
30175.0
210
0.0
220
1.0
230
0.0
  0
LINE
  5
862
100
AcDbEntity
  8
VIGASN
100
AcDbLine
 10
11638.567155
 20
15252.587529
 30
29375.0
 11
10865.168759
 21
14969.135844
 31
29375.0
210
0.0
220
1.0
230
0.0
  0
LINE
  5
865
100
AcDbEntity
  8
VIGASN
100
AcDbLine
 10
9333.333333
 20
14269.908681
 30
29375.0
 11
8572.973992
 21
13916.877663
 31
29375.0
210
0.0
220
1.0
230
0.0
  0
LINE
  5
866
100
AcDbEntity
  8
VIGASN
100
AcDbLine
 10
8572.973992
 20
13916.877663
 30
29375.0
 11
7810.351324
 21
13549.203874
 31
29375.0
210
0.0
220
1.0
230
0.0
  0
LINE
  5
867
100
AcDbEntity
  8
VIGASN
100
AcDbLine
 10
7810.351324
 20
13549.203874
 30
29375.0
 11
7052.530647
 21
13143.888124
 31
29375.0
210
0.0
220
1.0
230
0.0
  0
LINE
  5
868
100
AcDbEntity
  8
VIGASN
100
AcDbLine
 10
7052.530647
 20
13143.888124
 30
29375.0
 11
6743.261286
 21
12974.968704
 31
29375.0
210
0.0
220
1.0
230
0.0
  0
LINE
  5
869
100
AcDbEntity
  8
VIGASN
100
AcDbLine
 10
6743.261286
 20
12974.968704
 30
29375.0
 11
6474.777474
 21
12832.701846
 31
29375.0
210
0.0
220
1.0
230
0.0
  0
LINE
  5
86C
100
AcDbEntity
  8
VIGASN
100
AcDbLine
 10
9333.333333
 20
14269.908681
 30
30175.0
 11
8572.973992
 21
13916.877663
 31
30175.0
210
0.0
220
1.0
230
0.0
  0
LINE
  5
86D
100
AcDbEntity
  8
VIGASN
100
AcDbLine
 10
8572.973992
 20
13916.877663
 30
30175.0
 11
7810.351324
 21
13549.203874
 31
30175.0
210
0.0
220
1.0
230
0.0
  0
LINE
  5
86E
100
AcDbEntity
  8
VIGASN
100
AcDbLine
 10
7810.351324
 20
13549.203874
 30
30175.0
 11
7052.530647
 21
13143.888124
 31
30175.0
210
0.0
220
1.0
230
0.0
  0
LINE
  5
86F
100
AcDbEntity
  8
VIGASN
100
AcDbLine
 10
7052.530647
 20
13143.888124
 30
30175.0
 11
6743.261286
 21
12974.968704
 31
30175.0
210
0.0
220
1.0
230
0.0
  0
LINE
  5
870
100
AcDbEntity
  8
VIGASN
100
AcDbLine
 10
6743.261286
 20
12974.968704
 30
30175.0
 11
6474.777474
 21
12832.701846
 31
30175.0
210
0.0
220
1.0
230
0.0
  0
LINE
  5
874
100
AcDbEntity
  8
VIGASN
100
AcDbLine
 10
9333.333333
 20
14269.908681
 30
30975.0
 11
8572.973992
 21
13916.877663
 31
30975.0
210
0.0
220
1.0
230
0.0
  0
LINE
  5
875
100
AcDbEntity
  8
VIGASN
100
AcDbLine
 10
8572.973992
 20
13916.877663
 30
30975.0
 11
7810.351324
 21
13549.203874
 31
30975.0
210
0.0
220
1.0
230
0.0
  0
LINE
  5
876
100
AcDbEntity
  8
VIGASN
100
AcDbLine
 10
7810.351324
 20
13549.203874
 30
30975.0
 11
7052.530647
 21
13143.888124
 31
30975.0
210
0.0
220
1.0
230
0.0
  0
LINE
  5
877
100
AcDbEntity
  8
VIGASN
100
AcDbLine
 10
7052.530647
 20
13143.888124
 30
30975.0
 11
6743.261286
 21
12974.968704
 31
30975.0
210
0.0
220
1.0
230
0.0
  0
LINE
  5
878
100
AcDbEntity
  8
PILARESN
100
AcDbLine
 10
6743.261286
 20
12974.968704
 30
30975.0
 11
6743.261286
 21
12974.968704
 31
30175.0
210
0.0
220
1.0
230
0.0
  0
LINE
  5
879
100
AcDbEntity
  8
PILARESN
100
AcDbLine
 10
7052.530647
 20
13143.888124
 30
30175.0
 11
7052.530647
 21
13143.888124
 31
30975.0
210
0.0
220
1.0
230
0.0
  0
LINE
  5
87A
100
AcDbEntity
  8
PILARESN
100
AcDbLine
 10
7810.351324
 20
13549.203874
 30
30975.0
 11
7810.351324
 21
13549.203874
 31
30175.0
210
0.0
220
1.0
230
0.0
  0
LINE
  5
87B
100
AcDbEntity
  8
PILARESN
100
AcDbLine
 10
8572.973992
 20
13916.877663
 30
30975.0
 11
8572.973992
 21
13916.877663
 31
30175.0
210
0.0
220
1.0
230
0.0
  0
LINE
  5
87C
100
AcDbEntity
  8
PILARESN
100
AcDbLine
 10
9333.333333
 20
14269.908681
 30
30975.0
 11
9333.333333
 21
14269.908681
 31
30175.0
210
0.0
220
1.0
230
0.0
  0
LINE
  5
87D
100
AcDbEntity
  8
PILARESN
100
AcDbLine
 10
10101.13369
 20
14618.737914
 30
30746.96322
 11
10101.13369
 21
14618.737914
 31
30175.0
210
0.0
220
1.0
230
0.0
  0
LINE
  5
87E
100
AcDbEntity
  8
PILARESN
100
AcDbLine
 10
10865.168759
 20
14969.135844
 30
30975.0
 11
10865.168759
 21
14969.135844
 31
30175.0
210
0.0
220
1.0
230
0.0
  0
LINE
  5
881
100
AcDbEntity
  8
PILARESN
100
AcDbLine
 10
10865.168759
 20
14969.135844
 30
29375.0
 11
10865.168759
 21
14969.135844
 31
30175.0
210
0.0
220
1.0
230
0.0
  0
LINE
  5
882
100
AcDbEntity
  8
VIGASN
100
AcDbLine
 10
9704.013294
 20
14438.317051
 30
30975.0
 11
10101.13369
 21
14618.737914
 31
30975.0
210
0.0
220
1.0
230
0.0
  0
LINE
  5
883
100
AcDbEntity
  8
VIGASN
100
AcDbLine
 10
10101.13369
 20
14618.737914
 30
30975.0
 11
10865.168759
 21
14969.135844
 31
30975.0
210
0.0
220
1.0
230
0.0
  0
LINE
  5
884
100
AcDbEntity
  8
VIGASN
100
AcDbLine
 10
9333.333333
 20
14269.908681
 30
30175.0
 11
10101.13369
 21
14618.737914
 31
30175.0
210
0.0
220
1.0
230
0.0
  0
LINE
  5
885
100
AcDbEntity
  8
VIGASN
100
AcDbLine
 10
10101.13369
 20
14618.737914
 30
30175.0
 11
10865.168759
 21
14969.135844
 31
30175.0
210
0.0
220
1.0
230
0.0
  0
LINE
  5
886
100
AcDbEntity
  8
VIGASN
100
AcDbLine
 10
9333.333333
 20
14269.908681
 30
29375.0
 11
10101.13369
 21
14618.737914
 31
29375.0
210
0.0
220
1.0
230
0.0
  0
LINE
  5
887
100
AcDbEntity
  8
VIGASN
100
AcDbLine
 10
10101.13369
 20
14618.737914
 30
29375.0
 11
10865.168759
 21
14969.135844
 31
29375.0
210
0.0
220
1.0
230
0.0
  0
LINE
  5
892
100
AcDbEntity
  8
PILARESN
100
AcDbLine
 10
4250.833619
 20
11588.926671
 30
30175.0
 11
4250.833619
 21
11588.926671
 31
30348.880474
  0
LINE
  5
893
100
AcDbEntity
  8
PILARESN
100
AcDbLine
 10
3929.364245
 20
11405.711076
 30
30175.0
 11
3929.364245
 21
11405.711076
 31
30261.663867
  0
LINE
  5
894
100
AcDbEntity
  8
PILARESN
100
AcDbLine
 10
2520.844567
 20
10597.64629
 30
29375.0
 11
2520.844567
 21
10597.64629
 31
29884.300588
  0
LINE
  5
895
100
AcDbEntity
  8
PILARESN
100
AcDbLine
 10
1766.878004
 20
10162.394539
 30
29375.0
 11
1766.878004
 21
10162.394539
 31
29686.648693
  0
LINE
  5
896
100
AcDbEntity
  8
PILARESN
100
AcDbLine
 10
1013.326406
 20
9723.645598
 30
29375.0
 11
1013.326406
 21
9723.645598
 31
29493.203253
  0
LINE
  5
898
100
AcDbEntity
  8
VIGASN
100
AcDbLine
 10
4250.833619
 20
11588.926671
 30
29375.0
 11
3929.364245
 21
11405.711076
 31
29375.0
210
0.0
220
1.0
230
0.0
  0
LINE
  5
89A
100
AcDbEntity
  8
VIGASN
100
AcDbLine
 10
2520.844567
 20
10597.64629
 30
29375.0
 11
1766.878004
 21
10162.394539
 31
29375.0
210
0.0
220
1.0
230
0.0
  0
LINE
  5
89B
100
AcDbEntity
  8
VIGASN
100
AcDbLine
 10
1766.878004
 20
10162.394539
 30
29375.0
 11
1013.326406
 21
9723.645598
 31
29375.0
210
0.0
220
1.0
230
0.0
  0
LINE
  5
89C
100
AcDbEntity
  8
VIGASN
100
AcDbLine
 10
4250.833619
 20
11588.926671
 30
30175.0
 11
3929.364245
 21
11405.711076
 31
30175.0
210
0.0
220
1.0
230
0.0
  0
LINE
  5
89D
100
AcDbEntity
  8
PILARESN
100
AcDbLine
 10
4250.833619
 20
11588.926671
 30
29375.0
 11
4250.833619
 21
11588.926671
 31
30175.0
210
0.0
220
1.0
230
0.0
  0
LINE
  5
89E
100
AcDbEntity
  8
PILARESN
100
AcDbLine
 10
3929.364245
 20
11405.711076
 30
29375.0
 11
3929.364245
 21
11405.711076
 31
30175.0
210
0.0
220
1.0
230
0.0
  0
LINE
  5
8A6
100
AcDbEntity
  8
VIGASN
100
AcDbLine
 10
3929.364245
 20
11405.711076
 30
29375.0
 11
3333.333332
 21
11065.363381
 31
29375.0
210
0.0
220
1.0
230
0.0
  0
LINE
  5
8A7
100
AcDbEntity
  8
VIGASN
100
AcDbLine
 10
3333.333332
 20
11065.363381
 30
29375.0
 11
2520.844567
 21
10597.64629
 31
29375.0
210
0.0
220
1.0
230
0.0
  0
LINE
  5
8A8
100
AcDbEntity
  8
VIGASN
100
AcDbLine
 10
3333.333332
 20
11065.363381
 30
29375.0
 11
3333.333333
 21
10997.364848
 31
29375.0
210
0.0
220
1.0
230
0.0
  0
LINE
  5
8AA
100
AcDbEntity
  8
PILARESP
100
AcDbLine
 10
3333.333333
 20
10997.364848
 30
29375.0
 11
3333.333333
 21
10997.364848
 31
28575.0
210
0.0
220
1.0
230
0.0
  0
LINE
  5
8AD
100
AcDbEntity
  8
PILARESN2
100
AcDbLine
 10
6514.383567
 20
12435.912703
 30
30175.0
 11
6514.383567
 21
12435.912703
 31
30935.411604
  0
LINE
  5
8AE
100
AcDbEntity
  8
PILARESN2
100
AcDbLine
 10
6342.318475
 20
12332.368079
 30
30175.0
 11
6342.318475
 21
12332.368079
 31
30886.486436
  0
LINE
  5
8AF
100
AcDbEntity
  8
PILARESN2
100
AcDbLine
 10
5590.397124
 20
11879.879941
 30
30175.0
 11
5590.397124
 21
11879.879941
 31
30674.713865
  0
LINE
  5
8B0
100
AcDbEntity
  8
PILARESN2
100
AcDbLine
 10
4838.475773
 20
11427.391802
 30
30175.0
 11
4838.475773
 21
11427.391802
 31
30465.245423
  0
LINE
  5
8B1
100
AcDbEntity
  8
PILARESN2
100
AcDbLine
 10
4413.292596
 20
11171.526152
 30
30175.0
 11
4413.292596
 21
11171.526152
 31
30347.467708
  0
LINE
  5
8B3
100
AcDbEntity
  8
VIGASN2
100
AcDbLine
 10
6514.383567
 20
12435.912703
 30
30175.0
 11
6342.318475
 21
12332.368079
 31
30175.0
210
0.0
220
1.0
230
0.0
  0
LINE
  5
8B4
100
AcDbEntity
  8
VIGASN2
100
AcDbLine
 10
6342.318475
 20
12332.368079
 30
30175.0
 11
5590.397124
 21
11879.879941
 31
30175.0
210
0.0
220
1.0
230
0.0
  0
LINE
  5
8B5
100
AcDbEntity
  8
VIGASN2
100
AcDbLine
 10
5590.397124
 20
11879.879941
 30
30175.0
 11
4838.475773
 21
11427.391802
 31
30175.0
210
0.0
220
1.0
230
0.0
  0
LINE
  5
8B6
100
AcDbEntity
  8
VIGASN2
100
AcDbLine
 10
4838.475773
 20
11427.391802
 30
30175.0
 11
4413.292596
 21
11171.526152
 31
30175.0
210
0.0
220
1.0
230
0.0
  0
LINE
  5
8B7
100
AcDbEntity
  8
VIGASN2
100
AcDbLine
 10
6514.383567
 20
12435.912703
 30
29375.0
 11
6342.318475
 21
12332.368079
 31
29375.0
210
0.0
220
1.0
230
0.0
  0
LINE
  5
8B8
100
AcDbEntity
  8
VIGASN2
100
AcDbLine
 10
6342.318475
 20
12332.368079
 30
29375.0
 11
5590.397124
 21
11879.879941
 31
29375.0
210
0.0
220
1.0
230
0.0
  0
LINE
  5
8B9
100
AcDbEntity
  8
VIGASN2
100
AcDbLine
 10
5590.397124
 20
11879.879941
 30
29375.0
 11
4838.475773
 21
11427.391802
 31
29375.0
210
0.0
220
1.0
230
0.0
  0
LINE
  5
8BA
100
AcDbEntity
  8
VIGASN2
100
AcDbLine
 10
4838.475773
 20
11427.391802
 30
29375.0
 11
4413.292596
 21
11171.526152
 31
29375.0
210
0.0
220
1.0
230
0.0
  0
LINE
  5
8BB
100
AcDbEntity
  8
PILARESN2
100
AcDbLine
 10
6514.383567
 20
12435.912703
 30
29575.0
 11
6514.383567
 21
12435.912703
 31
30175.0
210
0.0
220
1.0
230
0.0
  0
LINE
  5
8BC
100
AcDbEntity
  8
PILARESN2
100
AcDbLine
 10
6342.318475
 20
12332.368079
 30
29575.0
 11
6342.318475
 21
12332.368079
 31
30175.0
210
0.0
220
1.0
230
0.0
  0
LINE
  5
8BD
100
AcDbEntity
  8
PILARESN2
100
AcDbLine
 10
5590.397124
 20
11879.879941
 30
29575.0
 11
5590.397124
 21
11879.879941
 31
30175.0
210
0.0
220
1.0
230
0.0
  0
LINE
  5
8BE
100
AcDbEntity
  8
PILARESN2
100
AcDbLine
 10
4838.475773
 20
11427.391802
 30
29575.0
 11
4838.475773
 21
11427.391802
 31
30175.0
210
0.0
220
1.0
230
0.0
  0
LINE
  5
8BF
100
AcDbEntity
  8
PILARESN2
100
AcDbLine
 10
4413.292596
 20
11171.526152
 30
29575.0
 11
4413.292596
 21
11171.526152
 31
30175.0
210
0.0
220
1.0
230
0.0
  0
LINE
  5
8C5
100
AcDbEntity
  8
VIGASNT
100
AcDbLine
 10
4413.292596
 20
11171.526152
 30
30175.0
 11
4250.833619
 21
11588.926671
 31
30175.0
210
0.0
220
1.0
230
0.0
  0
LINE
  5
8C6
100
AcDbEntity
  8
VIGASNT
100
AcDbLine
 10
4413.292596
 20
11171.526152
 30
29375.0
 11
4250.833619
 21
11588.926671
 31
29375.0
210
0.0
220
1.0
230
0.0
  0
LINE
  5
8C7
100
AcDbEntity
  8
VIGASNT
100
AcDbLine
 10
6474.777474
 20
12832.701846
 30
29375.0
 11
6514.383567
 21
12435.912703
 31
29375.0
210
0.0
220
1.0
230
0.0
  0
LINE
  5
8C8
100
AcDbEntity
  8
VIGASNT
100
AcDbLine
 10
6474.777474
 20
12832.701846
 30
30175.0
 11
6514.383567
 21
12435.912703
 31
30175.0
210
0.0
220
1.0
230
0.0
  0
LINE
  5
8D4
100
AcDbEntity
  8
VIGASNT
100
AcDbLine
 10
11638.567155
 20
15252.587529
 30
29375.0
 11
11652.659445
 21
15139.940563
 31
29375.0
  0
LINE
  5
8D5
100
AcDbEntity
  8
VIGASNT
100
AcDbLine
 10
10865.168759
 20
14969.135844
 30
29375.0
 11
10899.280472
 21
14696.463263
 31
29375.0
  0
LINE
  5
8D6
100
AcDbEntity
  8
VIGASNT
100
AcDbLine
 10
10865.168759
 20
14969.135844
 30
30175.0
 11
10899.280472
 21
14696.463263
 31
30175.0
  0
LINE
  5
8D7
100
AcDbEntity
  8
VIGASNT
100
AcDbLine
 10
10101.13369
 20
14618.737914
 30
29375.0
 11
10146.821975
 21
14253.527803
 31
29375.0
  0
LINE
  5
8D8
100
AcDbEntity
  8
VIGASNT
100
AcDbLine
 10
10101.13369
 20
14618.737914
 30
30175.0
 11
10146.821975
 21
14253.527803
 31
30175.0
  0
LINE
  5
8D9
100
AcDbEntity
  8
VIGASNT
100
AcDbLine
 10
10101.13369
 20
14618.737914
 30
30975.0
 11
10146.821975
 21
14253.527803
 31
30975.0
  0
LINE
  5
8DA
100
AcDbEntity
  8
VIGASNT
100
AcDbLine
 10
9333.333333
 20
14269.908681
 30
29375.0
 11
9391.039237
 21
13808.635524
 31
29375.0
  0
LINE
  5
8DB
100
AcDbEntity
  8
VIGASNT
100
AcDbLine
 10
9333.333333
 20
14269.908681
 30
30175.0
 11
9391.039237
 21
13808.635524
 31
30175.0
  0
LINE
  5
8DC
100
AcDbEntity
  8
VIGASNT
100
AcDbLine
 10
9333.333333
 20
14269.908681
 30
30975.0
 11
9391.039237
 21
13808.635524
 31
30975.0
  0
LINE
  5
8DD
100
AcDbEntity
  8
VIGASNT
100
AcDbLine
 10
8572.973992
 20
13916.877663
 30
29375.0
 11
8641.697541
 21
13367.534771
 31
29375.0
  0
LINE
  5
8DE
100
AcDbEntity
  8
VIGASNT
100
AcDbLine
 10
8572.973992
 20
13916.877663
 30
30175.0
 11
8641.697541
 21
13367.534771
 31
30175.0
  0
LINE
  5
8DF
100
AcDbEntity
  8
VIGASNT
100
AcDbLine
 10
8572.973992
 20
13916.877663
 30
30975.0
 11
8641.697541
 21
13367.534771
 31
30975.0
  0
LINE
  5
8E0
100
AcDbEntity
  8
VIGASNT
100
AcDbLine
 10
7810.351324
 20
13549.203874
 30
29375.0
 11
7888.541573
 21
12924.188744
 31
29375.0
  0
LINE
  5
8E3
100
AcDbEntity
  8
VIGASNT
100
AcDbLine
 10
7052.530647
 20
13143.888124
 30
29375.0
 11
7137.651229
 21
12463.475258
 31
29375.0
  0
LINE
  5
8EB
100
AcDbEntity
  8
VIGASINT
100
AcDbLine
 10
11652.659445
 20
15139.940563
 30
29375.0
 11
10899.280472
 21
14696.463263
 31
29375.0
  0
LINE
  5
8EC
100
AcDbEntity
  8
VIGASINT
100
AcDbLine
 10
10899.280472
 20
14696.463263
 30
29375.0
 11
10146.821975
 21
14253.527803
 31
29375.0
  0
LINE
  5
8ED
100
AcDbEntity
  8
VIGASINT
100
AcDbLine
 10
10146.821975
 20
14253.527803
 30
29375.0
 11
9391.039237
 21
13808.635524
 31
29375.0
  0
LINE
  5
8EE
100
AcDbEntity
  8
VIGASINT
100
AcDbLine
 10
9391.039237
 20
13808.635524
 30
29375.0
 11
8641.697541
 21
13367.534771
 31
29375.0
  0
LINE
  5
8EF
100
AcDbEntity
  8
VIGASINT
100
AcDbLine
 10
8641.697541
 20
13367.534771
 30
29375.0
 11
7888.541573
 21
12924.188744
 31
29375.0
  0
LINE
  5
8F0
100
AcDbEntity
  8
VIGASINT
100
AcDbLine
 10
7888.541573
 20
12924.188744
 30
29375.0
 11
7137.651229
 21
12463.475258
 31
29375.0
  0
LINE
  5
8F1
100
AcDbEntity
  8
VIGASINT
100
AcDbLine
 10
10899.280472
 20
14696.463263
 30
30175.0
 11
10146.821975
 21
14253.527803
 31
30175.0
  0
LINE
  5
8F2
100
AcDbEntity
  8
VIGASINT
100
AcDbLine
 10
10146.821975
 20
14253.527803
 30
30175.0
 11
9391.039237
 21
13808.635524
 31
30175.0
  0
LINE
  5
8F3
100
AcDbEntity
  8
VIGASINT
100
AcDbLine
 10
9391.039237
 20
13808.635524
 30
30175.0
 11
8641.697541
 21
13367.534771
 31
30175.0
  0
LINE
  5
8F5
100
AcDbEntity
  8
VIGASINT
100
AcDbLine
 10
10146.821975
 20
14253.527803
 30
30975.0
 11
9391.039237
 21
13808.635524
 31
30975.0
  0
LINE
  5
8F6
100
AcDbEntity
  8
VIGASINT
100
AcDbLine
 10
9391.039237
 20
13808.635524
 30
30975.0
 11
8641.697541
 21
13367.534771
 31
30975.0
  0
LINE
  5
8F8
100
AcDbEntity
  8
VIGASNT
100
AcDbLine
 10
7052.530647
 20
13143.888124
 30
30175.0
 11
7137.651229
 21
12463.475258
 31
30175.0
  0
LINE
  5
8F9
100
AcDbEntity
  8
VIGASINT
100
AcDbLine
 10
7888.541573
 20
12924.188744
 30
30175.0
 11
7137.651229
 21
12463.475258
 31
30175.0
  0
LINE
  5
8FA
100
AcDbEntity
  8
VIGASNT
100
AcDbLine
 10
7810.351324
 20
13549.203874
 30
30175.0
 11
7888.541573
 21
12924.188744
 31
30175.0
  0
LINE
  5
8FB
100
AcDbEntity
  8
VIGASINT
100
AcDbLine
 10
8641.697541
 20
13367.534771
 30
30175.0
 11
7888.541573
 21
12924.188744
 31
30175.0
  0
LINE
  5
8FC
100
AcDbEntity
  8
VIGASNT
100
AcDbLine
 10
7052.530647
 20
13143.888124
 30
30975.0
 11
7137.651229
 21
12463.475258
 31
30975.0
  0
LINE
  5
8FD
100
AcDbEntity
  8
VIGASINT
100
AcDbLine
 10
7888.541573
 20
12924.188744
 30
30975.0
 11
7137.651229
 21
12463.475258
 31
30975.0
  0
LINE
  5
8FE
100
AcDbEntity
  8
VIGASNT
100
AcDbLine
 10
7810.351324
 20
13549.203874
 30
30975.0
 11
7888.541573
 21
12924.188744
 31
30975.0
  0
LINE
  5
8FF
100
AcDbEntity
  8
VIGASINT
100
AcDbLine
 10
8641.697541
 20
13367.534771
 30
30975.0
 11
7888.541573
 21
12924.188744
 31
30975.0
  0
INSERT
  5
901
100
AcDbEntity
  8
CC
100
AcDbBlockReference
  2
P6
 10
11652.659445
 20
15139.940563
 30
28975.0
  0
LINE
  5
902
100
AcDbEntity
  8
PILARESINT
100
AcDbLine
 10
11652.659445
 20
15139.940563
 30
28975.0
 11
11652.659445
 21
15139.940563
 31
29375.0
210
0.0
220
1.0
230
0.0
  0
INSERT
  5
903
100
AcDbEntity
  8
CC
100
AcDbBlockReference
  2
P6
 10
10899.280472
 20
14696.463263
 30
29175.0
  0
LINE
  5
904
100
AcDbEntity
  8
PILARESINT
100
AcDbLine
 10
10899.280472
 20
14696.463263
 30
29175.0
 11
10899.280472
 21
14696.463263
 31
29375.0
  0
LINE
  5
905
100
AcDbEntity
  8
PILARESINT
100
AcDbLine
 10
10899.280472
 20
14696.463263
 30
29375.0
 11
10899.280472
 21
14696.463263
 31
30175.0
210
0.0
220
1.0
230
0.0
  0
INSERT
  5
906
100
AcDbEntity
  8
CC
100
AcDbBlockReference
  2
P6
 10
10146.821975
 20
14253.527803
 30
29175.0
  0
LINE
  5
907
100
AcDbEntity
  8
PILARESINT
100
AcDbLine
 10
10146.821975
 20
14253.527803
 30
29175.0
 11
10146.821975
 21
14253.527803
 31
29375.0
  0
LINE
  5
908
100
AcDbEntity
  8
PILARESINT
100
AcDbLine
 10
10146.821975
 20
14253.527803
 30
29375.0
 11
10146.821975
 21
14253.527803
 31
30175.0
210
0.0
220
1.0
230
0.0
  0
LINE
  5
909
100
AcDbEntity
  8
PILARESINT
100
AcDbLine
 10
10146.821975
 20
14253.527803
 30
30975.0
 11
10146.821975
 21
14253.527803
 31
30175.0
210
0.0
220
1.0
230
0.0
  0
INSERT
  5
90A
100
AcDbEntity
  8
CC
100
AcDbBlockReference
  2
P6
 10
9391.039237
 20
13808.635524
 30
29175.0
  0
LINE
  5
90B
100
AcDbEntity
  8
PILARESINT
100
AcDbLine
 10
9391.039237
 20
13808.635524
 30
29175.0
 11
9391.039237
 21
13808.635524
 31
29375.0
  0
LINE
  5
90C
100
AcDbEntity
  8
PILARESINT
100
AcDbLine
 10
9391.039237
 20
13808.635524
 30
29575.0
 11
9391.039237
 21
13808.635524
 31
30175.0
210
0.0
220
1.0
230
0.0
  0
LINE
  5
90D
100
AcDbEntity
  8
PILARESINT
100
AcDbLine
 10
9391.039237
 20
13808.635524
 30
30975.0
 11
9391.039237
 21
13808.635524
 31
30175.0
210
0.0
220
1.0
230
0.0
  0
INSERT
  5
90E
100
AcDbEntity
  8
CC
100
AcDbBlockReference
  2
P6
 10
8641.697541
 20
13367.534771
 30
29064.62836
  0
LINE
  5
90F
100
AcDbEntity
  8
PILARESINT
100
AcDbLine
 10
8641.697541
 20
13367.534771
 30
29064.62836
 11
8641.697541
 21
13367.534771
 31
29375.0
  0
LINE
  5
910
100
AcDbEntity
  8
PILARESINT
100
AcDbLine
 10
8641.697541
 20
13367.534771
 30
29575.0
 11
8641.697541
 21
13367.534771
 31
30175.0
210
0.0
220
1.0
230
0.0
  0
LINE
  5
911
100
AcDbEntity
  8
PILARESINT
100
AcDbLine
 10
8641.697541
 20
13367.534771
 30
30975.0
 11
8641.697541
 21
13367.534771
 31
30175.0
210
0.0
220
1.0
230
0.0
  0
INSERT
  5
912
100
AcDbEntity
  8
CC
100
AcDbBlockReference
  2
P6
 10
7888.541573
 20
12924.188744
 30
29019.672644
  0
LINE
  5
913
100
AcDbEntity
  8
PILARESINT
100
AcDbLine
 10
7888.541573
 20
12924.188744
 30
29019.672644
 11
7888.541573
 21
12924.188744
 31
29375.0
  0
LINE
  5
914
100
AcDbEntity
  8
PILARESINT
100
AcDbLine
 10
7888.541573
 20
12924.188744
 30
29575.0
 11
7888.541573
 21
12924.188744
 31
30175.0
210
0.0
220
1.0
230
0.0
  0
LINE
  5
915
100
AcDbEntity
  8
PILARESINT
100
AcDbLine
 10
7888.541573
 20
12924.188744
 30
30975.0
 11
7888.541573
 21
12924.188744
 31
30175.0
210
0.0
220
1.0
230
0.0
  0
INSERT
  5
916
100
AcDbEntity
  8
CC
100
AcDbBlockReference
  2
P6
 10
7137.651229
 20
12463.475258
 30
28975.0
  0
LINE
  5
917
100
AcDbEntity
  8
PILARESINT
100
AcDbLine
 10
7137.651229
 20
12463.475258
 30
28975.0
 11
7137.651229
 21
12463.475258
 31
29375.0
  0
LINE
  5
918
100
AcDbEntity
  8
PILARESINT
100
AcDbLine
 10
7137.651229
 20
12463.475258
 30
29575.0
 11
7137.651229
 21
12463.475258
 31
30175.0
210
0.0
220
1.0
230
0.0
  0
LINE
  5
919
100
AcDbEntity
  8
PILARESINT
100
AcDbLine
 10
7137.651229
 20
12463.475258
 30
30175.0
 11
7137.651229
 21
12463.475258
 31
30975.0
210
0.0
220
1.0
230
0.0
  0
LINE
  5
925
100
AcDbEntity
  8
VIGASNT
100
AcDbLine
 10
5590.397124
 20
11879.879941
 30
30175.0
 11
5645.142585
 21
11442.271135
 31
30175.0
  0
LINE
  5
926
100
AcDbEntity
  8
VIGASNT
100
AcDbLine
 10
6342.318475
 20
12332.368079
 30
30175.0
 11
6389.920206
 21
11951.862808
 31
30175.0
  0
LINE
  5
927
100
AcDbEntity
  8
VIGASNT
100
AcDbLine
 10
4838.475773
 20
11427.391802
 30
30175.0
 11
4900.364964
 21
10932.679462
 31
30175.0
  0
LINE
  5
928
100
AcDbEntity
  8
VIGASNT
100
AcDbLine
 10
5590.397124
 20
11879.879941
 30
29375.0
 11
5645.142585
 21
11442.271135
 31
29375.0
  0
LINE
  5
929
100
AcDbEntity
  8
VIGASNT
100
AcDbLine
 10
6342.318475
 20
12332.368079
 30
29375.0
 11
6389.920206
 21
11951.862808
 31
29375.0
  0
LINE
  5
92A
100
AcDbEntity
  8
VIGASNT
100
AcDbLine
 10
4838.475773
 20
11427.391802
 30
29375.0
 11
4900.364964
 21
10932.679462
 31
29375.0
  0
LINE
  5
92D
100
AcDbEntity
  8
VIGASINT
100
AcDbLine
 10
4900.364964
 20
10932.679462
 30
30175.0
 11
5645.142585
 21
11442.271135
 31
30175.0
  0
LINE
  5
92E
100
AcDbEntity
  8
VIGASINT
100
AcDbLine
 10
5645.142585
 20
11442.271135
 30
30175.0
 11
6389.920206
 21
11951.862808
 31
30175.0
  0
LINE
  5
92F
100
AcDbEntity
  8
VIGASINT
100
AcDbLine
 10
6389.920206
 20
11951.862808
 30
30175.0
 11
7137.651229
 21
12463.475258
 31
30175.0
  0
LINE
  5
930
100
AcDbEntity
  8
VIGASINT
100
AcDbLine
 10
4900.364964
 20
10932.679462
 30
29375.0
 11
5645.142585
 21
11442.271135
 31
29375.0
  0
LINE
  5
931
100
AcDbEntity
  8
VIGASINT
100
AcDbLine
 10
5645.142585
 20
11442.271135
 30
29375.0
 11
6389.920206
 21
11951.862808
 31
29375.0
  0
LINE
  5
932
100
AcDbEntity
  8
VIGASINT
100
AcDbLine
 10
6389.920206
 20
11951.862808
 30
29375.0
 11
7137.651229
 21
12463.475258
 31
29375.0
  0
INSERT
  5
933
100
AcDbEntity
  8
PILARESINT
100
AcDbBlockReference
  2
P7
 10
6389.920206
 20
11951.862808
 30
28975.0
  0
LINE
  5
934
100
AcDbEntity
  8
PILARESINT
100
AcDbLine
 10
6389.920206
 20
11951.862808
 30
28975.0
 11
6389.920206
 21
11951.862808
 31
29375.0
  0
LINE
  5
935
100
AcDbEntity
  8
PILARESINT
100
AcDbLine
 10
6389.920206
 20
11951.862808
 30
29575.0
 11
6389.920206
 21
11951.862808
 31
30175.0
210
0.0
220
1.0
230
0.0
  0
INSERT
  5
936
100
AcDbEntity
  8
PILARESINT
100
AcDbBlockReference
  2
P7
 10
5645.142585
 20
11442.271135
 30
28975.0
  0
LINE
  5
937
100
AcDbEntity
  8
PILARESINT
100
AcDbLine
 10
5645.142585
 20
11442.271135
 30
28975.0
 11
5645.142585
 21
11442.271135
 31
29375.0
  0
LINE
  5
938
100
AcDbEntity
  8
PILARESINT
100
AcDbLine
 10
5645.142585
 20
11442.271135
 30
29575.0
 11
5645.142585
 21
11442.271135
 31
30175.0
210
0.0
220
1.0
230
0.0
  0
INSERT
  5
939
100
AcDbEntity
  8
PILARESINT
100
AcDbBlockReference
  2
P7
 10
4900.364964
 20
10932.679462
 30
28926.010907
  0
LINE
  5
93A
100
AcDbEntity
  8
PILARESINT
100
AcDbLine
 10
4900.364964
 20
10932.679462
 30
28926.010907
 11
4900.364964
 21
10932.679462
 31
29375.0
  0
LINE
  5
93B
100
AcDbEntity
  8
PILARESINT
100
AcDbLine
 10
4900.364964
 20
10932.679462
 30
29575.0
 11
4900.364964
 21
10932.679462
 31
30175.0
210
0.0
220
1.0
230
0.0
  0
LINE
  5
93D
100
AcDbEntity
  8
VIGASINT
100
AcDbLine
 10
4900.364964
 20
10932.679462
 30
29575.0
 11
5645.142585
 21
11442.271135
 31
29575.0
210
0.0
220
1.0
230
0.0
  0
LINE
  5
93E
100
AcDbEntity
  8
VIGASINT
100
AcDbLine
 10
5645.142585
 20
11442.271135
 30
29575.0
 11
6389.920206
 21
11951.862808
 31
29575.0
210
0.0
220
1.0
230
0.0
  0
LINE
  5
93F
100
AcDbEntity
  8
VIGASINT
100
AcDbLine
 10
6389.920206
 20
11951.862808
 30
29575.0
 11
7137.651229
 21
12463.475258
 31
29575.0
210
0.0
220
1.0
230
0.0
  0
LINE
  5
940
100
AcDbEntity
  8
VIGASINT
100
AcDbLine
 10
7137.651229
 20
12463.475258
 30
29575.0
 11
7888.541573
 21
12924.188744
 31
29575.0
210
0.0
220
1.0
230
0.0
  0
LINE
  5
941
100
AcDbEntity
  8
VIGASINT
100
AcDbLine
 10
7888.541573
 20
12924.188744
 30
29575.0
 11
8641.697541
 21
13367.534771
 31
29575.0
210
0.0
220
1.0
230
0.0
  0
LINE
  5
942
100
AcDbEntity
  8
VIGASINT
100
AcDbLine
 10
8641.697541
 20
13367.534771
 30
29575.0
 11
9391.039237
 21
13808.635524
 31
29575.0
210
0.0
220
1.0
230
0.0
  0
LINE
  5
943
100
AcDbEntity
  8
PILARESINT
100
AcDbLine
 10
9391.039237
 20
13808.635524
 30
29575.0
 11
9391.039237
 21
13808.635524
 31
29375.0
210
0.0
220
1.0
230
0.0
  0
LINE
  5
944
100
AcDbEntity
  8
PILARESINT
100
AcDbLine
 10
8641.697541
 20
13367.534771
 30
29575.0
 11
8641.697541
 21
13367.534771
 31
29375.0
210
0.0
220
1.0
230
0.0
  0
LINE
  5
945
100
AcDbEntity
  8
PILARESINT
100
AcDbLine
 10
7888.541573
 20
12924.188744
 30
29575.0
 11
7888.541573
 21
12924.188744
 31
29375.0
210
0.0
220
1.0
230
0.0
  0
LINE
  5
946
100
AcDbEntity
  8
PILARESINT
100
AcDbLine
 10
7137.651229
 20
12463.475258
 30
29575.0
 11
7137.651229
 21
12463.475258
 31
29375.0
210
0.0
220
1.0
230
0.0
  0
LINE
  5
947
100
AcDbEntity
  8
PILARESINT
100
AcDbLine
 10
6389.920206
 20
11951.862808
 30
29575.0
 11
6389.920206
 21
11951.862808
 31
29375.0
210
0.0
220
1.0
230
0.0
  0
LINE
  5
948
100
AcDbEntity
  8
PILARESINT
100
AcDbLine
 10
5645.142585
 20
11442.271135
 30
29575.0
 11
5645.142585
 21
11442.271135
 31
29375.0
210
0.0
220
1.0
230
0.0
  0
LINE
  5
949
100
AcDbEntity
  8
PILARESINT
100
AcDbLine
 10
4900.364964
 20
10932.679462
 30
29575.0
 11
4900.364964
 21
10932.679462
 31
29375.0
210
0.0
220
1.0
230
0.0
  0
LINE
  5
955
100
AcDbEntity
  8
VIGASN2
100
AcDbLine
 10
6514.383567
 20
12435.912703
 30
29575.0
 11
6342.318475
 21
12332.368079
 31
29575.0
210
0.0
220
1.0
230
0.0
  0
LINE
  5
956
100
AcDbEntity
  8
VIGASN2
100
AcDbLine
 10
6342.318475
 20
12332.368079
 30
29575.0
 11
5590.397124
 21
11879.879941
 31
29575.0
210
0.0
220
1.0
230
0.0
  0
LINE
  5
957
100
AcDbEntity
  8
VIGASN2
100
AcDbLine
 10
5590.397124
 20
11879.879941
 30
29575.0
 11
4838.475773
 21
11427.391802
 31
29575.0
210
0.0
220
1.0
230
0.0
  0
LINE
  5
958
100
AcDbEntity
  8
VIGASN2
100
AcDbLine
 10
4838.475773
 20
11427.391802
 30
29575.0
 11
4413.292596
 21
11171.526152
 31
29575.0
210
0.0
220
1.0
230
0.0
  0
LINE
  5
959
100
AcDbEntity
  8
PILARESN2
100
AcDbLine
 10
4413.292596
 20
11171.526152
 30
29575.0
 11
4413.292596
 21
11171.526152
 31
29375.0
210
0.0
220
1.0
230
0.0
  0
LINE
  5
95A
100
AcDbEntity
  8
PILARESN2
100
AcDbLine
 10
4838.475773
 20
11427.391802
 30
29575.0
 11
4838.475773
 21
11427.391802
 31
29375.0
210
0.0
220
1.0
230
0.0
  0
LINE
  5
95B
100
AcDbEntity
  8
PILARESN2
100
AcDbLine
 10
5590.397124
 20
11879.879941
 30
29575.0
 11
5590.397124
 21
11879.879941
 31
29375.0
210
0.0
220
1.0
230
0.0
  0
LINE
  5
95C
100
AcDbEntity
  8
PILARESN2
100
AcDbLine
 10
6342.318475
 20
12332.368079
 30
29575.0
 11
6342.318475
 21
12332.368079
 31
29375.0
210
0.0
220
1.0
230
0.0
  0
LINE
  5
95D
100
AcDbEntity
  8
PILARESN2
100
AcDbLine
 10
6514.383567
 20
12435.912703
 30
29575.0
 11
6514.383567
 21
12435.912703
 31
29375.0
210
0.0
220
1.0
230
0.0
  0
LINE
  5
95E
100
AcDbEntity
  8
VIGASNT
100
AcDbLine
 10
6342.318475
 20
12332.368079
 30
29575.0
 11
6389.920206
 21
11951.862808
 31
29575.0
  0
LINE
  5
95F
100
AcDbEntity
  8
VIGASNT
100
AcDbLine
 10
5590.397124
 20
11879.879941
 30
29575.0
 11
5645.142585
 21
11442.271135
 31
29575.0
  0
LINE
  5
960
100
AcDbEntity
  8
VIGASNT
100
AcDbLine
 10
4838.475773
 20
11427.391802
 30
29575.0
 11
4900.364965
 21
10932.679462
 31
29575.0
  0
LINE
  5
966
100
AcDbEntity
  8
VIGASNT
100
AcDbLine
 10
4589.138168
 20
10719.731893
 30
29375.0
 11
4413.292596
 21
11171.526152
 31
29375.0
210
0.0
220
1.0
230
0.0
  0
LINE
  5
967
100
AcDbEntity
  8
VIGASINT
100
AcDbLine
 10
4589.138168
 20
10719.731893
 30
29375.0
 11
4900.364964
 21
10932.679462
 31
29375.0
  0
LINE
  5
968
100
AcDbEntity
  8
VIGASNT
100
AcDbLine
 10
4589.138168
 20
10719.731893
 30
29575.0
 11
4413.292596
 21
11171.526152
 31
29575.0
210
0.0
220
1.0
230
0.0
  0
LINE
  5
969
100
AcDbEntity
  8
VIGASINT
100
AcDbLine
 10
4589.138168
 20
10719.731893
 30
29575.0
 11
4900.364965
 21
10932.679462
 31
29575.0
  0
INSERT
  5
96A
100
AcDbEntity
  8
PILARESINT
100
AcDbBlockReference
  2
P8
 10
4589.138168
 20
10719.731893
 30
28898.309422
  0
LINE
  5
96B
100
AcDbEntity
  8
PILARESINT
100
AcDbLine
 10
4589.138168
 20
10719.731893
 30
28898.309422
 11
4589.138168
 21
10719.731893
 31
29375.0
  0
LINE
  5
96C
100
AcDbEntity
  8
PILARESINT
100
AcDbLine
 10
4589.138168
 20
10719.731893
 30
29575.0
 11
4589.138168
 21
10719.731893
 31
29375.0
210
0.0
220
1.0
230
0.0
  0
LINE
  5
976
100
AcDbEntity
  8
PILARESS
100
AcDbLine
 10
4326.109955
 20
2334.58018
 30
28465.0
 11
4326.19169
 21
2334.691995
 31
29672.366214
  0
LINE
  5
977
100
AcDbEntity
  8
PILARESS
100
AcDbLine
 10
5009.219057
 20
3368.888549
 30
28465.009336
 11
5009.30125
 21
3369.00099
 31
29679.132723
  0
LINE
  5
978
100
AcDbEntity
  8
PILARESS
100
AcDbLine
 10
5683.459273
 20
4481.16969
 30
28479.204401
 11
5683.533204
 21
4481.270829
 31
29571.2876
  0
LINE
  5
979
100
AcDbEntity
  8
PILARESS
100
AcDbLine
 10
6361.495797
 20
5542.718838
 30
28465.0
 11
6361.568213
 21
5542.817905
 31
29534.712731
  0
LINE
  5
97B
100
AcDbEntity
  8
PILARESS
100
AcDbLine
 10
7078.651805
 20
6272.746813
 30
28464.9963
 11
7078.651805
 21
6272.746813
 31
29531.609989
  0
LINE
  5
97C
100
AcDbEntity
  8
PILARESS
100
AcDbLine
 10
7816.842081
 20
6826.912925
 30
28461.487922
 11
7816.917527
 21
6827.016136
 31
29575.950961
  0
LINE
  5
97D
100
AcDbEntity
  8
PILARESS
100
AcDbLine
 10
8558.795319
 20
7338.193405
 30
28464.75212
 11
8558.875475
 21
7338.30306
 31
29648.788022
  0
LINE
  5
97E
100
AcDbEntity
  8
PILARESS
100
AcDbLine
 10
9333.247764
 20
7684.858902
 30
28464.991549
 11
9333.333333
 21
7684.975963
 31
29729.0
  0
LINE
  5
97F
100
AcDbEntity
  8
PILARESS
100
AcDbLine
 10
9612.853128
 20
7776.540215
 30
28460.74639
 11
9612.853127
 21
7776.540214
 31
29759.238898
  0
LINE
  5
994
100
AcDbEntity
  8
PILARESE1
100
AcDbLine
 10
9626.409932
 20
8615.879468
 30
28867.0
 11
9797.475606
 21
8615.969313
 31
29837.124094
  0
LINE
  5
997
100
AcDbEntity
  8
PILARESE1
100
AcDbLine
 10
9616.444111
 20
8778.361657
 30
28867.0
 11
9787.51055
 21
8778.452547
 31
29848.424465
  0
LINE
  5
998
100
AcDbEntity
  8
PILARESE1
100
AcDbLine
 10
9528.432064
 20
10214.888777
 30
28867.0
 11
9699.505363
 21
10214.989052
 31
29949.754977
  0
LINE
  5
999
100
AcDbEntity
  8
PILARESE1
100
AcDbLine
 10
9518.957405
 20
10369.88157
 30
28867.0
 11
9690.031456
 21
10369.982874
 31
29960.865349
  0
LINE
  5
99A
100
AcDbEntity
  8
PILARESE1
100
AcDbLine
 10
9641.059843
 20
8377.406754
 30
28867.0
 11
9812.124398
 21
8377.495066
 31
29820.574947
  0
LINE
  5
99B
100
AcDbEntity
  8
PILARESE1
100
AcDbLine
 10
9670.538975
 20
7897.503468
 30
28867.0
 11
9841.601289
 21
7897.588714
 31
29787.478086
  0
LINE
  5
99D
100
AcDbEntity
  8
PILARESE1
100
AcDbLine
 10
9578.492973
 20
9397.271636
 30
28885.507492
 11
9749.561109
 21
9397.364848
 31
29892.0
  0
LINE
  5
9A0
100
AcDbEntity
  8
PILARESE1
100
AcDbLine
 10
9651.623871
 20
8205.268863
 30
28866.895737
 11
9822.687627
 21
8205.356082
 31
29808.677619
  0
LINE
  5
9B0
100
AcDbEntity
  8
PILARESSE1
100
AcDbLine
 10
9701.351126
 20
10747.457224
 30
29000.0
 11
9701.417973
 21
10747.548671
 31
29987.435413
  0
LINE
  5
9B3
100
AcDbEntity
  8
PILARESSE1
100
AcDbLine
 10
10139.437163
 20
10997.2765
 30
29000.032601
 11
10139.501744
 21
10997.364848
 31
29954.0
  0
LINE
  5
9B4
100
AcDbEntity
  8
PILARESSE1
100
AcDbLine
 10
10537.747223
 20
11223.985715
 30
29000.0
 11
10537.808989
 21
11224.070212
 31
29912.386413
  0
LINE
  5
9B5
100
AcDbEntity
  8
PILARESSE1
100
AcDbLine
 10
10638.108716
 20
11281.017666
 30
29000.0
 11
10638.169653
 21
11281.101029
 31
29900.139814
  0
LINE
  5
9B6
100
AcDbEntity
  8
PILARESSE1
100
AcDbLine
 10
10869.790293
 20
11412.451387
 30
29000.0
 11
10869.848735
 21
11412.531337
 31
29863.278831
  0
LINE
  5
9B7
100
AcDbEntity
  8
PILARESSE1
100
AcDbLine
 10
10040.63777
 20
10940.96764
 30
29000.0
 11
10040.702999
 21
10941.056874
 31
29963.532455
  0
LINE
  5
9CE
100
AcDbEntity
  8
PILARESE2
100
AcDbLine
 10
10800.727891
 20
11567.729251
 30
29075.0
 11
10971.780282
 21
11567.800924
 31
29848.909192
  0
LINE
  5
9CF
100
AcDbEntity
  8
PILARESE2
100
AcDbLine
 10
10793.23035
 20
11743.109089
 30
29075.0
 11
10964.283377
 21
11743.181631
 31
29858.299064
  0
LINE
  5
9D0
100
AcDbEntity
  8
PILARESE2
100
AcDbLine
 10
10783.127346
 20
11979.405777
 30
29075.0
 11
10954.181228
 21
11979.479489
 31
29870.93211
  0
LINE
  5
9D1
100
AcDbEntity
  8
PILARESE2
100
AcDbLine
 10
10748.856699
 20
12780.77798
 30
29075.0
 11
10919.913474
 21
12780.85565
 31
29913.665421
  0
LINE
  5
9D2
100
AcDbEntity
  8
PILARESE2
100
AcDbLine
 10
10714.142642
 20
13590.987441
 30
29074.990671
 11
10885.202243
 21
13591.068977
 31
29955.4014
  0
LINE
  5
9EB
100
AcDbEntity
  8
PILARESSE2
100
AcDbLine
 10
10960.652798
 20
14170.696738
 30
29075.605508
 11
10960.704837
 21
14170.767929
 31
29844.318
  0
LINE
  5
9EC
100
AcDbEntity
  8
PILARESSE2
100
AcDbLine
 10
11741.549414
 20
14407.573755
 30
29073.057221
 11
11741.558859
 21
14407.586677
 31
29212.584407
  0
INSERT
  5
9F1
100
AcDbEntity
  8
CC
100
AcDbBlockReference
  2
P5
 10
10960.652798
 20
14170.696738
 30
29075.605508
  0
LINE
  5
A02
100
AcDbEntity
  8
AUX1-VOLADIZOSUR
100
AcDbLine
 10
7203.747942
 20
6150.291056
 30
28000.0
 11
7203.747942
 21
6150.291056
 31
29532.391881
  0
LINE
  5
A03
100
AcDbEntity
  8
AUX1-VOLADIZOSUR
100
AcDbLine
 10
7353.016602
 20
6284.584835
 30
28000.0
 11
7353.016602
 21
6284.584835
 31
29538.288833
  0
LINE
  5
A04
100
AcDbEntity
  8
AUX1-VOLADIZOSUR
100
AcDbLine
 10
7502.647792
 20
6418.395738
 30
28000.0
 11
7502.647792
 21
6418.395738
 31
29547.245037
  0
LINE
  5
A05
100
AcDbEntity
  8
AUX1-VOLADIZOSUR
100
AcDbLine
 10
7652.278982
 20
6552.206641
 30
28000.0
 11
7652.278982
 21
6552.206641
 31
29558.804723
  0
LINE
  5
A06
100
AcDbEntity
  8
AUX1-VOLADIZOSUR
100
AcDbLine
 10
7805.325519
 20
6681.468431
 30
28000.0
 11
7805.325519
 21
6681.468431
 31
29570.364408
  0
LINE
  5
A07
100
AcDbEntity
  8
AUX1-VOLADIZOSUR
100
AcDbLine
 10
7968.536973
 20
6797.190936
 30
28000.0
 11
7968.536973
 21
6797.190936
 31
29583.41667
  0
LINE
  5
A08
100
AcDbEntity
  8
AUX1-VOLADIZOSUR
100
AcDbLine
 10
8131.748427
 20
6912.913442
 30
28000.0
 11
8131.748427
 21
6912.913442
 31
29598.798286
  0
LINE
  5
A09
100
AcDbEntity
  8
AUX1-VOLADIZOSUR
100
AcDbLine
 10
8294.959881
 20
7028.635947
 30
28000.0
 11
8294.959881
 21
7028.635947
 31
29615.545934
  0
LINE
  5
A0A
100
AcDbEntity
  8
AUX1-VOLADIZOSUR
100
AcDbLine
 10
8458.171335
 20
7144.358452
 30
28000.0
 11
8458.171335
 21
7144.358452
 31
29632.293581
  0
LINE
  5
A0B
100
AcDbEntity
  8
AUX1-VOLADIZOSUR
100
AcDbLine
 10
8633.235367
 20
7244.293774
 30
28000.0
 11
8633.235367
 21
7244.293774
 31
29649.029688
  0
LINE
  5
A0C
100
AcDbEntity
  8
AUX1-VOLADIZOSUR
100
AcDbLine
 10
8779.7591
 20
7327.439728
 30
28000.0
 11
8779.7591
 21
7327.439728
 31
29666.233118
  0
LINE
  5
A0D
100
AcDbEntity
  8
AUX1-VOLADIZOSUR
100
AcDbLine
 10
8965.543926
 20
7429.677282
 30
28000.0
 11
8965.543926
 21
7429.677282
 31
29686.66846
  0
LINE
  5
A0E
100
AcDbEntity
  8
AUX1-VOLADIZOSUR
100
AcDbLine
 10
9139.58854
 20
7506.534231
 30
28000.0
 11
9139.58854
 21
7506.534231
 31
29705.15758
  0
LINE
  5
A0F
100
AcDbEntity
  8
AUX1-VOLADIZOSUR
100
AcDbLine
 10
9328.299932
 20
7572.967246
 30
28000.0
 11
9328.299932
 21
7572.967246
 31
29724.61981
  0
LINE
  5
A10
100
AcDbEntity
  8
AUX1-VOLADIZOSUR
100
AcDbLine
 10
9517.34205
 20
7638.531244
 30
28000.0
 11
9517.34205
 21
7638.531244
 31
29744.999602
  0
LINE
  5
A11
100
AcDbEntity
  8
AUX1-VOLADIZOSUR
100
AcDbLine
 10
9711.282866
 20
7705.794218
 30
28000.0
 11
9711.282866
 21
7705.794218
 31
29766.0
  0
LINE
  5
A12
100
AcDbEntity
  8
AUX1-VOLADIZOSUR
100
AcDbLine
 10
9878.006116
 20
7763.617538
 30
28000.0
 11
9878.006116
 21
7763.617538
 31
29784.517147
  0
LINE
  5
A13
100
AcDbEntity
  8
AUX1-VOLADIZOSUR
100
AcDbLine
 10
7000.385678
 20
6032.65472
 30
28000.0
 11
7000.385678
 21
6032.65472
 31
29524.750052
  0
LINE
  5
A14
100
AcDbEntity
  8
AUX1-VOLADIZOSUR
100
AcDbLine
 10
6871.173319
 20
5880.130419
 30
28000.0
 11
6871.173319
 21
5880.130419
 31
29516.506358
  0
LINE
  5
A15
100
AcDbEntity
  8
AUX1-VOLADIZOSUR
100
AcDbLine
 10
6741.876338
 20
5727.506229
 30
28000.0
 11
6741.876338
 21
5727.506229
 31
29514.353205
  0
LINE
  5
A16
100
AcDbEntity
  8
AUX1-VOLADIZOSUR
100
AcDbLine
 10
6612.579356
 20
5574.882038
 30
28000.0
 11
6612.579356
 21
5574.882038
 31
29524.803955
  0
LINE
  5
A17
100
AcDbEntity
  8
AUX1-VOLADIZOSUR
100
AcDbLine
 10
6488.927667
 20
5431.096251
 30
28000.0
 11
6488.927667
 21
5431.096251
 31
29534.712734
  0
LINE
  5
A18
100
AcDbEntity
  8
AUX1-VOLADIZOSUR
100
AcDbLine
 10
6266.682612
 20
5172.663224
 30
28000.0
 11
6266.682612
 21
5172.663224
 31
29534.769277
  0
LINE
  5
A19
100
AcDbEntity
  8
AUX1-VOLADIZOSUR
100
AcDbLine
 10
6255.105285
 20
5046.352542
 30
28000.0
 11
6255.105285
 21
5046.352542
 31
29534.917678
  0
LINE
  5
A1A
100
AcDbEntity
  8
AUX1-VOLADIZOSUR
100
AcDbLine
 10
6141.315672
 20
4875.974784
 30
28000.0
 11
6141.315672
 21
4875.974784
 31
29535.272591
  0
LINE
  5
A1B
100
AcDbEntity
  8
AUX1-VOLADIZOSUR
100
AcDbLine
 10
6030.147931
 20
4709.522765
 30
28000.0
 11
6030.147931
 21
4709.522765
 31
29539.716335
  0
LINE
  5
A1C
100
AcDbEntity
  8
AUX1-VOLADIZOSUR
100
AcDbLine
 10
5918.980189
 20
4543.070747
 30
28000.0
 11
5918.980189
 21
4543.070747
 31
29544.160082
  0
LINE
  5
A1D
100
AcDbEntity
  8
AUX1-VOLADIZOSUR
100
AcDbLine
 10
5807.812447
 20
4376.618729
 30
28000.0
 11
5807.812447
 21
4376.618729
 31
29573.740465
  0
LINE
  5
A1E
100
AcDbEntity
  8
AUX1-VOLADIZOSUR
100
AcDbLine
 10
5704.254941
 20
4205.514587
 30
28000.0
 11
5704.254941
 21
4205.514587
 31
29593.786497
  0
LINE
  5
A1F
100
AcDbEntity
  8
AUX1-VOLADIZOSUR
100
AcDbLine
 10
5601.133704
 20
4034.143754
 30
28000.0
 11
5601.133704
 21
4034.143754
 31
29613.832542
  0
LINE
  5
A20
100
AcDbEntity
  8
AUX1-VOLADIZOSUR
100
AcDbLine
 10
5498.012467
 20
3862.772921
 30
28000.0
 11
5498.012467
 21
3862.772921
 31
29633.878584
  0
LINE
  5
A21
100
AcDbEntity
  8
AUX1-VOLADIZOSUR
100
AcDbLine
 10
5394.89123
 20
3691.402088
 30
28000.0
 11
5394.89123
 21
3691.402088
 31
29648.56009
  0
LINE
  5
A22
100
AcDbEntity
  8
AUX1-VOLADIZOSUR
100
AcDbLine
 10
5291.769993
 20
3520.031255
 30
28000.0
 11
5291.769993
 21
3520.031255
 31
29661.400744
  0
LINE
  5
A23
100
AcDbEntity
  8
AUX1-VOLADIZOSUR
100
AcDbLine
 10
5175.867245
 20
3356.942555
 30
28000.0
 11
5175.867245
 21
3356.942555
 31
29674.215719
  0
LINE
  5
A24
100
AcDbEntity
  8
AUX1-VOLADIZOSUR
100
AcDbLine
 10
5047.337526
 20
3185.572318
 30
28000.0
 11
5047.337526
 21
3185.572318
 31
29694.4635
  0
LINE
  5
A25
100
AcDbEntity
  8
AUX1-VOLADIZOSUR
100
AcDbLine
 10
4927.145251
 20
3025.318496
 30
28000.0
 11
4927.145251
 21
3025.318496
 31
29717.755002
  0
LINE
  5
A26
100
AcDbEntity
  8
AUX1-VOLADIZOSUR
100
AcDbLine
 10
4806.952975
 20
2865.064675
 30
28000.0
 11
4806.952975
 21
2865.064675
 31
29720.2373
  0
LINE
  5
A27
100
AcDbEntity
  8
AUX1-VOLADIZOSUR
100
AcDbLine
 10
4686.7607
 20
2704.810853
 30
28000.0
 11
4686.7607
 21
2704.810853
 31
29702.481516
  0
LINE
  5
A28
100
AcDbEntity
  8
AUX1-VOLADIZOSUR
100
AcDbLine
 10
4561.793471
 20
2547.734231
 30
28000.0
 11
4561.793471
 21
2547.734231
 31
29690.622002
  0
LINE
  5
A29
100
AcDbEntity
  8
AUX1-VOLADIZOSUR
100
AcDbLine
 10
4426.931588
 20
2397.241398
 30
28000.0
 11
4426.931588
 21
2397.241398
 31
29678.762487
  0
LINE
  5
A2A
100
AcDbEntity
  8
AUX1-VOLADIZOSUR
100
AcDbLine
 10
4308.794445
 20
2235.620116
 30
28000.0
 11
4308.794445
 21
2235.620116
 31
29645.840635
  0
LINE
  5
A2B
100
AcDbEntity
  8
AUX1-VOLADIZOSUR
100
AcDbLine
 10
4183.491916
 20
2079.247055
 30
28000.0
 11
4183.491916
 21
2079.247055
 31
29588.357134
  0
LINE
  5
A2C
100
AcDbEntity
  8
AUX1-VOLADIZOSUR
100
AcDbLine
 10
4052.980474
 20
1916.367605
 30
28000.0
 11
4052.980474
 21
1916.367605
 31
29530.592777
  0
LINE
  5
A2D
100
AcDbEntity
  8
AUX1-VOLADIZOSUR
100
AcDbLine
 10
3923.60216
 20
1763.80119
 30
28000.0
 11
3923.60216
 21
1763.80119
 31
29469.583879
  0
LINE
  5
A2E
100
AcDbEntity
  8
AUX1-VOLADIZOSUR
100
AcDbLine
 10
3789.861286
 20
1615.083232
 30
28000.0
 11
3789.861286
 21
1615.083232
 31
29408.17936
  0
LINE
  5
A2F
100
AcDbEntity
  8
AUX1-VOLADIZOSUR
100
AcDbLine
 10
3656.120411
 20
1466.365274
 30
28000.0
 11
3656.120411
 21
1466.365274
 31
29346.774841
  0
LINE
  5
A30
100
AcDbEntity
  8
AUX1-VOLADIZOSUR
100
AcDbLine
 10
3522.379537
 20
1317.647316
 30
28000.0
 11
3522.379537
 21
1317.647316
 31
29287.960514
  0
LINE
  5
A31
100
AcDbEntity
  8
AUX1-VOLADIZOSUR
100
AcDbLine
 10
3388.634461
 20
1168.933065
 30
28000.0
 11
3388.634461
 21
1168.933065
 31
29235.577686
  0
LINE
  5
A32
100
AcDbEntity
  8
AUX1-VOLADIZOSUR
100
AcDbLine
 10
3249.858312
 20
1024.657004
 30
28000.0
 11
3249.858312
 21
1024.657004
 31
29179.164324
  0
LINE
  5
A33
100
AcDbEntity
  8
AUX1-VOLADIZOSUR
100
AcDbLine
 10
3111.082163
 20
880.380943
 30
28000.0
 11
3111.082163
 21
880.380943
 31
29122.27065
  0
LINE
  5
A34
100
AcDbEntity
  8
AUX1-VOLADIZOSUR
100
AcDbLine
 10
2972.306014
 20
736.104882
 30
28000.0
 11
2972.306014
 21
736.104882
 31
29065.376977
  0
LINE
  5
A35
100
AcDbEntity
  8
AUX1-VOLADIZOSUR
100
AcDbLine
 10
2859.563072
 20
657.908538
 30
28000.0
 11
2859.563072
 21
657.908538
 31
29027.478932
  0
LINE
  5
A3F
100
AcDbEntity
  8
ALIN4
100
AcDbLine
 10
6612.579356
 20
5574.882038
 30
29524.803955
 11
6488.927667
 21
5431.096251
 31
29534.712734
210
0.0
220
-1.0
230
0.0
  0
LINE
  5
A40
100
AcDbEntity
  8
ALIN4
100
AcDbLine
 10
6488.927667
 20
5431.096251
 30
29534.712734
 11
6266.682612
 21
5172.663224
 31
29534.769277
210
0.0
220
-1.0
230
0.0
  0
LINE
  5
A41
100
AcDbEntity
  8
ALIN4
100
AcDbLine
 10
6741.876338
 20
5727.506229
 30
29514.353205
 11
6871.173319
 21
5880.130419
 31
29516.506358
210
0.0
220
-1.0
230
0.0
  0
LINE
  5
A42
100
AcDbEntity
  8
ALIN4
100
AcDbLine
 10
6871.173319
 20
5880.130419
 30
29516.506358
 11
7000.385678
 21
6032.65472
 31
29524.750052
210
0.0
220
-1.0
230
0.0
  0
LINE
  5
A44
100
AcDbEntity
  8
0
100
AcDbLine
 10
11638.567155
 20
15252.587529
 30
28000.0
 11
11638.567155
 21
15252.587529
 31
29491.198009
210
0.0
220
-1.0
230
0.0
  0
LINE
  5
A45
100
AcDbEntity
  8
0
100
AcDbLine
 10
11267.372408
 20
15116.519778
 30
28000.0
 11
11267.372408
 21
15116.519778
 31
30076.783144
210
0.0
220
-1.0
230
0.0
  0
LINE
  5
A46
100
AcDbEntity
  8
0
100
AcDbLine
 10
11079.12873
 20
15047.53865
 30
28000.0
 11
11079.12873
 21
15047.53865
 31
30578.444784
210
0.0
220
-1.0
230
0.0
  0
LINE
  5
A47
100
AcDbEntity
  8
0
100
AcDbLine
 10
10865.165318
 20
14969.132453
 30
28000.0
 11
10865.165318
 21
14969.132453
 31
31148.643673
210
0.0
220
-1.0
230
0.0
  0
LINE
  5
A48
100
AcDbEntity
  8
0
100
AcDbLine
 10
10708.20367
 20
14897.147376
 30
28000.0
 11
10708.20367
 21
14897.147376
 31
31348.983707
210
0.0
220
-1.0
230
0.0
  0
LINE
  5
A49
100
AcDbEntity
  8
0
100
AcDbLine
 10
10526.40244
 20
14813.770523
 30
28000.0
 11
10526.40244
 21
14813.770523
 31
31490.347051
210
0.0
220
-1.0
230
0.0
  0
LINE
  5
A4A
100
AcDbEntity
  8
0
100
AcDbLine
 10
10344.601209
 20
14730.393671
 30
28000.0
 11
10344.601209
 21
14730.393671
 31
31604.856665
210
0.0
220
-1.0
230
0.0
  0
LINE
  5
A4B
100
AcDbEntity
  8
0
100
AcDbLine
 10
10162.799977
 20
14647.016822
 30
28000.0
 11
10162.799977
 21
14647.016822
 31
31719.36628
210
0.0
220
-1.0
230
0.0
  0
LINE
  5
A4C
100
AcDbEntity
  8
0
100
AcDbLine
 10
10000.0
 20
14572.793139
 30
28000.0
 11
10000.0
 21
14572.793139
 31
31784.0
210
0.0
220
-1.0
230
0.0
  0
LINE
  5
A4D
100
AcDbEntity
  8
0
100
AcDbLine
 10
9798.710428
 20
14481.351523
 30
28000.0
 11
9798.710428
 21
14481.351523
 31
31774.338101
210
0.0
220
-1.0
230
0.0
  0
LINE
  5
A4E
100
AcDbEntity
  8
0
100
AcDbLine
 10
9616.615988
 20
14398.62985
 30
28000.0
 11
9616.615988
 21
14398.62985
 31
31765.597567
210
0.0
220
-1.0
230
0.0
  0
LINE
  5
A4F
100
AcDbEntity
  8
0
100
AcDbLine
 10
9434.521548
 20
14315.908178
 30
28000.0
 11
9434.521548
 21
14315.908178
 31
31756.857034
210
0.0
220
-1.0
230
0.0
  0
LINE
  5
A50
100
AcDbEntity
  8
0
100
AcDbLine
 10
9252.739229
 20
14232.489068
 30
28000.0
 11
9252.739229
 21
14232.489068
 31
31734.462095
210
0.0
220
-1.0
230
0.0
  0
LINE
  5
A51
100
AcDbEntity
  8
0
100
AcDbLine
 10
9071.320738
 20
14148.256979
 30
28000.0
 11
9071.320738
 21
14148.256979
 31
31691.476219
210
0.0
220
-1.0
230
0.0
  0
LINE
  5
A52
100
AcDbEntity
  8
0
100
AcDbLine
 10
8889.902248
 20
14064.02489
 30
28000.0
 11
8889.902248
 21
14064.02489
 31
31645.981403
210
0.0
220
-1.0
230
0.0
  0
LINE
  5
A53
100
AcDbEntity
  8
0
100
AcDbLine
 10
8708.483757
 20
13979.792802
 30
28000.0
 11
8708.483757
 21
13979.792802
 31
31600.486587
210
0.0
220
-1.0
230
0.0
  0
LINE
  5
A54
100
AcDbEntity
  8
0
100
AcDbLine
 10
8000.0
 20
13640.635261
 30
28000.0
 11
8000.0
 21
13640.635261
 31
31392.0
210
0.0
220
-1.0
230
0.0
  0
LINE
  5
A55
100
AcDbEntity
  8
0
100
AcDbLine
 10
8434.216721
 20
13874.983783
 30
28000.0
 11
8434.216721
 21
13874.983783
 31
31520.549413
210
0.0
220
-1.0
230
0.0
  0
LINE
  5
A5E
100
AcDbEntity
  8
ALIN1
 62
     3
100
AcDbLine
 10
5757.450597
 20
4596.999201
 30
29545.082795
 11
5757.684141
 21
4597.364848
 31
29545.0
  0
TEXT
  5
A5F
100
AcDbEntity
  8
ALIN1
100
AcDbText
 10
5758.344734
 20
4596.985675
 30
0.0
 40
10.5
  1
esta linea verde se introdujo para simular un error del modelo 2d
  7
ROMANS
100
AcDbText
  0
LINE
  5
A67
100
AcDbEntity
  8
ALIN1
100
AcDbLine
 10
9671.498969
 20
7795.748634
 30
29765.475266
 11
9676.433483
 21
7797.364848
 31
29766.0
  0
LINE
  5
A6B
100
AcDbEntity
  8
ALIN2
100
AcDbLine
 10
3929.364245
 20
11405.711076
 30
30261.663867
 11
4000.0
 21
11445.967402
 31
30281.0
  0
LINE
  5
A6C
100
AcDbEntity
  8
ALIN2
100
AcDbLine
 10
4000.0
 20
11445.967402
 30
30281.0
 11
4183.369128
 21
11550.477386
 31
30330.544759
  0
LINE
  5
A75
100
AcDbEntity
  8
ALIN2
100
AcDbLine
 10
7992.885668
 20
13637.205375
 30
31389.913823
 11
8000.0
 21
13640.635261
 31
31392.0
  0
LINE
  5
ACD
100
AcDbEntity
  8
0
100
AcDbLine
 10
3333.0
 20
11065.0
 30
0.0
 11
-1440.064962
 21
14549.499055
 31
0.0
  0
INSERT
  5
AD5
100
AcDbEntity
  8
PILARESINT
100
AcDbBlockReference
  2
APOYO295
 10
9391.039237
 20
13808.635524
 30
29575.0
  0
INSERT
  5
AD6
100
AcDbEntity
  8
PILARESINT
100
AcDbBlockReference
  2
APOYO295
 10
8641.697541
 20
13367.534771
 30
29575.0
  0
INSERT
  5
AD7
100
AcDbEntity
  8
PILARESINT
100
AcDbBlockReference
  2
APOYO295
 10
7888.541573
 20
12924.188744
 30
29575.0
  0
INSERT
  5
AD8
100
AcDbEntity
  8
PILARESINT
100
AcDbBlockReference
  2
APOYO295
 10
7137.651229
 20
12463.475258
 30
29575.0
  0
INSERT
  5
ADB
100
AcDbEntity
  8
PILARESP
100
AcDbBlockReference
  2
APOYO
 10
3333.333333
 20
9397.364848
 30
28575.0
  0
LINE
  5
AE3
100
AcDbEntity
  8
MUROOESTE
100
AcDbLine
 10
-1510.634611
 20
7797.364848
 30
28841.0
 11
-1333.333333
 21
6882.197976
 31
28794.0
  0
LINE
  5
AE4
100
AcDbEntity
  8
MUROOESTE
100
AcDbLine
 10
-1333.333333
 20
6882.197976
 30
28794.0
 11
-1200.656122
 21
6197.364848
 31
28759.0
  0
LINE
  5
AE5
100
AcDbEntity
  8
MUROOESTE
100
AcDbLine
 10
-1200.656122
 20
6197.364848
 30
28759.0
 11
-890.677632
 21
4597.364848
 31
28677.0
  0
LINE
  5
AE6
100
AcDbEntity
  8
MUROOESTE
100
AcDbLine
 10
-890.677632
 20
4597.364848
 30
28677.0
 11
-666.666667
 21
3441.098988
 31
28618.0
  0
LINE
  5
AE7
100
AcDbEntity
  8
MUROOESTE
100
AcDbLine
 10
-666.666667
 20
3441.098988
 30
28618.0
 11
-580.699143
 21
2997.364848
 31
28595.0
  0
LINE
  5
AE8
100
AcDbEntity
  8
MUROOESTE
100
AcDbLine
 10
-580.699143
 20
2997.364848
 30
28595.0
 11
-270.720653
 21
1397.364848
 31
28511.0
  0
LINE
  5
AEA
100
AcDbEntity
  8
MUROOESTE
100
AcDbLine
 10
-666.666667
 20
7924.599615
 30
29009.0
 11
0.0
 21
8378.239204
 31
29175.0
  0
LINE
  5
AEC
100
AcDbEntity
  8
MUROOESTE
100
AcDbLine
 10
540.513203
 20
9397.364848
 30
29370.0
 11
584.238319
 21
8775.789651
 31
29320.475341
  0
LINE
  5
AEE
100
AcDbEntity
  8
MUROOESTE
100
AcDbLine
 10
-1519.383095
 20
7842.521445
 30
28843.319096
 11
-1333.333333
 21
7969.120751
 31
28889.0
  0
LINE
  5
AF0
100
AcDbEntity
  8
MUROOESTE
100
AcDbLine
 10
-1333.333333
 20
7969.120751
 30
28889.0
 11
-734.999583
 21
7878.101841
 31
28991.985104
  0
LINE
  5
AF2
100
AcDbEntity
  8
MUROOESTE
100
AcDbLine
 10
-1510.634611
 20
7797.364848
 30
28841.0
 11
-1519.383095
 21
7842.521445
 31
28843.319096
  0
LINE
  5
AF3
100
AcDbEntity
  8
MUROOESTE
100
AcDbLine
 10
-734.999583
 20
7878.101841
 30
28991.985104
 11
-666.666667
 21
7924.599615
 31
29009.0
  0
LINE
  5
AF4
100
AcDbEntity
  8
MUROOESTE
100
AcDbLine
 10
0.0
 20
8378.239204
 30
29175.0
 11
584.238319
 21
8775.789651
 31
29320.475341
  0
LINE
  5
AF5
100
AcDbEntity
  8
MUROOESTE
100
AcDbLine
 10
2859.563072
 20
657.908538
 30
29027.478932
 11
2666.666667
 21
1192.345183
 31
29068.0
  0
LINE
  5
AF6
100
AcDbEntity
  8
MUROOESTE
100
AcDbLine
 10
2666.666667
 20
1192.345183
 30
29068.0
 11
2592.66808
 21
1397.364848
 31
29071.0
  0
LINE
  5
AF8
100
AcDbEntity
  8
MUROOESTE
100
AcDbLine
 10
1333.333333
 20
1360.082648
 30
28813.0
 11
1438.424358
 21
1397.364848
 31
28837.0
  0
LINE
  5
AF9
100
AcDbEntity
  8
MUROOESTE
100
AcDbLine
 10
2000.0
 20
1596.590003
 30
28966.0
 11
2461.64893
 21
1760.365055
 31
29072.045753
  0
LINE
  5
AFA
100
AcDbEntity
  8
MUROOESTE
100
AcDbLine
 10
2461.64893
 20
1760.365055
 30
29072.045753
 11
2592.66808
 21
1397.364848
 31
29071.0
  0
LINE
  5
AFB
100
AcDbEntity
  8
MUROOESTE
100
AcDbLine
 10
2000.0
 20
1596.590003
 30
28966.0
 11
1438.424358
 21
1397.364848
 31
28837.0
  0
LINE
  5
B02
100
AcDbEntity
  8
MUROOESTE
100
AcDbLine
 10
0.0
 20
0.0
 30
28437.0
 11
323.759544
 21
-1671.132961
 31
28348.502111
  0
LINE
  5
B05
100
AcDbEntity
  8
MUROOESTE
100
AcDbLine
 10
55.423768
 20
906.730131
 30
28527.387212
 11
666.666667
 21
1123.575293
 31
28664.0
  0
LINE
  5
B08
100
AcDbEntity
  8
MUROOESTE
100
AcDbLine
 10
790.452753
 20
-1242.492557
 30
28348.0
 11
323.759544
 21
-1671.132961
 31
28348.502111
  0
LINE
  5
B0A
100
AcDbEntity
  8
MUROOESTE
100
AcDbLine
 10
-270.720653
 20
1397.364848
 30
28511.0
 11
0.0
 21
0.0
 31
28437.0
  0
LINE
  5
B0D
100
AcDbEntity
  8
MUROOESTE
100
AcDbLine
 10
666.666667
 20
1123.575293
 30
28664.0
 11
1333.333333
 21
1360.082648
 31
28813.0
  0
LINE
  5
B0E
100
AcDbEntity
  8
MUROOESTE
100
AcDbLine
 10
55.423768
 20
906.730131
 30
28527.387212
 11
790.452753
 21
-1242.492557
 31
28348.0
  0
INSERT
  5
B0F
100
AcDbEntity
  8
CC
100
AcDbBlockReference
  2
APOYO2
 10
323.759544
 20
-1671.132961
 30
28348.502111
  0
INSERT
  5
B10
100
AcDbEntity
  8
CC
100
AcDbBlockReference
  2
APOYO2
 10
790.452753
 20
-1242.492557
 30
28348.0
  0
INSERT
  5
B11
100
AcDbEntity
  8
CC
100
AcDbBlockReference
  2
APOYO2
 10
55.423768
 20
906.730131
 30
28527.387212
  0
LINE
  5
B15
100
AcDbEntity
  8
VIGACURVA
100
AcDbLine
 10
11638.567155
 20
15252.587529
 30
29491.198009
 11
10865.168759
 21
14969.135844
 31
30175.0
210
0.0
220
1.0
230
0.0
  0
LINE
  5
B1D
100
AcDbEntity
  8
VIGACURVA
100
AcDbLine
 10
10865.168759
 20
14969.135844
 30
30175.0
 11
10101.13369
 21
14618.737914
 31
30746.96322
210
0.0
220
1.0
230
0.0
  0
LINE
  5
B1E
100
AcDbEntity
  8
VIGACURVA
100
AcDbLine
 10
10101.13369
 20
14618.737914
 30
30746.96322
 11
9704.013294
 21
14438.317051
 31
30975.0
210
0.0
220
1.0
230
0.0
  0
LINE
  5
B1F
100
AcDbEntity
  8
VIGACURVA
100
AcDbLine
 10
9704.013294
 20
14438.317051
 30
30975.0
 11
9333.333333
 21
14269.908681
 31
31091.281914
210
0.0
220
1.0
230
0.0
  0
LINE
  5
B20
100
AcDbEntity
  8
VIGACURVA
100
AcDbLine
 10
9333.333333
 20
14269.908681
 30
31091.281914
 11
8572.973992
 21
13916.877663
 31
31195.597635
210
0.0
220
1.0
230
0.0
  0
LINE
  5
B21
100
AcDbEntity
  8
VIGACURVA
100
AcDbLine
 10
8572.973992
 20
13916.877663
 30
31195.597635
 11
7810.351324
 21
13549.203874
 31
31173.202795
210
0.0
220
1.0
230
0.0
  0
LINE
  5
B22
100
AcDbEntity
  8
VIGACURVA
100
AcDbLine
 10
7810.351324
 20
13549.203874
 30
31173.202795
 11
7052.530647
 21
13143.888124
 31
31120.793287
210
0.0
220
1.0
230
0.0
  0
LINE
  5
B23
100
AcDbEntity
  8
PILARESN
100
AcDbLine
 10
10101.13369
 20
14618.737914
 30
30975.0
 11
10101.13369
 21
14618.737914
 31
30746.96322
210
0.0
220
1.0
230
0.0
  0
LINE
  5
B24
100
AcDbEntity
  8
VIGASN
100
AcDbLine
 10
9704.013294
 20
14438.317051
 30
30975.0
 11
9333.333333
 21
14269.908681
 31
30975.0
210
0.0
220
1.0
230
0.0
  0
LINE
  5
B25
100
AcDbEntity
  8
PILARESN
100
AcDbLine
 10
9333.333333
 20
14269.908681
 30
30975.0
 11
9333.333333
 21
14269.908681
 31
31091.281914
210
0.0
220
1.0
230
0.0
  0
LINE
  5
B26
100
AcDbEntity
  8
PILARESN
100
AcDbLine
 10
8572.973992
 20
13916.877663
 30
30975.0
 11
8572.973992
 21
13916.877663
 31
31195.597635
210
0.0
220
1.0
230
0.0
  0
LINE
  5
B27
100
AcDbEntity
  8
PILARESN
100
AcDbLine
 10
7810.351324
 20
13549.203874
 30
30975.0
 11
7810.351324
 21
13549.203874
 31
31173.202795
210
0.0
220
1.0
230
0.0
  0
ENDSEC
  0
SECTION
  2
OBJECTS
  0
DICTIONARY
  5
1E5
102
{ACAD_XDICTIONARY
360
1E6
102
}
100
AcDbDictionary
  3
ACAD_GROUP
350
1E1
  3
ACAD_MLINESTYLE
350
1E2
  0
DICTIONARY
  5
1D4
100
AcDbDictionary
280
     1
  3
ACAD_XREC_ROUNDTRIP
360
1D5
  0
DICTIONARY
  5
1D7
100
AcDbDictionary
280
     1
  3
ACAD_XREC_ROUNDTRIP
360
1D8
  0
DICTIONARY
  5
A
100
AcDbDictionary
280
     1
  3
ACAD_XREC_ROUNDTRIP
360
B
  0
DICTIONARY
  5
286
100
AcDbDictionary
280
     1
  3
ACAD_XREC_ROUNDTRIP
360
287
  0
DICTIONARY
  5
14
100
AcDbDictionary
280
     1
  3
ACAD_LAYERFILTERS
360
15
  3
ACAD_LAYERSTATES
360
1CD
  0
DICTIONARY
  5
1D0
100
AcDbDictionary
280
     1
  3
ACAD_XREC_ROUNDTRIP
360
1D1
  0
DICTIONARY
  5
1EC
100
AcDbDictionary
280
     1
  3
ACAD_XREC_ROUNDTRIP
360
1ED
  0
DICTIONARY
  5
3
100
AcDbDictionary
280
     1
  3
ACAD_LAYOUTSELFREF
360
4
  3
ACAD_SORTENTS
360
5
  3
ACAD_XREC_ROUNDTRIP
360
6
  0
DICTIONARY
  5
E
100
AcDbDictionary
280
     1
  3
ACAD_LAYOUTSELFREF
360
F
  3
ACAD_XREC_ROUNDTRIP
360
10
  0
DICTIONARY
  5
1E6
100
AcDbDictionary
280
     1
  3
ACAD_XREC_ROUNDTRIP
360
1E7
  0
DICTIONARY
  5
1E1
102
{ACAD_REACTORS
330
1E5
102
}
100
AcDbDictionary
  0
DICTIONARY
  5
1E2
102
{ACAD_XDICTIONARY
360
1E3
102
}
102
{ACAD_REACTORS
330
1E5
102
}
100
AcDbDictionary
  3
STANDARD
350
1EA
  0
XRECORD
  5
1D5
102
{ACAD_REACTORS
330
1D4
102
}
100
AcDbXrecord
102
EXTNAMES
  1
BYBLOCK
  2
ByBlock
  0
XRECORD
  5
1D8
102
{ACAD_REACTORS
330
1D7
102
}
100
AcDbXrecord
102
EXTNAMES
  1
BYLAYER
  2
ByLayer
  0
XRECORD
  5
B
102
{ACAD_REACTORS
330
A
102
}
100
AcDbXrecord
102
EXTNAMES
  1
CONTINUOUS
  2
Continuous
  0
XRECORD
  5
287
102
{ACAD_REACTORS
330
286
102
}
100
AcDbXrecord
102
EXTNAMES
  1
GRDCON$0$CENTER
  2
grdcon$0$CENTER
  0
DICTIONARY
  5
15
102
{ACAD_XDICTIONARY
360
16
102
}
102
{ACAD_REACTORS
330
14
102
}
100
AcDbDictionary
280
     1
  3
-
360
18
  3
-0
360
19
  3
-1
360
1A
  3
-2
360
1B
  3
-3
360
1C
  3
-DETALLES
360
1D
  3
__
360
1E
  3
_AA_
360
1F
  3
_P00
360
20
  3
0-
360
21
  3
00
360
22
  3
00TRF
360
23
  3
01
360
24
  3
01-TEXT
360
25
  3
02
360
26
  3
02-TERRES
360
27
  3
03
360
28
  3
03-FONAMENTS
360
29
  3
04
360
2A
  3
04-ESTRUCTURA
360
2B
  3
04CUBIERTAS
360
2C
  3
05
360
2D
  3
06
360
2E
  3
06-
360
2F
  3
07
360
30
  3
07-
360
31
  3
08-
360
32
  3
09-
360
33
  3
1
360
34
  3
1-
360
35
  3
1_TOPOGRAFICO
360
36
  3
10-
360
37
  3
100
360
38
  3
11
360
39
  3
11-
360
3A
  3
12
360
3B
  3
13-
360
3C
  3
14-
360
3D
  3
15
360
3E
  3
16-
360
3F
  3
17-
360
40
  3
177
360
41
  3
2
360
42
  3
2_PLAN_ESPECIAL
360
43
  3
200
360
44
  3
26
360
45
  3
28
360
46
  3
3_CENTRO
360
47
  3
3D
360
48
  3
3D_LAYERS
360
49
  3
4_PARKING
360
4A
  3
40
360
4B
  3
50
360
4C
  3
500
360
4D
  3
8
360
4E
  3
84
360
4F
  3
A
360
50
  3
A-FLOR
360
51
  3
A_
360
52
  3
A1
360
53
  3
A2
360
54
  3
A3
360
55
  3
A4
360
56
  3
AA_
360
57
  3
AA_FT
360
58
  3
AAA
360
59
  3
ACOMETIDA-SERGAS
360
5A
  3
ACT
360
5B
  3
ACTI
360
5C
  3
ACTIVADAS
360
5D
  3
ACTIVAS
360
5E
  3
AE
360
5F
  3
AGUA
360
60
  3
AIRE
360
61
  3
ALÇAT
360
62
  3
ALERO
360
63
  3
ALL
360
64
  3
ALLE-SCHÜCO-LAYER
360
65
  3
ALLE-SICHTBAREN-LAYER
360
66
  3
ALZADOS
360
67
  3
AMARILLO
360
68
  3
AN
360
69
  3
ANT-H
360
6A
  3
AQ
360
6B
  3
AQ-
360
6C
  3
ARBRES
360
6D
  3
AREA
360
6E
  3
AREAS
360
6F
  3
ARQUETAS
360
70
  3
ARQUITECTURA
360
71
  3
B1
360
72
  3
B2
360
73
  3
B3
360
74
  3
B4
360
75
  3
BARRACONES
360
76
  3
BASE
360
77
  3
BIND
360
78
  3
BLOQ
360
79
  3
BLOQUEADA
360
7A
  3
BLOQUEADAS
360
7B
  3
BORDE
360
7C
  3
BUS
360
7D
  3
C
360
7E
  3
C-
360
7F
  3
C1
360
80
  3
C2
360
81
  3
C3
360
82
  3
C4
360
83
  3
C5
360
84
  3
C6
360
85
  3
CÁMARA
360
86
  3
CAPA_0
360
87
  3
CAPAS_ACTIVADAS
360
88
  3
CAPAS_DESACTIVADAS
360
89
  3
CAPAS_P1
360
8A
  3
CAR
360
8B
  3
CARCYCLE
360
8C
  3
CARPINTERIA
360
8D
  3
CARRITALYBASE
360
8E
  3
CARRIZOS3FINAL
360
8F
  3
CARTO
360
90
  3
CARTOGRAFIA
360
91
  3
CEILING
360
92
  3
CEL
360
93
  3
CEL-RAS
360
94
  3
CIAN
360
95
  3
CLAD
360
96
  3
CLG
360
97
  3
COLOR
360
98
  3
COLOR-8
360
99
  3
COLOR_8
360
9A
  3
COLOR_9
360
9B
  3
COM
360
9C
  3
COMUNES
360
9D
  3
CONTOURS1
360
9E
  3
COTA
360
9F
  3
COTAINT
360
A0
  3
COTAS
360
A1
  3
COTAS-ACABADOS
360
A2
  3
COTAS_ACABADOS
360
A3
  3
COTES
360
A4
  3
COULEUR
360
A5
  3
CPI
360
A6
  3
CUBICAL
360
A7
  3
CUBIERTA
360
A8
  3
CURVA
360
A9
  3
CYAN
360
AA
  3
CYCL
360
AB
  3
CYCLE
360
AC
  3
D1
360
AD
  3
D2
360
AE
  3
D3
360
AF
  3
D4
360
B0
  3
D5
360
B1
  3
DEL_DIBUJO
360
B2
  3
DEMO
360
B3
  3
DES
360
B4
  3
DESACTIVAS
360
B5
  3
DETAIL
360
B6
  3
DETAILS
360
B7
  3
DETALLE
360
B8
  3
DETALLES
360
B9
  3
DIB
360
BA
  3
DIM
360
BB
  3
DIMS
360
BC
  3
DOOR
360
BD
  3
DOORS
360
BE
  3
DREN
360
BF
  3
DRENAGEM
360
C0
  3
E
360
C1
  3
E1
360
C2
  3
E3
360
C3
  3
EIXOS
360
C4
  3
EJE
360
C5
  3
ELECT
360
C6
  3
ELLIPSE
360
C7
  3
ENSE
360
C8
  3
ENTORN
360
C9
  3
ENTRADA
360
CA
  3
ENTRAMADO-FACHADAS
360
CB
  3
EQ
360
CC
  3
EQU
360
CD
  3
ESCALA_1-50
360
CE
  3
ESCALATOR
360
CF
  3
ESCALERA
360
D0
  3
ESPAI_VERD
360
D1
  3
ESQUEMAS
360
D2
  3
ESTRU00
360
D3
  3
ESTRUCTURA
360
D4
  3
ESTRUCTURAS
360
D5
  3
EXIS
360
D6
  3
EXTERIOR
360
D7
  3
F1
360
D8
  3
F2
360
D9
  3
FACHADA
360
DA
  3
FACHADAS
360
DB
  3
FALL
360
DC
  3
FALLOS
360
DD
  3
FANCOIL
360
DE
  3
FECALES
360
DF
  3
FF200M
360
E0
  3
FIN
360
E1
  3
FIRE
360
E2
  3
FIX
360
E3
  3
FLOOR
360
E4
  3
FREEZE
360
E5
  3
FROZEN
360
E6
  3
FURN
360
E7
  3
FURNITURE
360
E8
  3
FUS
360
E9
  3
GAS
360
EA
  3
GEL
360
EB
  3
GILLTEMP
360
EC
  3
GREEN
360
ED
  3
GRID
360
EE
  3
GRIS8
360
EF
  3
GRIS9
360
F0
  3
GRISES
360
F1
  3
GRO
360
F2
  3
H-
360
F3
  3
HA
360
F4
  3
HA-GENE-AR
360
F5
  3
HAOU
360
F6
  3
HOJAS
360
F7
  3
I
360
F8
  3
IL
360
F9
  3
ILUM
360
FA
  3
IMG
360
FB
  3
INAC
360
FC
  3
INS
360
FD
  3
INST_TECHO
360
FE
  3
INSTALACION_TECHO
360
FF
  3
INSTALACIONES_TECHO
360
100
  3
INU
360
101
  3
INUTIIL
360
102
  3
JALONAMIENTO
360
103
  3
K52
360
104
  3
KAYDIRAKLAR
360
105
  3
KEY
360
106
  3
KONSOLLAR
360
107
  3
LABEL
360
108
  3
LAS-UTILES
360
109
  3
LAURA
360
10A
  3
LAZY
360
10B
  3
LGA
360
10C
  3
LIM
360
10D
  3
LIMPIO
360
10E
  3
LINEA_FINA
360
10F
  3
LINEA_GRUESA
360
110
  3
LINEAS_REFERENCIA
360
111
  3
LINES
360
112
  3
LLUMS
360
113
  3
LOCKER
360
114
  3
LOT
360
115
  3
LUNAR
360
116
  3
LUNAR2
360
117
  3
LVL
360
118
  3
MAGENTA
360
119
  3
MARCOS
360
11A
  3
MATAS
360
11B
  3
MATERIALS
360
11C
  3
MEDIA_TENSION
360
11D
  3
MEUS
360
11E
  3
MEXT
360
11F
  3
MEZZ
360
120
  3
MILL
360
121
  3
MOBILIARIO
360
122
  3
MUEBLEPERIMETRAL
360
123
  3
MUEBLES
360
124
  3
MZ
360
125
  3
N
360
126
  3
N-CLAV
360
127
  3
NAME
360
128
  3
NEAL
360
129
  3
NELF
360
12A
  3
NEW
360
12B
  3
NO_XREF
360
12C
  3
NORMAL
360
12D
  3
NOTE
360
12E
  3
NUEVA
360
12F
  3
NUEVA_IMPLANTACIÓN
360
130
  3
NUEVAS
360
131
  3
NUEVOS-SERVICIOS
360
132
  3
NUM
360
133
  3
OCULT
360
134
  3
OFF
360
135
  3
OFICINES
360
136
  3
OI
360
137
  3
ON
360
138
  3
OU
360
139
  3
OU-AREA
360
13A
  3
OUTY
360
13B
  3
P
360
13C
  3
P-1
360
13D
  3
P-2
360
13E
  3
P00
360
13F
  3
P01
360
140
  3
P02
360
141
  3
P03
360
142
  3
P05
360
143
  3
P1
360
144
  3
P1401
360
145
  3
P14P-2
360
146
  3
P14P00
360
147
  3
P2
360
148
  3
P3
360
149
  3
P4
360
14A
  3
P5
360
14B
  3
PA
360
14C
  3
PARCELA
360
14D
  3
PARKING
360
14E
  3
PARTITIONS
360
14F
  3
PASILLO
360
150
  3
PATT
360
151
  3
PAU
360
152
  3
PB
360
153
  3
PEPE
360
154
  3
PIANOS
360
155
  3
PIEZA_DE_CRISTAL
360
156
  3
PILARES
360
157
  3
PILARESZ2
360
158
  3
PIPES
360
159
  3
PIPES1
360
15A
  3
PIPING_PLAN2
360
15B
  3
PL
360
15C
  3
PLAKALAR
360
15D
  3
PLAN
360
15E
  3
PLAN-PARCIAL
360
15F
  3
PLANTA_BAJA
360
160
  3
PLANTA_BAJA_ACT
360
161
  3
PLANTA_SUBSUELO
360
162
  3
PLANTA_TÉCNICA
360
163
  3
PLANTAS
360
164
  3
PLOT
360
165
  3
PLOTEO
360
166
  3
PLUVIALES
360
167
  3
POLILINEAS
360
168
  3
PONT
360
169
  3
POOL
360
16A
  3
POPOPO
360
16B
  3
POZOS_AGUA
360
16C
  3
POZOS_FECALES
360
16D
  3
POZOS_PLUVIALES
360
16E
  3
PQ
360
16F
  3
PR
360
170
  3
PROGEST
360
171
  3
PROJ-URBANITZACIO
360
172
  3
PROYECCCIONES
360
173
  3
PRUEBA
360
174
  3
PRUEBA3
360
175
  3
PUERTAS
360
176
  3
RAIL
360
177
  3
RCP
360
178
  3
RED
360
179
  3
REFERENCIA
360
17A
  3
RELLENO
360
17B
  3
RELLENOS
360
17C
  3
REPLANTEO
360
17D
  3
RIEGO
360
17E
  3
RMTAGS
360
17F
  3
ROOM
360
180
  3
ROTULACION
360
181
  3
S
360
182
  3
S1
360
183
  3
S2
360
184
  3
SAA
360
185
  3
SANEAMIENTO
360
186
  3
SCALE200
360
187
  3
SE
360
188
  3
SE100
360
189
  3
SECC
360
18A
  3
SECCIO
360
18B
  3
SECCION
360
18C
  3
SEGUNDA
360
18D
  3
SEGUNDABIS
360
18E
  3
SENY_HORIT
360
18F
  3
SERVI
360
190
  3
SILLAS
360
191
  3
SITE
360
192
  3
SOLADOS
360
193
  3
SOLO_CAPA
360
194
  3
SPACE_PLANNING
360
195
  3
STR
360
196
  3
STRUCTURAL
360
197
  3
STRUCTURE
360
198
  3
SU
360
199
  3
SUELO
360
19A
  3
SUP01
360
19B
  3
SUP02
360
19C
  3
SUP03
360
19D
  3
SUP04
360
19E
  3
SUPERFICIES
360
19F
  3
T
360
1A0
  3
T_A
360
1A1
  3
T_C
360
1A2
  3
TAJEAS
360
1A3
  3
TALLERES
360
1A4
  3
TAQUIMETRICO
360
1A5
  3
TECHOS
360
1A6
  3
TELE
360
1A7
  3
TEMP
360
1A8
  3
TEXT
360
1A9
  3
TEXTO
360
1AA
  3
THAWED
360
1AB
  3
TMP
360
1AC
  3
TOPO
360
1AD
  3
TOPOGRAFIA
360
1AE
  3
TRABAJO
360
1AF
  3
TRAM
360
1B0
  3
TRAMA
360
1B1
  3
TRAMA-FAÇANA
360
1B2
  3
TRAMAS
360
1B3
  3
TRAMES
360
1B4
  3
TREAD
360
1B5
  3
TUB
360
1B6
  3
UISKAS
360
1B7
  3
UNI
360
1B8
  3
URB
360
1B9
  3
URBAN
360
1BA
  3
URBANIZACION
360
1BB
  3
USOS_MUEBLES
360
1BC
  3
UTILIZADAS
360
1BD
  3
VESTUARIOS_ENTRADA
360
1BE
  3
VISTAS
360
1BF
  3
VMULT
360
1C0
  3
VP
360
1C1
  3
WALL
360
1C2
  3
WDW
360
1C3
  3
WE
360
1C4
  3
WHITE
360
1C5
  3
WINDOW
360
1C6
  3
X
360
1C7
  3
XREF
360
1C8
  3
YARDIMLAR
360
1C9
  3
YO
360
1CA
  3
YUZEYLER
360
1CB
  3
YÜZEYLER
360
1CC
  0
DICTIONARY
  5
1CD
102
{ACAD_REACTORS
330
14
102
}
100
AcDbDictionary
  0
XRECORD
  5
1D1
102
{ACAD_REACTORS
330
1D0
102
}
100
AcDbXrecord
102
EXTNAMES
  1
STANDARD
  2
Standard
  0
XRECORD
  5
1ED
102
{ACAD_REACTORS
330
1EC
102
}
100
AcDbXrecord
102
ACADR14ROUNDTRIP
1000
DSTYLE
1002
{
1070
    79
 70
     1
1070
   179
 70
     3
1070
   289
 70
     2
1070
   342
340
0
1002
}
  0
XRECORD
  5
4
102
{ACAD_REACTORS
330
3
102
}
100
AcDbXrecord
340
2
  0
SORTENTSTABLE
  5
5
102
{ACAD_REACTORS
330
3
102
}
100
AcDbSortentsTable
330
2
  0
XRECORD
  5
6
102
{ACAD_REACTORS
330
3
102
}
100
AcDbXrecord
102
EXTNAMES
  1
*MODEL_SPACE
  2
*Model_Space
  0
XRECORD
  5
F
102
{ACAD_REACTORS
330
E
102
}
100
AcDbXrecord
340
D
  0
XRECORD
  5
10
102
{ACAD_REACTORS
330
E
102
}
100
AcDbXrecord
102
EXTNAMES
  1
*PAPER_SPACE
  2
*Paper_Space
  0
XRECORD
  5
1E7
102
{ACAD_REACTORS
330
1E6
102
}
100
AcDbXrecord
102
EXTNAMES
  1
ACDBVARIABLEDICTIONARY
  2
AcDbVariableDictionary
  0
DICTIONARY
  5
1E3
100
AcDbDictionary
280
     1
  3
ACAD_XREC_ROUNDTRIP
360
1E4
  0
MLINESTYLE
  5
1EA
102
{ACAD_REACTORS
330
1E2
102
}
100
AcDbMlineStyle
  2
STANDARD
 70
     0
  3

 62
   256
 51
90.0
 52
90.0
 71
     2
 49
0.5
 62
   256
  6
BYLAYER
 49
-0.5
 62
   256
  6
BYLAYER
  0
DICTIONARY
  5
16
100
AcDbDictionary
280
     1
  3
ACAD_XREC_ROUNDTRIP
360
17
  0
XRECORD
  5
18
102
{ACAD_REACTORS
330
15
102
}
100
AcDbXrecord
  1
-
  1
*
  1
*
  1
*
 70
     0
  1
*
  1
*
  0
XRECORD
  5
19
102
{ACAD_REACTORS
330
15
102
}
100
AcDbXrecord
  1
-0
  1
0*
  1
*
  1
*
 70
     0
  1
*
  1
*
  0
XRECORD
  5
1A
102
{ACAD_REACTORS
330
15
102
}
100
AcDbXrecord
  1
-1
  1
*-1
  1
*
  1
*
 70
     0
  1
*
  1
*
  0
XRECORD
  5
1B
102
{ACAD_REACTORS
330
15
102
}
100
AcDbXrecord
  1
-2
  1
*-2
  1
*
  1
*
 70
     0
  1
*
  1
*
  0
XRECORD
  5
1C
102
{ACAD_REACTORS
330
15
102
}
100
AcDbXrecord
  1
-3
  1
*-3
  1
*
  1
*
 70
     0
  1
*
  1
*
  0
XRECORD
  5
1D
102
{ACAD_REACTORS
330
15
102
}
100
AcDbXrecord
  1
-detalles
  1
-det*
  1
*
  1
*
 70
     0
  1
*
  1
*
  0
XRECORD
  5
1E
102
{ACAD_REACTORS
330
15
102
}
100
AcDbXrecord
  1
++
  1
*++*
  1
*
  1
*
 70
     0
  1
*
  1
*
  0
XRECORD
  5
1F
102
{ACAD_REACTORS
330
15
102
}
100
AcDbXrecord
  1
_AA_
  1
_AA_*
  1
*
  1
*
 70
     0
  1
*
  1
*
  0
XRECORD
  5
20
102
{ACAD_REACTORS
330
15
102
}
100
AcDbXrecord
  1
_p00
  1
*
  1
*
  1
*
 70
     0
  1
*
  1
*
  0
XRECORD
  5
21
102
{ACAD_REACTORS
330
15
102
}
100
AcDbXrecord
  1
0-
  1
0-*
  1
*
  1
*
 70
     0
  1
*
  1
*
  0
XRECORD
  5
22
102
{ACAD_REACTORS
330
15
102
}
100
AcDbXrecord
  1
00
  1
*p00
  1
*
  1
*
 70
     0
  1
*
  1
*
  0
XRECORD
  5
23
102
{ACAD_REACTORS
330
15
102
}
100
AcDbXrecord
  1
00trf
  1
00trf*
  1
*
  1
*
 70
     0
  1
*
  1
*
  0
XRECORD
  5
24
102
{ACAD_REACTORS
330
15
102
}
100
AcDbXrecord
  1
01
  1
*p01
  1
*
  1
*
 70
     0
  1
*
  1
*
  0
XRECORD
  5
25
102
{ACAD_REACTORS
330
15
102
}
100
AcDbXrecord
  1
01-TEXT
  1
01-*
  1
*
  1
*
 70
     0
  1
*
  1
*
  0
XRECORD
  5
26
102
{ACAD_REACTORS
330
15
102
}
100
AcDbXrecord
  1
02
  1
*p02
  1
*
  1
*
 70
     0
  1
*
  1
*
  0
XRECORD
  5
27
102
{ACAD_REACTORS
330
15
102
}
100
AcDbXrecord
  1
02-TERRES
  1
02-*
  1
*
  1
*
 70
     0
  1
*
  1
*
  0
XRECORD
  5
28
102
{ACAD_REACTORS
330
15
102
}
100
AcDbXrecord
  1
03
  1
*p03
  1
*
  1
*
 70
     0
  1
*
  1
*
  0
XRECORD
  5
29
102
{ACAD_REACTORS
330
15
102
}
100
AcDbXrecord
  1
03-FONAMENTS
  1
03-*
  1
*
  1
*
 70
     0
  1
*
  1
*
  0
XRECORD
  5
2A
102
{ACAD_REACTORS
330
15
102
}
100
AcDbXrecord
  1
04
  1
*04
  1
*
  1
*
 70
     0
  1
*
  1
*
  0
XRECORD
  5
2B
102
{ACAD_REACTORS
330
15
102
}
100
AcDbXrecord
  1
04-ESTRUCTURA
  1
04-*
  1
*
  1
*
 70
     0
  1
*
  1
*
  0
XRECORD
  5
2C
102
{ACAD_REACTORS
330
15
102
}
100
AcDbXrecord
  1
04cubiertas
  1
*04
  1
*
  1
*
 70
     0
  1
*
  1
*
  0
XRECORD
  5
2D
102
{ACAD_REACTORS
330
15
102
}
100
AcDbXrecord
  1
05
  1
*05
  1
*
  1
*
 70
     0
  1
*
  1
*
  0
XRECORD
  5
2E
102
{ACAD_REACTORS
330
15
102
}
100
AcDbXrecord
  1
06
  1
*06
  1
*
  1
*
 70
     0
  1
*
  1
*
  0
XRECORD
  5
2F
102
{ACAD_REACTORS
330
15
102
}
100
AcDbXrecord
  1
06-
  1
06-*
  1
*
  1
*
 70
     0
  1
*
  1
*
  0
XRECORD
  5
30
102
{ACAD_REACTORS
330
15
102
}
100
AcDbXrecord
  1
07
  1
*07
  1
*
  1
*
 70
     0
  1
*
  1
*
  0
XRECORD
  5
31
102
{ACAD_REACTORS
330
15
102
}
100
AcDbXrecord
  1
07-
  1
07-*
  1
*
  1
*
 70
     0
  1
*
  1
*
  0
XRECORD
  5
32
102
{ACAD_REACTORS
330
15
102
}
100
AcDbXrecord
  1
08-
  1
08-*
  1
*
  1
*
 70
     0
  1
*
  1
*
  0
XRECORD
  5
33
102
{ACAD_REACTORS
330
15
102
}
100
AcDbXrecord
  1
09-
  1
09-*
  1
*
  1
*
 70
     0
  1
*
  1
*
  0
XRECORD
  5
34
102
{ACAD_REACTORS
330
15
102
}
100
AcDbXrecord
  1
1
  1
p*
  1
*
  1
*
 70
     0
  1
*
  1
*
  0
XRECORD
  5
35
102
{ACAD_REACTORS
330
15
102
}
100
AcDbXrecord
  1
1-
  1
*
  1
*
  1
*
 70
     0
  1
*
  1
*
  0
XRECORD
  5
36
102
{ACAD_REACTORS
330
15
102
}
100
AcDbXrecord
  1
1_TOPOGRAFICO
  1
*
  1
ROJO
  1
*
 70
     0
  1
*
  1
*
  0
XRECORD
  5
37
102
{ACAD_REACTORS
330
15
102
}
100
AcDbXrecord
  1
10-
  1
10-*
  1
*
  1
*
 70
     0
  1
*
  1
*
  0
XRECORD
  5
38
102
{ACAD_REACTORS
330
15
102
}
100
AcDbXrecord
  1
100
  1
100*
  1
*
  1
*
 70
     0
  1
*
  1
*
  0
XRECORD
  5
39
102
{ACAD_REACTORS
330
15
102
}
100
AcDbXrecord
  1
11
  1
6_*
  1
*
  1
*
 70
     0
  1
*
  1
*
  0
XRECORD
  5
3A
102
{ACAD_REACTORS
330
15
102
}
100
AcDbXrecord
  1
11-
  1
11-*
  1
*
  1
*
 70
     0
  1
*
  1
*
  0
XRECORD
  5
3B
102
{ACAD_REACTORS
330
15
102
}
100
AcDbXrecord
  1
12
  1
12-*
  1
*
  1
*
 70
     0
  1
*
  1
*
  0
XRECORD
  5
3C
102
{ACAD_REACTORS
330
15
102
}
100
AcDbXrecord
  1
13-
  1
13-*
  1
*
  1
*
 70
     0
  1
*
  1
*
  0
XRECORD
  5
3D
102
{ACAD_REACTORS
330
15
102
}
100
AcDbXrecord
  1
14-
  1
14-*
  1
*
  1
*
 70
     0
  1
*
  1
*
  0
XRECORD
  5
3E
102
{ACAD_REACTORS
330
15
102
}
100
AcDbXrecord
  1
15
  1
15-*
  1
*
  1
*
 70
     0
  1
*
  1
*
  0
XRECORD
  5
3F
102
{ACAD_REACTORS
330
15
102
}
100
AcDbXrecord
  1
16-
  1
16-*
  1
*
  1
*
 70
     0
  1
*
  1
*
  0
XRECORD
  5
40
102
{ACAD_REACTORS
330
15
102
}
100
AcDbXrecord
  1
17-
  1
17-*
  1
*
  1
*
 70
     0
  1
*
  1
*
  0
XRECORD
  5
41
102
{ACAD_REACTORS
330
15
102
}
100
AcDbXrecord
  1
177
  1
*
  1
177
  1
*
 70
     0
  1
*
  1
*
  0
XRECORD
  5
42
102
{ACAD_REACTORS
330
15
102
}
100
AcDbXrecord
  1
2
  1
*
  1
2
  1
*
 70
     0
  1
*
  1
*
  0
XRECORD
  5
43
102
{ACAD_REACTORS
330
15
102
}
100
AcDbXrecord
  1
2_PLAN ESPECIAL
  1
*
  1
VERDE
  1
*
 70
     0
  1
*
  1
*
  0
XRECORD
  5
44
102
{ACAD_REACTORS
330
15
102
}
100
AcDbXrecord
  1
200
  1
*200*
  1
*
  1
*
 70
     0
  1
*
  1
*
  0
XRECORD
  5
45
102
{ACAD_REACTORS
330
15
102
}
100
AcDbXrecord
  1
26
  1
*26*
  1
*
  1
*
 70
     0
  1
*
  1
*
  0
XRECORD
  5
46
102
{ACAD_REACTORS
330
15
102
}
100
AcDbXrecord
  1
28
  1
*28*
  1
*
  1
*
 70
     0
  1
*
  1
*
  0
XRECORD
  5
47
102
{ACAD_REACTORS
330
15
102
}
100
AcDbXrecord
  1
3_CENTRO
  1
*
  1
AZUL
  1
*
 70
     0
  1
*
  1
*
  0
XRECORD
  5
48
102
{ACAD_REACTORS
330
15
102
}
100
AcDbXrecord
  1
3d
  1
3d*
  1
*
  1
*
 70
     0
  1
*
  1
*
  0
XRECORD
  5
49
102
{ACAD_REACTORS
330
15
102
}
100
AcDbXrecord
  1
3D LAYERS
  1
A3D*,0*,a-const*
  1
*
  1
*
 70
     0
  1
*
  1
*
  0
XRECORD
  5
4A
102
{ACAD_REACTORS
330
15
102
}
100
AcDbXrecord
  1
4_PARKING
  1
*
  1
BLANCO
  1
*
 70
     0
  1
*
  1
*
  0
XRECORD
  5
4B
102
{ACAD_REACTORS
330
15
102
}
100
AcDbXrecord
  1
40
  1
*
  1
40
  1
*
 70
     0
  1
*
  1
*
  0
XRECORD
  5
4C
102
{ACAD_REACTORS
330
15
102
}
100
AcDbXrecord
  1
50
  1
*50*
  1
*
  1
*
 70
     0
  1
*
  1
*
  0
XRECORD
  5
4D
102
{ACAD_REACTORS
330
15
102
}
100
AcDbXrecord
  1
500
  1
*500*
  1
*
  1
*
 70
     0
  1
*
  1
*
  0
XRECORD
  5
4E
102
{ACAD_REACTORS
330
15
102
}
100
AcDbXrecord
  1
8
  1
*
  1
*8
  1
*
 70
     0
  1
*
  1
*
  0
XRECORD
  5
4F
102
{ACAD_REACTORS
330
15
102
}
100
AcDbXrecord
  1
84
  1
*84*
  1
*
  1
*
 70
     0
  1
*
  1
*
  0
XRECORD
  5
50
102
{ACAD_REACTORS
330
15
102
}
100
AcDbXrecord
  1
A
  1
A*
  1
*
  1
*
 70
     0
  1
*
  1
*
  0
XRECORD
  5
51
102
{ACAD_REACTORS
330
15
102
}
100
AcDbXrecord
  1
A-Flor
  1
*|A-Flor*
  1
*
  1
*
 70
     0
  1
*
  1
*
  0
XRECORD
  5
52
102
{ACAD_REACTORS
330
15
102
}
100
AcDbXrecord
  1
a_
  1
a_*
  1
*
  1
*
 70
     0
  1
*
  1
*
  0
XRECORD
  5
53
102
{ACAD_REACTORS
330
15
102
}
100
AcDbXrecord
  1
A1
  1
A1*
  1
*
  1
*
 70
     0
  1
*
  1
*
  0
XRECORD
  5
54
102
{ACAD_REACTORS
330
15
102
}
100
AcDbXrecord
  1
A2
  1
A2*
  1
*
  1
*
 70
     0
  1
*
  1
*
  0
XRECORD
  5
55
102
{ACAD_REACTORS
330
15
102
}
100
AcDbXrecord
  1
A3
  1
A3*
  1
*
  1
*
 70
     0
  1
*
  1
*
  0
XRECORD
  5
56
102
{ACAD_REACTORS
330
15
102
}
100
AcDbXrecord
  1
A4
  1
A4*
  1
*
  1
*
 70
     0
  1
*
  1
*
  0
XRECORD
  5
57
102
{ACAD_REACTORS
330
15
102
}
100
AcDbXrecord
  1
AA_
  1
AA_*
  1
*
  1
*
 70
     0
  1
*
  1
*
  0
XRECORD
  5
58
102
{ACAD_REACTORS
330
15
102
}
100
AcDbXrecord
  1
AA_ft
  1
*
  1
*
  1
*
 70
     0
  1
*
  1
*
  0
XRECORD
  5
59
102
{ACAD_REACTORS
330
15
102
}
100
AcDbXrecord
  1
aaa
  1
*
  1
*
  1
*
 70
    12
  1
*
  1
*
  0
XRECORD
  5
5A
102
{ACAD_REACTORS
330
15
102
}
100
AcDbXrecord
  1
ACOMETIDA-SERGAS
  1
*_AC
  1
*
  1
*
 70
     0
  1
*
  1
*
  0
XRECORD
  5
5B
102
{ACAD_REACTORS
330
15
102
}
100
AcDbXrecord
  1
act
  1
*
  1
*
  1
*
 70
     1
  1
*
  1
*
  0
XRECORD
  5
5C
102
{ACAD_REACTORS
330
15
102
}
100
AcDbXrecord
  1
ACTI
  1
*
  1
*
  1
*
 70
     1
  1
*
  1
*
  0
XRECORD
  5
5D
102
{ACAD_REACTORS
330
15
102
}
100
AcDbXrecord
  1
Activadas
  1
*
  1
*
  1
*
 70
     1
  1
*
  1
*
  0
XRECORD
  5
5E
102
{ACAD_REACTORS
330
15
102
}
100
AcDbXrecord
  1
ACTIVAS
  1
*
  1
*
  1
*
 70
     1
  1
*
  1
*
  0
XRECORD
  5
5F
102
{ACAD_REACTORS
330
15
102
}
100
AcDbXrecord
  1
ae
  1
*ae*
  1
*
  1
*
 70
     0
  1
*
  1
*
  0
XRECORD
  5
60
102
{ACAD_REACTORS
330
15
102
}
100
AcDbXrecord
  1
Agua
  1
Agua*
  1
*
  1
*
 70
     0
  1
*
  1
*
  0
XRECORD
  5
61
102
{ACAD_REACTORS
330
15
102
}
100
AcDbXrecord
  1
AIRE
  1
AI*
  1
*
  1
*
 70
     0
  1
*
  1
*
  0
XRECORD
  5
62
102
{ACAD_REACTORS
330
15
102
}
100
AcDbXrecord
  1
ALÇAT
  1
ALÇAT*
  1
*
  1
*
 70
     0
  1
*
  1
*
  0
XRECORD
  5
63
102
{ACAD_REACTORS
330
15
102
}
100
AcDbXrecord
  1
alero
  1
alero*
  1
*
  1
*
 70
     0
  1
*
  1
*
  0
XRECORD
  5
64
102
{ACAD_REACTORS
330
15
102
}
100
AcDbXrecord
  1
ALL
  1
*
  1
*
  1
*
 70
     0
  1
*
  1
*
  0
XRECORD
  5
65
102
{ACAD_REACTORS
330
15
102
}
100
AcDbXrecord
  1
alle-schüco-layer
  1
0s*
  1
*
  1
*
 70
     0
  1
*
  1
*
  0
XRECORD
  5
66
102
{ACAD_REACTORS
330
15
102
}
100
AcDbXrecord
  1
alle-sichtbaren-layer
  1
*
  1
*
  1
*
 70
    13
  1
*
  1
*
  0
XRECORD
  5
67
102
{ACAD_REACTORS
330
15
102
}
100
AcDbXrecord
  1
ALZADOS
  1
A-*
  1
*
  1
*
 70
     0
  1
*
  1
*
  0
XRECORD
  5
68
102
{ACAD_REACTORS
330
15
102
}
100
AcDbXrecord
  1
amarillo
  1
*
  1
2
  1
*
 70
     0
  1
*
  1
*
  0
XRECORD
  5
69
102
{ACAD_REACTORS
330
15
102
}
100
AcDbXrecord
  1
an
  1
*an_*
  1
*
  1
*
 70
     0
  1
*
  1
*
  0
XRECORD
  5
6A
102
{ACAD_REACTORS
330
15
102
}
100
AcDbXrecord
  1
ANT-H
  1
ANT-H*
  1
*
  1
*
 70
     0
  1
*
  1
*
  0
XRECORD
  5
6B
102
{ACAD_REACTORS
330
15
102
}
100
AcDbXrecord
  1
aq
  1
aq*
  1
*
  1
*
 70
     0
  1
*
  1
*
  0
XRECORD
  5
6C
102
{ACAD_REACTORS
330
15
102
}
100
AcDbXrecord
  1
aq-
  1
aq-*
  1
*
  1
*
 70
     0
  1
*
  1
*
  0
XRECORD
  5
6D
102
{ACAD_REACTORS
330
15
102
}
100
AcDbXrecord
  1
arbres
  1
*arb*
  1
*
  1
*
 70
     0
  1
*
  1
*
  0
XRECORD
  5
6E
102
{ACAD_REACTORS
330
15
102
}
100
AcDbXrecord
  1
area
  1
*area*
  1
*
  1
*
 70
     0
  1
*
  1
*
  0
XRECORD
  5
6F
102
{ACAD_REACTORS
330
15
102
}
100
AcDbXrecord
  1
AREAS
  1
AREA*.*
  1
*
  1
*
 70
     0
  1
*
  1
*
  0
XRECORD
  5
70
102
{ACAD_REACTORS
330
15
102
}
100
AcDbXrecord
  1
Arquetas
  1
Arquetas*
  1
*
  1
*
 70
     0
  1
*
  1
*
  0
XRECORD
  5
71
102
{ACAD_REACTORS
330
15
102
}
100
AcDbXrecord
  1
ARQUITECTURA
  1
ARQ*
  1
*
  1
*
 70
     0
  1
*
  1
*
  0
XRECORD
  5
72
102
{ACAD_REACTORS
330
15
102
}
100
AcDbXrecord
  1
b1
  1
b1_*
  1
*
  1
*
 70
     0
  1
*
  1
*
  0
XRECORD
  5
73
102
{ACAD_REACTORS
330
15
102
}
100
AcDbXrecord
  1
B2
  1
B2*
  1
*
  1
*
 70
     0
  1
*
  1
*
  0
XRECORD
  5
74
102
{ACAD_REACTORS
330
15
102
}
100
AcDbXrecord
  1
B3
  1
B3*
  1
*
  1
*
 70
     0
  1
*
  1
*
  0
XRECORD
  5
75
102
{ACAD_REACTORS
330
15
102
}
100
AcDbXrecord
  1
B4
  1
B4*
  1
*
  1
*
 70
     0
  1
*
  1
*
  0
XRECORD
  5
76
102
{ACAD_REACTORS
330
15
102
}
100
AcDbXrecord
  1
barracones
  1
barracones*
  1
*
  1
*
 70
     0
  1
*
  1
*
  0
XRECORD
  5
77
102
{ACAD_REACTORS
330
15
102
}
100
AcDbXrecord
  1
base
  1
357-b|*
  1
*
  1
*
 70
     0
  1
*
  1
*
  0
XRECORD
  5
78
102
{ACAD_REACTORS
330
15
102
}
100
AcDbXrecord
  1
BIND
  1
*$0$*
  1
*
  1
*
 70
     0
  1
*
  1
*
  0
XRECORD
  5
79
102
{ACAD_REACTORS
330
15
102
}
100
AcDbXrecord
  1
bloq
  1
*
  1
*
  1
*
 70
   259
  1
*
  1
*
  0
XRECORD
  5
7A
102
{ACAD_REACTORS
330
15
102
}
100
AcDbXrecord
  1
bloqueada
  1
*
  1
*
  1
*
 70
   256
  1
*
  1
*
  0
XRECORD
  5
7B
102
{ACAD_REACTORS
330
15
102
}
100
AcDbXrecord
  1
bloqueadas
  1
*
  1
*
  1
*
 70
   256
  1
*
  1
*
  0
XRECORD
  5
7C
102
{ACAD_REACTORS
330
15
102
}
100
AcDbXrecord
  1
BORDE
  1
*|169104
  1
*
  1
*
 70
     0
  1
*
  1
*
  0
XRECORD
  5
7D
102
{ACAD_REACTORS
330
15
102
}
100
AcDbXrecord
  1
BUS
  1
BU**
  1
*
  1
*
 70
     0
  1
*
  1
*
  0
XRECORD
  5
7E
102
{ACAD_REACTORS
330
15
102
}
100
AcDbXrecord
  1
C
  1
C*
  1
*
  1
*
 70
     0
  1
*
  1
*
  0
XRECORD
  5
7F
102
{ACAD_REACTORS
330
15
102
}
100
AcDbXrecord
  1
c-
  1
c-*
  1
*
  1
*
 70
     0
  1
*
  1
*
  0
XRECORD
  5
80
102
{ACAD_REACTORS
330
15
102
}
100
AcDbXrecord
  1
C1
  1
C1*
  1
*
  1
*
 70
     0
  1
*
  1
*
  0
XRECORD
  5
81
102
{ACAD_REACTORS
330
15
102
}
100
AcDbXrecord
  1
C2
  1
C2*
  1
*
  1
*
 70
     0
  1
*
  1
*
  0
XRECORD
  5
82
102
{ACAD_REACTORS
330
15
102
}
100
AcDbXrecord
  1
C3
  1
C3*
  1
*
  1
*
 70
     0
  1
*
  1
*
  0
XRECORD
  5
83
102
{ACAD_REACTORS
330
15
102
}
100
AcDbXrecord
  1
C4
  1
C4*
  1
*
  1
*
 70
     0
  1
*
  1
*
  0
XRECORD
  5
84
102
{ACAD_REACTORS
330
15
102
}
100
AcDbXrecord
  1
C5
  1
C5*
  1
*
  1
*
 70
     0
  1
*
  1
*
  0
XRECORD
  5
85
102
{ACAD_REACTORS
330
15
102
}
100
AcDbXrecord
  1
C6
  1
C6*
  1
*
  1
*
 70
     0
  1
*
  1
*
  0
XRECORD
  5
86
102
{ACAD_REACTORS
330
15
102
}
100
AcDbXrecord
  1
CÁMARA
  1
CÁMARAS*
  1
*
  1
*
 70
     0
  1
*
  1
*
  0
XRECORD
  5
87
102
{ACAD_REACTORS
330
15
102
}
100
AcDbXrecord
  1
capa 0
  1
0
  1
*
  1
*
 70
     0
  1
*
  1
*
  0
XRECORD
  5
88
102
{ACAD_REACTORS
330
15
102
}
100
AcDbXrecord
  1
capas activadas
  1
*
  1
*
  1
*
 70
     1
  1
*
  1
*
  0
XRECORD
  5
89
102
{ACAD_REACTORS
330
15
102
}
100
AcDbXrecord
  1
capas desactivadas
  1
*
  1
*
  1
*
 70
     3
  1
*
  1
*
  0
XRECORD
  5
8A
102
{ACAD_REACTORS
330
15
102
}
100
AcDbXrecord
  1
capas p1
  1
p1*
  1
*
  1
*
 70
     0
  1
*
  1
*
  0
XRECORD
  5
8B
102
{ACAD_REACTORS
330
15
102
}
100
AcDbXrecord
  1
car
  1
*car*
  1
*
  1
*
 70
     0
  1
*
  1
*
  0
XRECORD
  5
8C
102
{ACAD_REACTORS
330
15
102
}
100
AcDbXrecord
  1
CARCYCLE
  1
*CARCYCLE*
  1
*
  1
*
 70
     0
  1
*
  1
*
  0
XRECORD
  5
8D
102
{ACAD_REACTORS
330
15
102
}
100
AcDbXrecord
  1
CARPINTERIA
  1
CARP*
  1
*
  1
*
 70
     0
  1
*
  1
*
  0
XRECORD
  5
8E
102
{ACAD_REACTORS
330
15
102
}
100
AcDbXrecord
  1
CARRITALYBASE
  1
*
  1
*
  1
*
 70
     0
  1
*
  1
*
  0
XRECORD
  5
8F
102
{ACAD_REACTORS
330
15
102
}
100
AcDbXrecord
  1
CARRIZOS3FINAL
  1
*
  1
*
  1
*
 70
     0
  1
*
  1
*
  0
XRECORD
  5
90
102
{ACAD_REACTORS
330
15
102
}
100
AcDbXrecord
  1
CARTO
  1
CART*
  1
*
  1
*
 70
     0
  1
*
  1
*
  0
XRECORD
  5
91
102
{ACAD_REACTORS
330
15
102
}
100
AcDbXrecord
  1
cartografia
  1
*
  1
8,9
  1
*
 70
     0
  1
*
  1
*
  0
XRECORD
  5
92
102
{ACAD_REACTORS
330
15
102
}
100
AcDbXrecord
  1
CEILING
  1
*CEIL*
  1
*
  1
*
 70
     0
  1
*
  1
*
  0
XRECORD
  5
93
102
{ACAD_REACTORS
330
15
102
}
100
AcDbXrecord
  1
cel
  1
cel*
  1
*
  1
*
 70
     0
  1
*
  1
*
  0
XRECORD
  5
94
102
{ACAD_REACTORS
330
15
102
}
100
AcDbXrecord
  1
cel-ras
  1
cel*
  1
*
  1
*
 70
     0
  1
*
  1
*
  0
XRECORD
  5
95
102
{ACAD_REACTORS
330
15
102
}
100
AcDbXrecord
  1
cian
  1
*
  1
4
  1
*
 70
    12
  1
*
  1
*
  0
XRECORD
  5
96
102
{ACAD_REACTORS
330
15
102
}
100
AcDbXrecord
  1
CLAD
  1
*CLAD*
  1
*
  1
*
 70
     0
  1
*
  1
*
  0
XRECORD
  5
97
102
{ACAD_REACTORS
330
15
102
}
100
AcDbXrecord
  1
clg
  1
*clg*
  1
*
  1
*
 70
     0
  1
*
  1
*
  0
XRECORD
  5
98
102
{ACAD_REACTORS
330
15
102
}
100
AcDbXrecord
  1
color
  1
*
  1
2
  1
*
 70
     0
  1
*
  1
*
  0
XRECORD
  5
99
102
{ACAD_REACTORS
330
15
102
}
100
AcDbXrecord
  1
color-8
  1
*
  1
8
  1
*
 70
     0
  1
*
  1
*
  0
XRECORD
  5
9A
102
{ACAD_REACTORS
330
15
102
}
100
AcDbXrecord
  1
COLOR 8
  1
*
  1
8
  1
*
 70
     0
  1
*
  1
*
  0
XRECORD
  5
9B
102
{ACAD_REACTORS
330
15
102
}
100
AcDbXrecord
  1
color 9
  1
*
  1
9
  1
*
 70
     0
  1
*
  1
*
  0
XRECORD
  5
9C
102
{ACAD_REACTORS
330
15
102
}
100
AcDbXrecord
  1
com
  1
*com*
  1
*
  1
*
 70
     0
  1
*
  1
*
  0
XRECORD
  5
9D
102
{ACAD_REACTORS
330
15
102
}
100
AcDbXrecord
  1
COMUNES
  1
PBP1P2P3P4PaPqS1S2_G*
  1
*
  1
*
 70
     0
  1
*
  1
*
  0
XRECORD
  5
9E
102
{ACAD_REACTORS
330
15
102
}
100
AcDbXrecord
  1
contours1
  1
*con*
  1
*
  1
*
 70
     0
  1
*
  1
*
  0
XRECORD
  5
9F
102
{ACAD_REACTORS
330
15
102
}
100
AcDbXrecord
  1
Cota
  1
*189703*
  1
*
  1
*
 70
     0
  1
*
  1
*
  0
XRECORD
  5
A0
102
{ACAD_REACTORS
330
15
102
}
100
AcDbXrecord
  1
COTAINT
  1
*COTAINT,*TERRAINT
  1
*
  1
*
 70
     0
  1
*
  1
*
  0
XRECORD
  5
A1
102
{ACAD_REACTORS
330
15
102
}
100
AcDbXrecord
  1
COTAS
  1
*
  1
*
  1
*
 70
     0
  1
*
  1
*
  0
XRECORD
  5
A2
102
{ACAD_REACTORS
330
15
102
}
100
AcDbXrecord
  1
COTAS-ACABADOS
  1
*_CA
  1
*
  1
*
 70
     0
  1
*
  1
*
  0
XRECORD
  5
A3
102
{ACAD_REACTORS
330
15
102
}
100
AcDbXrecord
  1
COTAS_ACABADOS
  1
*_CA
  1
*
  1
*
 70
     0
  1
*
  1
*
  0
XRECORD
  5
A4
102
{ACAD_REACTORS
330
15
102
}
100
AcDbXrecord
  1
COTES
  1
*COT*
  1
*
  1
*
 70
     0
  1
*
  1
*
  0
XRECORD
  5
A5
102
{ACAD_REACTORS
330
15
102
}
100
AcDbXrecord
  1
couleur
  1
couleur*
  1
*
  1
*
 70
     0
  1
*
  1
*
  0
XRECORD
  5
A6
102
{ACAD_REACTORS
330
15
102
}
100
AcDbXrecord
  1
CPI
  1
CPI*
  1
*
  1
*
 70
     0
  1
*
  1
*
  0
XRECORD
  5
A7
102
{ACAD_REACTORS
330
15
102
}
100
AcDbXrecord
  1
CUBICAL
  1
*CUB*
  1
*
  1
*
 70
     0
  1
*
  1
*
  0
XRECORD
  5
A8
102
{ACAD_REACTORS
330
15
102
}
100
AcDbXrecord
  1
CUBIERTA
  1
*P03
  1
*
  1
*
 70
     0
  1
*
  1
*
  0
XRECORD
  5
A9
102
{ACAD_REACTORS
330
15
102
}
100
AcDbXrecord
  1
curva
  1
*cur*
  1
*
  1
*
 70
     0
  1
*
  1
*
  0
XRECORD
  5
AA
102
{ACAD_REACTORS
330
15
102
}
100
AcDbXrecord
  1
CYAN
  1
*
  1
*CYAN
  1
*
 70
     0
  1
*
  1
*
  0
XRECORD
  5
AB
102
{ACAD_REACTORS
330
15
102
}
100
AcDbXrecord
  1
cycl
  1
*cycl*
  1
*
  1
*
 70
     0
  1
*
  1
*
  0
XRECORD
  5
AC
102
{ACAD_REACTORS
330
15
102
}
100
AcDbXrecord
  1
CYCLE
  1
*CYCL*
  1
*
  1
*
 70
     0
  1
*
  1
*
  0
XRECORD
  5
AD
102
{ACAD_REACTORS
330
15
102
}
100
AcDbXrecord
  1
D1
  1
D1*
  1
*
  1
*
 70
     0
  1
*
  1
*
  0
XRECORD
  5
AE
102
{ACAD_REACTORS
330
15
102
}
100
AcDbXrecord
  1
D2
  1
D2*
  1
*
  1
*
 70
     0
  1
*
  1
*
  0
XRECORD
  5
AF
102
{ACAD_REACTORS
330
15
102
}
100
AcDbXrecord
  1
D3
  1
D3*
  1
*
  1
*
 70
     0
  1
*
  1
*
  0
XRECORD
  5
B0
102
{ACAD_REACTORS
330
15
102
}
100
AcDbXrecord
  1
D4
  1
D4*
  1
*
  1
*
 70
     0
  1
*
  1
*
  0
XRECORD
  5
B1
102
{ACAD_REACTORS
330
15
102
}
100
AcDbXrecord
  1
D5
  1
D5*
  1
*
  1
*
 70
     0
  1
*
  1
*
  0
XRECORD
  5
B2
102
{ACAD_REACTORS
330
15
102
}
100
AcDbXrecord
  1
Del dibujo
  1
*
  1
*
  1
*
 70
   768
  1
*
  1
*
  0
XRECORD
  5
B3
102
{ACAD_REACTORS
330
15
102
}
100
AcDbXrecord
  1
demo
  1
*-demo-*
  1
*
  1
*
 70
  3415
  1
*
  1
*
  0
XRECORD
  5
B4
102
{ACAD_REACTORS
330
15
102
}
100
AcDbXrecord
  1
des
  1
*
  1
*
  1
*
 70
     4
  1
*
  1
*
  0
XRECORD
  5
B5
102
{ACAD_REACTORS
330
15
102
}
100
AcDbXrecord
  1
DESACTIVAS
  1
*
  1
*
  1
*
 70
     3
  1
*
  1
*
  0
XRECORD
  5
B6
102
{ACAD_REACTORS
330
15
102
}
100
AcDbXrecord
  1
DETAIL
  1
D-*
  1
*
  1
*
 70
     0
  1
*
  1
*
  0
XRECORD
  5
B7
102
{ACAD_REACTORS
330
15
102
}
100
AcDbXrecord
  1
DETAILS
  1
D-*
  1
*
  1
*
 70
     0
  1
*
  1
*
  0
XRECORD
  5
B8
102
{ACAD_REACTORS
330
15
102
}
100
AcDbXrecord
  1
detalle
  1
d-*
  1
*
  1
*
 70
     0
  1
*
  1
*
  0
XRECORD
  5
B9
102
{ACAD_REACTORS
330
15
102
}
100
AcDbXrecord
  1
detalles
  1
det*
  1
*
  1
*
 70
     0
  1
*
  1
*
  0
XRECORD
  5
BA
102
{ACAD_REACTORS
330
15
102
}
100
AcDbXrecord
  1
DIB
  1
*DIB*
  1
*
  1
*
 70
     0
  1
*
  1
*
  0
XRECORD
  5
BB
102
{ACAD_REACTORS
330
15
102
}
100
AcDbXrecord
  1
DIM
  1
*DIM*
  1
*
  1
*
 70
     0
  1
*
  1
*
  0
XRECORD
  5
BC
102
{ACAD_REACTORS
330
15
102
}
100
AcDbXrecord
  1
dims
  1
*dim*
  1
*
  1
*
 70
     0
  1
*
  1
*
  0
XRECORD
  5
BD
102
{ACAD_REACTORS
330
15
102
}
100
AcDbXrecord
  1
DOOR
  1
*D*R*
  1
*
  1
*
 70
     0
  1
*
  1
*
  0
XRECORD
  5
BE
102
{ACAD_REACTORS
330
15
102
}
100
AcDbXrecord
  1
doors
  1
*door*
  1
*
  1
*
 70
     0
  1
*
  1
*
  0
XRECORD
  5
BF
102
{ACAD_REACTORS
330
15
102
}
100
AcDbXrecord
  1
DREN
  1
DREN*
  1
*
  1
*
 70
     0
  1
*
  1
*
  0
XRECORD
  5
C0
102
{ACAD_REACTORS
330
15
102
}
100
AcDbXrecord
  1
drenagem
  1
-d-*,-DRENAGEM
  1
*
  1
*
 70
     0
  1
*
  1
*
  0
XRECORD
  5
C1
102
{ACAD_REACTORS
330
15
102
}
100
AcDbXrecord
  1
E
  1
E*
  1
*
  1
*
 70
     0
  1
*
  1
*
  0
XRECORD
  5
C2
102
{ACAD_REACTORS
330
15
102
}
100
AcDbXrecord
  1
E1
  1
E1*
  1
*
  1
*
 70
     0
  1
*
  1
*
  0
XRECORD
  5
C3
102
{ACAD_REACTORS
330
15
102
}
100
AcDbXrecord
  1
E3
  1
E3*
  1
*
  1
*
 70
     1
  1
*
  1
*
  0
XRECORD
  5
C4
102
{ACAD_REACTORS
330
15
102
}
100
AcDbXrecord
  1
eixos
  1
*eix*
  1
*
  1
*
 70
     0
  1
*
  1
*
  0
XRECORD
  5
C5
102
{ACAD_REACTORS
330
15
102
}
100
AcDbXrecord
  1
eje
  1
e*
  1
*
  1
*
 70
     0
  1
*
  1
*
  0
XRECORD
  5
C6
102
{ACAD_REACTORS
330
15
102
}
100
AcDbXrecord
  1
elect
  1
*electrical*
  1
*
  1
*
 70
     0
  1
*
  1
*
  0
XRECORD
  5
C7
102
{ACAD_REACTORS
330
15
102
}
100
AcDbXrecord
  1
ellipse
  1
*ellip*
  1
*
  1
*
 70
     0
  1
*
  1
*
  0
XRECORD
  5
C8
102
{ACAD_REACTORS
330
15
102
}
100
AcDbXrecord
  1
ENSE
  1
*
  1
*
  1
*
 70
     1
  1
*
  1
*
  0
XRECORD
  5
C9
102
{ACAD_REACTORS
330
15
102
}
100
AcDbXrecord
  1
entorn
  1
entorn*
  1
*
  1
*
 70
     0
  1
*
  1
*
  0
XRECORD
  5
CA
102
{ACAD_REACTORS
330
15
102
}
100
AcDbXrecord
  1
ENTRADA
  1
*_EE
  1
*
  1
*
 70
     0
  1
*
  1
*
  0
XRECORD
  5
CB
102
{ACAD_REACTORS
330
15
102
}
100
AcDbXrecord
  1
Entramado-Fachadas
  1
e-per*
  1
*
  1
*
 70
     0
  1
*
  1
*
  0
XRECORD
  5
CC
102
{ACAD_REACTORS
330
15
102
}
100
AcDbXrecord
  1
eq
  1
*eq*
  1
*
  1
*
 70
     0
  1
*
  1
*
  0
XRECORD
  5
CD
102
{ACAD_REACTORS
330
15
102
}
100
AcDbXrecord
  1
EQU
  1
*EQ*
  1
*
  1
*
 70
     0
  1
*
  1
*
  0
XRECORD
  5
CE
102
{ACAD_REACTORS
330
15
102
}
100
AcDbXrecord
  1
escala 1-50
  1
*050-*
  1
*
  1
*
 70
     0
  1
*
  1
*
  0
XRECORD
  5
CF
102
{ACAD_REACTORS
330
15
102
}
100
AcDbXrecord
  1
escalator
  1
*esc*
  1
*
  1
*
 70
     0
  1
*
  1
*
  0
XRECORD
  5
D0
102
{ACAD_REACTORS
330
15
102
}
100
AcDbXrecord
  1
ESCALERA
  1
ESCAL*
  1
*
  1
*
 70
     0
  1
*
  1
*
  0
XRECORD
  5
D1
102
{ACAD_REACTORS
330
15
102
}
100
AcDbXrecord
  1
ESPAI VERD
  1
*P2*
  1
*
  1
*
 70
     0
  1
*
  1
*
  0
XRECORD
  5
D2
102
{ACAD_REACTORS
330
15
102
}
100
AcDbXrecord
  1
ESQUEMAS
  1
ESQUEMA*
  1
*
  1
*
 70
     0
  1
*
  1
*
  0
XRECORD
  5
D3
102
{ACAD_REACTORS
330
15
102
}
100
AcDbXrecord
  1
estru00
  1
estru*00
  1
*
  1
*
 70
     0
  1
*
  1
*
  0
XRECORD
  5
D4
102
{ACAD_REACTORS
330
15
102
}
100
AcDbXrecord
  1
ESTRUCTURA
  1
ESTRUC*
  1
*
  1
*
 70
     0
  1
*
  1
*
  0
XRECORD
  5
D5
102
{ACAD_REACTORS
330
15
102
}
100
AcDbXrecord
  1
estructuras
  1
e-*
  1
*
  1
*
 70
     0
  1
*
  1
*
  0
XRECORD
  5
D6
102
{ACAD_REACTORS
330
15
102
}
100
AcDbXrecord
  1
EXIS
  1
EXIS*
  1
*
  1
*
 70
     0
  1
*
  1
*
  0
XRECORD
  5
D7
102
{ACAD_REACTORS
330
15
102
}
100
AcDbXrecord
  1
exterior
  1
exterior*
  1
*
  1
*
 70
     0
  1
*
  1
*
  0
XRECORD
  5
D8
102
{ACAD_REACTORS
330
15
102
}
100
AcDbXrecord
  1
F1
  1
*F1
  1
*
  1
*
 70
     0
  1
*
  1
*
  0
XRECORD
  5
D9
102
{ACAD_REACTORS
330
15
102
}
100
AcDbXrecord
  1
F2
  1
*F2
  1
*
  1
*
 70
     0
  1
*
  1
*
  0
XRECORD
  5
DA
102
{ACAD_REACTORS
330
15
102
}
100
AcDbXrecord
  1
FACHADA
  1
*_FA
  1
*
  1
*
 70
     0
  1
*
  1
*
  0
XRECORD
  5
DB
102
{ACAD_REACTORS
330
15
102
}
100
AcDbXrecord
  1
FACHADAS
  1
FACHADA,CARPIN,EJES,TEJADO,PROFORJA,ESCALERA
  1
*
  1
*
 70
     0
  1
*
  1
*
  0
XRECORD
  5
DC
102
{ACAD_REACTORS
330
15
102
}
100
AcDbXrecord
  1
fall
  1
*fall*
  1
*
  1
*
 70
     0
  1
*
  1
*
  0
XRECORD
  5
DD
102
{ACAD_REACTORS
330
15
102
}
100
AcDbXrecord
  1
FALLOS
  1
FALLOS*
  1
*
  1
*
 70
     0
  1
*
  1
*
  0
XRECORD
  5
DE
102
{ACAD_REACTORS
330
15
102
}
100
AcDbXrecord
  1
fancoil
  1
f-*
  1
*
  1
*
 70
     0
  1
*
  1
*
  0
XRECORD
  5
DF
102
{ACAD_REACTORS
330
15
102
}
100
AcDbXrecord
  1
Fecales
  1
Fecales*
  1
*
  1
*
 70
     0
  1
*
  1
*
  0
XRECORD
  5
E0
102
{ACAD_REACTORS
330
15
102
}
100
AcDbXrecord
  1
ff200m
  1
*050-*,*020-*,*d0-*
  1
*
  1
*
 70
     0
  1
*
  1
*
  0
XRECORD
  5
E1
102
{ACAD_REACTORS
330
15
102
}
100
AcDbXrecord
  1
FIN
  1
*FIN*
  1
*
  1
*
 70
     0
  1
*
  1
*
  0
XRECORD
  5
E2
102
{ACAD_REACTORS
330
15
102
}
100
AcDbXrecord
  1
fire
  1
*fire*
  1
*
  1
*
 70
     0
  1
*
  1
*
  0
XRECORD
  5
E3
102
{ACAD_REACTORS
330
15
102
}
100
AcDbXrecord
  1
FIX
  1
*FIX*
  1
*
  1
*
 70
     0
  1
*
  1
*
  0
XRECORD
  5
E4
102
{ACAD_REACTORS
330
15
102
}
100
AcDbXrecord
  1
Floor
  1
A-Flor*
  1
*
  1
*
 70
     0
  1
*
  1
*
  0
XRECORD
  5
E5
102
{ACAD_REACTORS
330
15
102
}
100
AcDbXrecord
  1
freeze
  1
*
  1
*
  1
*
 70
     4
  1
*
  1
*
  0
XRECORD
  5
E6
102
{ACAD_REACTORS
330
15
102
}
100
AcDbXrecord
  1
Frozen
  1
*
  1
*
  1
*
 70
     4
  1
*
  1
*
  0
XRECORD
  5
E7
102
{ACAD_REACTORS
330
15
102
}
100
AcDbXrecord
  1
furn
  1
*furn*
  1
*
  1
*
 70
     0
  1
*
  1
*
  0
XRECORD
  5
E8
102
{ACAD_REACTORS
330
15
102
}
100
AcDbXrecord
  1
FURNITURE
  1
*FUR*
  1
*
  1
*
 70
     0
  1
*
  1
*
  0
XRECORD
  5
E9
102
{ACAD_REACTORS
330
15
102
}
100
AcDbXrecord
  1
fus
  1
*fus*
  1
*
  1
*
 70
     1
  1
*
  1
*
  0
XRECORD
  5
EA
102
{ACAD_REACTORS
330
15
102
}
100
AcDbXrecord
  1
Gas
  1
Gas*
  1
*
  1
*
 70
     0
  1
*
  1
*
  0
XRECORD
  5
EB
102
{ACAD_REACTORS
330
15
102
}
100
AcDbXrecord
  1
gel
  1
*
  1
*
  1
*
 70
    12
  1
*
  1
*
  0
XRECORD
  5
EC
102
{ACAD_REACTORS
330
15
102
}
100
AcDbXrecord
  1
gilltemp
  1
*
  1
*
  1
*
 70
     0
  1
*
  1
*
  0
XRECORD
  5
ED
102
{ACAD_REACTORS
330
15
102
}
100
AcDbXrecord
  1
green
  1
*
  1
3
  1
*
 70
    12
  1
*
  1
*
  0
XRECORD
  5
EE
102
{ACAD_REACTORS
330
15
102
}
100
AcDbXrecord
  1
grid
  1
*grid*
  1
*
  1
*
 70
     0
  1
*
  1
*
  0
XRECORD
  5
EF
102
{ACAD_REACTORS
330
15
102
}
100
AcDbXrecord
  1
gris8
  1
*
  1
8
  1
*
 70
    12
  1
*
  1
*
  0
XRECORD
  5
F0
102
{ACAD_REACTORS
330
15
102
}
100
AcDbXrecord
  1
gris9
  1
*
  1
9
  1
*
 70
     0
  1
*
  1
*
  0
XRECORD
  5
F1
102
{ACAD_REACTORS
330
15
102
}
100
AcDbXrecord
  1
grises
  1
h*
  1
*
  1
*
 70
     0
  1
*
  1
*
  0
XRECORD
  5
F2
102
{ACAD_REACTORS
330
15
102
}
100
AcDbXrecord
  1
gro
  1
*gro*
  1
*
  1
*
 70
     0
  1
*
  1
*
  0
XRECORD
  5
F3
102
{ACAD_REACTORS
330
15
102
}
100
AcDbXrecord
  1
h-
  1
h-*
  1
*
  1
*
 70
     0
  1
*
  1
*
  0
XRECORD
  5
F4
102
{ACAD_REACTORS
330
15
102
}
100
AcDbXrecord
  1
HA
  1
*HA*
  1
*
  1
*
 70
     0
  1
*
  1
*
  0
XRECORD
  5
F5
102
{ACAD_REACTORS
330
15
102
}
100
AcDbXrecord
  1
HA-GENE-AR
  1
*HA-GENE-AR
  1
*
  1
*
 70
     0
  1
*
  1
*
  0
XRECORD
  5
F6
102
{ACAD_REACTORS
330
15
102
}
100
AcDbXrecord
  1
HAOU
  1
HA*,OU-AREA*
  1
*
  1
*
 70
     0
  1
*
  1
*
  0
XRECORD
  5
F7
102
{ACAD_REACTORS
330
15
102
}
100
AcDbXrecord
  1
hojas
  1
*hojas
  1
*
  1
*
 70
     0
  1
*
  1
*
  0
XRECORD
  5
F8
102
{ACAD_REACTORS
330
15
102
}
100
AcDbXrecord
  1
I
  1
I*
  1
*
  1
*
 70
     0
  1
*
  1
*
  0
XRECORD
  5
F9
102
{ACAD_REACTORS
330
15
102
}
100
AcDbXrecord
  1
il
  1
*
  1
*
  1
*
 70
    48
  1
*
  1
*
  0
XRECORD
  5
FA
102
{ACAD_REACTORS
330
15
102
}
100
AcDbXrecord
  1
ilum
  1
i-*
  1
*
  1
*
 70
     0
  1
*
  1
*
  0
XRECORD
  5
FB
102
{ACAD_REACTORS
330
15
102
}
100
AcDbXrecord
  1
img
  1
*img*
  1
*
  1
*
 70
     0
  1
*
  1
*
  0
XRECORD
  5
FC
102
{ACAD_REACTORS
330
15
102
}
100
AcDbXrecord
  1
inac
  1
*
  1
*
  1
*
 70
     4
  1
*
  1
*
  0
XRECORD
  5
FD
102
{ACAD_REACTORS
330
15
102
}
100
AcDbXrecord
  1
INS
  1
*INS*
  1
*
  1
*
 70
     0
  1
*
  1
*
  0
XRECORD
  5
FE
102
{ACAD_REACTORS
330
15
102
}
100
AcDbXrecord
  1
INST_TECHO
  1
*TECHO
  1
*
  1
*
 70
     0
  1
*
  1
*
  0
XRECORD
  5
FF
102
{ACAD_REACTORS
330
15
102
}
100
AcDbXrecord
  1
INSTALACION_TECHO
  1
*TECHO
  1
*
  1
*
 70
     0
  1
*
  1
*
  0
XRECORD
  5
100
102
{ACAD_REACTORS
330
15
102
}
100
AcDbXrecord
  1
INSTALACIONES_TECHO
  1
*_T
  1
*
  1
*
 70
     0
  1
*
  1
*
  0
XRECORD
  5
101
102
{ACAD_REACTORS
330
15
102
}
100
AcDbXrecord
  1
INU
  1
*
  1
*
  1
*
 70
     4
  1
*
  1
*
  0
XRECORD
  5
102
102
{ACAD_REACTORS
330
15
102
}
100
AcDbXrecord
  1
INUTIIL
  1
*
  1
*
  1
*
 70
     1
  1
*
  1
*
  0
XRECORD
  5
103
102
{ACAD_REACTORS
330
15
102
}
100
AcDbXrecord
  1
jalonamiento
  1
*iento
  1
*
  1
*
 70
     0
  1
*
  1
*
  0
XRECORD
  5
104
102
{ACAD_REACTORS
330
15
102
}
100
AcDbXrecord
  1
k52
  1
*
  1
*
  1
*
 70
     0
  1
*
  1
*
  0
XRECORD
  5
105
102
{ACAD_REACTORS
330
15
102
}
100
AcDbXrecord
  1
KAYDIRAKLAR
  1
KAY-*
  1
*
  1
*
 70
     0
  1
*
  1
*
  0
XRECORD
  5
106
102
{ACAD_REACTORS
330
15
102
}
100
AcDbXrecord
  1
KEY
  1
*KEY*
  1
*
  1
*
 70
     0
  1
*
  1
*
  0
XRECORD
  5
107
102
{ACAD_REACTORS
330
15
102
}
100
AcDbXrecord
  1
KONSOLLAR
  1
KONSOL*
  1
*
  1
*
 70
     0
  1
*
  1
*
  0
XRECORD
  5
108
102
{ACAD_REACTORS
330
15
102
}
100
AcDbXrecord
  1
LABEL
  1
*
  1
C*
  1
*
 70
     3
  1
*
  1
*
  0
XRECORD
  5
109
102
{ACAD_REACTORS
330
15
102
}
100
AcDbXrecord
  1
LAS-UTILES
  1
*
  1
*
  1
*
 70
    12
  1
*
  1
*
  0
XRECORD
  5
10A
102
{ACAD_REACTORS
330
15
102
}
100
AcDbXrecord
  1
LAURA
  1
L*
  1
*
  1
*
 70
     0
  1
*
  1
*
  0
XRECORD
  5
10B
102
{ACAD_REACTORS
330
15
102
}
100
AcDbXrecord
  1
LAZY
  1
*LAZY*
  1
*
  1
*
 70
     0
  1
*
  1
*
  0
XRECORD
  5
10C
102
{ACAD_REACTORS
330
15
102
}
100
AcDbXrecord
  1
LGA
  1
1,2,3,4,R
  1
*
  1
*
 70
     0
  1
*
  1
*
  0
XRECORD
  5
10D
102
{ACAD_REACTORS
330
15
102
}
100
AcDbXrecord
  1
lim
  1
lim*
  1
*
  1
*
 70
     0
  1
*
  1
*
  0
XRECORD
  5
10E
102
{ACAD_REACTORS
330
15
102
}
100
AcDbXrecord
  1
LIMPIO
  1
*|020400,*|169104,*|168116,*|189703,*|168154,*|028112,*|168153,*|168114,*|167458,*|167458,*|145502,*|060370,*|021154,*|160302,*|110308,*|140102,*|160305,*|168123
  1
*
  1
*
 70
     0
  1
*
  1
*
  0
XRECORD
  5
10F
102
{ACAD_REACTORS
330
15
102
}
100
AcDbXrecord
  1
linea fina
  1
*20200
  1
*
  1
*
 70
     0
  1
*
  1
*
  0
XRECORD
  5
110
102
{ACAD_REACTORS
330
15
102
}
100
AcDbXrecord
  1
LINEA GRUESA
  1
*20400
  1
*
  1
*
 70
     0
  1
*
  1
*
  0
XRECORD
  5
111
102
{ACAD_REACTORS
330
15
102
}
100
AcDbXrecord
  1
LINEAS_REFERENCIA
  1
LINEAS_REF*
  1
*
  1
*
 70
     0
  1
*
  1
*
  0
XRECORD
  5
112
102
{ACAD_REACTORS
330
15
102
}
100
AcDbXrecord
  1
LINES
  1
* LINE
  1
*
  1
*
 70
     0
  1
*
  1
*
  0
XRECORD
  5
113
102
{ACAD_REACTORS
330
15
102
}
100
AcDbXrecord
  1
llums
  1
i-*
  1
*
  1
*
 70
     0
  1
*
  1
*
  0
XRECORD
  5
114
102
{ACAD_REACTORS
330
15
102
}
100
AcDbXrecord
  1
LOCKER
  1
*LOCKER*
  1
*
  1
*
 70
     0
  1
*
  1
*
  0
XRECORD
  5
115
102
{ACAD_REACTORS
330
15
102
}
100
AcDbXrecord
  1
lot
  1
p*lot*
  1
*
  1
*
 70
     0
  1
*
  1
*
  0
XRECORD
  5
116
102
{ACAD_REACTORS
330
15
102
}
100
AcDbXrecord
  1
LUNAR
  1
*
  1
*
  1
*
 70
    48
  1
*
  1
*
  0
XRECORD
  5
117
102
{ACAD_REACTORS
330
15
102
}
100
AcDbXrecord
  1
LUNAR2
  1
*
  1
*
  1
*
 70
    12
  1
*
  1
*
  0
XRECORD
  5
118
102
{ACAD_REACTORS
330
15
102
}
100
AcDbXrecord
  1
lvl
  1
*lvl*
  1
*
  1
*
 70
     0
  1
*
  1
*
  0
XRECORD
  5
119
102
{ACAD_REACTORS
330
15
102
}
100
AcDbXrecord
  1
Magenta
  1
*
  1
6
  1
Hidden
 70
    12
  1
*
  1
*
  0
XRECORD
  5
11A
102
{ACAD_REACTORS
330
15
102
}
100
AcDbXrecord
  1
MARCOS
  1
MARCO*
  1
*
  1
*
 70
     0
  1
*
  1
*
  0
XRECORD
  5
11B
102
{ACAD_REACTORS
330
15
102
}
100
AcDbXrecord
  1
MATAS
  1
*matas
  1
*
  1
*
 70
     0
  1
*
  1
*
  0
XRECORD
  5
11C
102
{ACAD_REACTORS
330
15
102
}
100
AcDbXrecord
  1
MATERIALS
  1
M-*
  1
*
  1
*
 70
     0
  1
*
  1
*
  0
XRECORD
  5
11D
102
{ACAD_REACTORS
330
15
102
}
100
AcDbXrecord
  1
Media Tension
  1
Media*
  1
*
  1
*
 70
     0
  1
*
  1
*
  0
XRECORD
  5
11E
102
{ACAD_REACTORS
330
15
102
}
100
AcDbXrecord
  1
MEUS
  1
G-*
  1
*
  1
*
 70
     0
  1
*
  1
*
  0
XRECORD
  5
11F
102
{ACAD_REACTORS
330
15
102
}
100
AcDbXrecord
  1
MEXT
  1
*M_EXT*
  1
*
  1
*
 70
     0
  1
*
  1
*
  0
XRECORD
  5
120
102
{ACAD_REACTORS
330
15
102
}
100
AcDbXrecord
  1
mezz
  1
*mezz*
  1
*
  1
*
 70
     0
  1
*
  1
*
  0
XRECORD
  5
121
102
{ACAD_REACTORS
330
15
102
}
100
AcDbXrecord
  1
mill
  1
*mill*
  1
*
  1
*
 70
     0
  1
*
  1
*
  0
XRECORD
  5
122
102
{ACAD_REACTORS
330
15
102
}
100
AcDbXrecord
  1
MOBILIARIO
  1
MOB*
  1
*
  1
*
 70
     0
  1
*
  1
*
  0
XRECORD
  5
123
102
{ACAD_REACTORS
330
15
102
}
100
AcDbXrecord
  1
MUEBLEPERIMETRAL
  1
*_MU
  1
*
  1
*
 70
     0
  1
*
  1
*
  0
XRECORD
  5
124
102
{ACAD_REACTORS
330
15
102
}
100
AcDbXrecord
  1
MUEBLES
  1
*MUEBLES
  1
*
  1
*
 70
     0
  1
*
  1
*
  0
XRECORD
  5
125
102
{ACAD_REACTORS
330
15
102
}
100
AcDbXrecord
  1
mz
  1
*mz
  1
*
  1
*
 70
     0
  1
*
  1
*
  0
XRECORD
  5
126
102
{ACAD_REACTORS
330
15
102
}
100
AcDbXrecord
  1
N
  1
n*
  1
*
  1
*
 70
     0
  1
*
  1
*
  0
XRECORD
  5
127
102
{ACAD_REACTORS
330
15
102
}
100
AcDbXrecord
  1
n-clav
  1
*n-clav*
  1
*
  1
*
 70
     0
  1
*
  1
*
  0
XRECORD
  5
128
102
{ACAD_REACTORS
330
15
102
}
100
AcDbXrecord
  1
NAME
  1
*RM*
  1
*
  1
*
 70
     0
  1
*
  1
*
  0
XRECORD
  5
129
102
{ACAD_REACTORS
330
15
102
}
100
AcDbXrecord
  1
neal
  1
neal*|*
  1
*
  1
*
 70
     0
  1
*
  1
*
  0
XRECORD
  5
12A
102
{ACAD_REACTORS
330
15
102
}
100
AcDbXrecord
  1
nelf
  1
*nelf*
  1
*
  1
*
 70
     0
  1
*
  1
*
  0
XRECORD
  5
12B
102
{ACAD_REACTORS
330
15
102
}
100
AcDbXrecord
  1
NEW
  1
NEW-*
  1
*
  1
*
 70
     0
  1
*
  1
*
  0
XRECORD
  5
12C
102
{ACAD_REACTORS
330
15
102
}
100
AcDbXrecord
  1
no xref
  1
~*|*
  1
*
  1
*
 70
     0
  1
*
  1
*
  0
XRECORD
  5
12D
102
{ACAD_REACTORS
330
15
102
}
100
AcDbXrecord
  1
NORMAL
  1
*
  1
*
  1
*
 70
     0
  1
*
  1
Normal
  0
XRECORD
  5
12E
102
{ACAD_REACTORS
330
15
102
}
100
AcDbXrecord
  1
NOTE
  1
*NOTE*
  1
*
  1
*
 70
     0
  1
*
  1
*
  0
XRECORD
  5
12F
102
{ACAD_REACTORS
330
15
102
}
100
AcDbXrecord
  1
NUEVA
  1
N-*
  1
*
  1
*
 70
     0
  1
*
  1
*
  0
XRECORD
  5
130
102
{ACAD_REACTORS
330
15
102
}
100
AcDbXrecord
  1
NUEVA_IMPLANTACIÓN
  1
PBN*
  1
*
  1
*
 70
     0
  1
*
  1
*
  0
XRECORD
  5
131
102
{ACAD_REACTORS
330
15
102
}
100
AcDbXrecord
  1
NUEVAS
  1
N-*
  1
*
  1
*
 70
     0
  1
*
  1
*
  0
XRECORD
  5
132
102
{ACAD_REACTORS
330
15
102
}
100
AcDbXrecord
  1
NUEVOS-SERVICIOS
  1
NEW*
  1
*
  1
*
 70
     0
  1
*
  1
*
  0
XRECORD
  5
133
102
{ACAD_REACTORS
330
15
102
}
100
AcDbXrecord
  1
NUM
  1
0*,1*,2*,3*,4*,5*
  1
*
  1
*
 70
     0
  1
*
  1
*
  0
XRECORD
  5
134
102
{ACAD_REACTORS
330
15
102
}
100
AcDbXrecord
  1
OCULT
  1
*OCULT*
  1
*
  1
*
 70
     0
  1
*
  1
*
  0
XRECORD
  5
135
102
{ACAD_REACTORS
330
15
102
}
100
AcDbXrecord
  1
off
  1
*
  1
*
  1
*
 70
     3
  1
*
  1
*
  0
XRECORD
  5
136
102
{ACAD_REACTORS
330
15
102
}
100
AcDbXrecord
  1
OFICINES
  1
*P1P2P3P4P5*
  1
*
  1
*
 70
     0
  1
*
  1
*
  0
XRECORD
  5
137
102
{ACAD_REACTORS
330
15
102
}
100
AcDbXrecord
  1
oi
  1
*stai*
  1
*
  1
*
 70
     0
  1
*
  1
*
  0
XRECORD
  5
138
102
{ACAD_REACTORS
330
15
102
}
100
AcDbXrecord
  1
ON
  1
*
  1
*
  1
*
 70
     1
  1
*
  1
*
  0
XRECORD
  5
139
102
{ACAD_REACTORS
330
15
102
}
100
AcDbXrecord
  1
OU
  1
OU-AREA*,*grid*
  1
*
  1
*
 70
     0
  1
*
  1
*
  0
XRECORD
  5
13A
102
{ACAD_REACTORS
330
15
102
}
100
AcDbXrecord
  1
ou-area
  1
ou-area*
  1
*
  1
*
 70
     0
  1
*
  1
*
  0
XRECORD
  5
13B
102
{ACAD_REACTORS
330
15
102
}
100
AcDbXrecord
  1
OUTY
  1
*
  1
*
  1
*
 70
     7
  1
*
  1
*
  0
XRECORD
  5
13C
102
{ACAD_REACTORS
330
15
102
}
100
AcDbXrecord
  1
p
  1
p*
  1
*
  1
*
 70
     0
  1
*
  1
*
  0
XRECORD
  5
13D
102
{ACAD_REACTORS
330
15
102
}
100
AcDbXrecord
  1
P-1
  1
*P-1
  1
*
  1
*
 70
     0
  1
*
  1
*
  0
XRECORD
  5
13E
102
{ACAD_REACTORS
330
15
102
}
100
AcDbXrecord
  1
p-2
  1
*-2
  1
*
  1
*
 70
     0
  1
*
  1
*
  0
XRECORD
  5
13F
102
{ACAD_REACTORS
330
15
102
}
100
AcDbXrecord
  1
p00
  1
*_p00
  1
*
  1
*
 70
     0
  1
*
  1
*
  0
XRECORD
  5
140
102
{ACAD_REACTORS
330
15
102
}
100
AcDbXrecord
  1
p01
  1
*_p01
  1
*
  1
*
 70
     0
  1
*
  1
*
  0
XRECORD
  5
141
102
{ACAD_REACTORS
330
15
102
}
100
AcDbXrecord
  1
p02
  1
*_p02
  1
*
  1
*
 70
     0
  1
*
  1
*
  0
XRECORD
  5
142
102
{ACAD_REACTORS
330
15
102
}
100
AcDbXrecord
  1
p03
  1
*_p03
  1
*
  1
*
 70
     0
  1
*
  1
*
  0
XRECORD
  5
143
102
{ACAD_REACTORS
330
15
102
}
100
AcDbXrecord
  1
P05
  1
*P05
  1
*
  1
*
 70
     0
  1
*
  1
*
  0
XRECORD
  5
144
102
{ACAD_REACTORS
330
15
102
}
100
AcDbXrecord
  1
P1
  1
*P1*
  1
*
  1
*
 70
     0
  1
*
  1
*
  0
XRECORD
  5
145
102
{ACAD_REACTORS
330
15
102
}
100
AcDbXrecord
  1
p1401
  1
p14*p01
  1
*
  1
*
 70
     0
  1
*
  1
*
  0
XRECORD
  5
146
102
{ACAD_REACTORS
330
15
102
}
100
AcDbXrecord
  1
p14p-2
  1
p14*p-2
  1
*
  1
*
 70
     0
  1
*
  1
*
  0
XRECORD
  5
147
102
{ACAD_REACTORS
330
15
102
}
100
AcDbXrecord
  1
p14p00
  1
p14*p00
  1
*
  1
*
 70
     0
  1
*
  1
*
  0
XRECORD
  5
148
102
{ACAD_REACTORS
330
15
102
}
100
AcDbXrecord
  1
P2
  1
*P2*
  1
*
  1
*
 70
     0
  1
*
  1
*
  0
XRECORD
  5
149
102
{ACAD_REACTORS
330
15
102
}
100
AcDbXrecord
  1
P3
  1
*P3*
  1
*
  1
*
 70
     0
  1
*
  1
*
  0
XRECORD
  5
14A
102
{ACAD_REACTORS
330
15
102
}
100
AcDbXrecord
  1
p4
  1
*p4*
  1
*
  1
*
 70
     0
  1
*
  1
*
  0
XRECORD
  5
14B
102
{ACAD_REACTORS
330
15
102
}
100
AcDbXrecord
  1
P5
  1
P5*
  1
*
  1
*
 70
     0
  1
*
  1
*
  0
XRECORD
  5
14C
102
{ACAD_REACTORS
330
15
102
}
100
AcDbXrecord
  1
Pa
  1
*Pa*
  1
*
  1
*
 70
     0
  1
*
  1
*
  0
XRECORD
  5
14D
102
{ACAD_REACTORS
330
15
102
}
100
AcDbXrecord
  1
Parcela
  1
Parcela*
  1
*
  1
*
 70
     0
  1
*
  1
*
  0
XRECORD
  5
14E
102
{ACAD_REACTORS
330
15
102
}
100
AcDbXrecord
  1
PARKING
  1
PARK*
  1
*
  1
*
 70
     0
  1
*
  1
*
  0
XRECORD
  5
14F
102
{ACAD_REACTORS
330
15
102
}
100
AcDbXrecord
  1
PARTITIONS
  1
*PART
  1
*
  1
*
 70
     0
  1
*
  1
*
  0
XRECORD
  5
150
102
{ACAD_REACTORS
330
15
102
}
100
AcDbXrecord
  1
pasillo
  1
p*
  1
*
  1
*
 70
     0
  1
*
  1
*
  0
XRECORD
  5
151
102
{ACAD_REACTORS
330
15
102
}
100
AcDbXrecord
  1
patt
  1
*patt*
  1
*
  1
*
 70
     0
  1
*
  1
*
  0
XRECORD
  5
152
102
{ACAD_REACTORS
330
15
102
}
100
AcDbXrecord
  1
PAU
  1
*
  1
*
  1
*
 70
     1
  1
*
  1
*
  0
XRECORD
  5
153
102
{ACAD_REACTORS
330
15
102
}
100
AcDbXrecord
  1
pb
  1
*pb*
  1
*
  1
*
 70
     0
  1
*
  1
*
  0
XRECORD
  5
154
102
{ACAD_REACTORS
330
15
102
}
100
AcDbXrecord
  1
PEPE
  1
0,CARPIN,FACHADA,SOLERIA,SECCION,MOBIL
  1
*
  1
*
 70
     0
  1
*
  1
*
  0
XRECORD
  5
155
102
{ACAD_REACTORS
330
15
102
}
100
AcDbXrecord
  1
PIANOS
  1
*PIANO
  1
*
  1
*
 70
     0
  1
*
  1
*
  0
XRECORD
  5
156
102
{ACAD_REACTORS
330
15
102
}
100
AcDbXrecord
  1
pieza de cristal
  1
k*
  1
*
  1
*
 70
     0
  1
*
  1
*
  0
XRECORD
  5
157
102
{ACAD_REACTORS
330
15
102
}
100
AcDbXrecord
  1
pilares
  1
p*
  1
*
  1
*
 70
     0
  1
*
  1
*
  0
XRECORD
  5
158
102
{ACAD_REACTORS
330
15
102
}
100
AcDbXrecord
  1
PILARESZ2
  1
PIL-Z2*,PICU-Z2*
  1
*
  1
*
 70
     0
  1
*
  1
*
  0
XRECORD
  5
159
102
{ACAD_REACTORS
330
15
102
}
100
AcDbXrecord
  1
pipes
  1
pipe*
  1
*
  1
*
 70
     0
  1
*
  1
*
  0
XRECORD
  5
15A
102
{ACAD_REACTORS
330
15
102
}
100
AcDbXrecord
  1
Pipes1
  1
pipes1*
  1
*
  1
*
 70
     0
  1
*
  1
*
  0
XRECORD
  5
15B
102
{ACAD_REACTORS
330
15
102
}
100
AcDbXrecord
  1
PIPING PLAN2
  1
DECKDRAIN FEED,DECKDRAIN,PIPING,SKIMMER,XBASE$0$MAINDRAIN,XBASE$0$RETURN
  1
*
  1
*
 70
     0
  1
*
  1
*
  0
XRECORD
  5
15C
102
{ACAD_REACTORS
330
15
102
}
100
AcDbXrecord
  1
pl
  1
pl*
  1
*
  1
*
 70
     0
  1
*
  1
*
  0
XRECORD
  5
15D
102
{ACAD_REACTORS
330
15
102
}
100
AcDbXrecord
  1
PLAKALAR
  1
PLAKA*
  1
*
  1
*
 70
     0
  1
*
  1
*
  0
XRECORD
  5
15E
102
{ACAD_REACTORS
330
15
102
}
100
AcDbXrecord
  1
PLAN
  1
*
  1
*
  1
*
 70
    12
  1
*
  1
*
  0
XRECORD
  5
15F
102
{ACAD_REACTORS
330
15
102
}
100
AcDbXrecord
  1
PLAN-PARCIAL
  1
PP*
  1
*
  1
*
 70
     0
  1
*
  1
*
  0
XRECORD
  5
160
102
{ACAD_REACTORS
330
15
102
}
100
AcDbXrecord
  1
Planta baja
  1
Pbn_*
  1
*
  1
*
 70
     0
  1
*
  1
*
  0
XRECORD
  5
161
102
{ACAD_REACTORS
330
15
102
}
100
AcDbXrecord
  1
Planta baja ACT
  1
Pb_*
  1
*
  1
*
 70
     0
  1
*
  1
*
  0
XRECORD
  5
162
102
{ACAD_REACTORS
330
15
102
}
100
AcDbXrecord
  1
Planta Subsuelo
  1
Psn_*
  1
*
  1
*
 70
     0
  1
*
  1
*
  0
XRECORD
  5
163
102
{ACAD_REACTORS
330
15
102
}
100
AcDbXrecord
  1
Planta técnica
  1
Ptn_*
  1
*
  1
*
 70
     0
  1
*
  1
*
  0
XRECORD
  5
164
102
{ACAD_REACTORS
330
15
102
}
100
AcDbXrecord
  1
PLANTAS
  1
Z*
  1
*
  1
*
 70
     0
  1
*
  1
*
  0
XRECORD
  5
165
102
{ACAD_REACTORS
330
15
102
}
100
AcDbXrecord
  1
PLOT
  1
UNIT*COL*
  1
*
  1
*
 70
     0
  1
*
  1
*
  0
XRECORD
  5
166
102
{ACAD_REACTORS
330
15
102
}
100
AcDbXrecord
  1
ploteo
  1
*
  1
*
  1
*
 70
    12
  1
*
  1
*
  0
XRECORD
  5
167
102
{ACAD_REACTORS
330
15
102
}
100
AcDbXrecord
  1
Pluviales
  1
Pluviales*
  1
*
  1
*
 70
     0
  1
*
  1
*
  0
XRECORD
  5
168
102
{ACAD_REACTORS
330
15
102
}
100
AcDbXrecord
  1
POLILINEAS
  1
POL*
  1
*
  1
*
 70
     0
  1
*
  1
*
  0
XRECORD
  5
169
102
{ACAD_REACTORS
330
15
102
}
100
AcDbXrecord
  1
PONT
  1
PONT*
  1
*
  1
*
 70
     0
  1
*
  1
*
  0
XRECORD
  5
16A
102
{ACAD_REACTORS
330
15
102
}
100
AcDbXrecord
  1
POOL
  1
A-POOL*
  1
*
  1
*
 70
     0
  1
*
  1
*
  0
XRECORD
  5
16B
102
{ACAD_REACTORS
330
15
102
}
100
AcDbXrecord
  1
Popopo
  1
*
  1
*
  1
*
 70
     0
  1
*
  1
*
  0
XRECORD
  5
16C
102
{ACAD_REACTORS
330
15
102
}
100
AcDbXrecord
  1
Pozos_Agua
  1
Pozos_A*
  1
*
  1
*
 70
     0
  1
*
  1
*
  0
XRECORD
  5
16D
102
{ACAD_REACTORS
330
15
102
}
100
AcDbXrecord
  1
Pozos_Fecales
  1
Pozos_Fe*
  1
*
  1
*
 70
     0
  1
*
  1
*
  0
XRECORD
  5
16E
102
{ACAD_REACTORS
330
15
102
}
100
AcDbXrecord
  1
Pozos_pluviales
  1
Pozos_Pl*
  1
*
  1
*
 70
     0
  1
*
  1
*
  0
XRECORD
  5
16F
102
{ACAD_REACTORS
330
15
102
}
100
AcDbXrecord
  1
Pq
  1
*Pq*
  1
*
  1
*
 70
     0
  1
*
  1
*
  0
XRECORD
  5
170
102
{ACAD_REACTORS
330
15
102
}
100
AcDbXrecord
  1
PR
  1
X-NIVEL1*
  1
10
  1
*
 70
    13
  1
*
  1
*
  0
XRECORD
  5
171
102
{ACAD_REACTORS
330
15
102
}
100
AcDbXrecord
  1
PROGEST
  1
PRO-*
  1
*
  1
*
 70
     0
  1
*
  1
*
  0
XRECORD
  5
172
102
{ACAD_REACTORS
330
15
102
}
100
AcDbXrecord
  1
PROJ-URBANITZACIO
  1
PU*
  1
*
  1
*
 70
     0
  1
*
  1
*
  0
XRECORD
  5
173
102
{ACAD_REACTORS
330
15
102
}
100
AcDbXrecord
  1
PROYECCCIONES
  1
PROY_*
  1
*
  1
*
 70
     0
  1
*
  1
*
  0
XRECORD
  5
174
102
{ACAD_REACTORS
330
15
102
}
100
AcDbXrecord
  1
PRUEBA
  1
*|020400
  1
*
  1
*
 70
     0
  1
*
  1
*
  0
XRECORD
  5
175
102
{ACAD_REACTORS
330
15
102
}
100
AcDbXrecord
  1
PRUEBA3
  1
*|020400,*|169104
  1
*
  1
*
 70
     0
  1
*
  1
*
  0
XRECORD
  5
176
102
{ACAD_REACTORS
330
15
102
}
100
AcDbXrecord
  1
PUERTAS
  1
PUERTAS
  1
*
  1
*
 70
     0
  1
*
  1
*
  0
XRECORD
  5
177
102
{ACAD_REACTORS
330
15
102
}
100
AcDbXrecord
  1
RAIL
  1
*RAIL*
  1
*
  1
*
 70
     0
  1
*
  1
*
  0
XRECORD
  5
178
102
{ACAD_REACTORS
330
15
102
}
100
AcDbXrecord
  1
RCP
  1
*
  1
*
  1
*
 70
     0
  1
*
  1
*
  0
XRECORD
  5
179
102
{ACAD_REACTORS
330
15
102
}
100
AcDbXrecord
  1
red
  1
*
  1
1
  1
*
 70
    12
  1
*
  1
*
  0
XRECORD
  5
17A
102
{ACAD_REACTORS
330
15
102
}
100
AcDbXrecord
  1
REFERENCIA
  1
*_46
  1
*
  1
*
 70
     0
  1
*
  1
*
  0
XRECORD
  5
17B
102
{ACAD_REACTORS
330
15
102
}
100
AcDbXrecord
  1
RELLENO
  1
RELLENO_*
  1
*
  1
*
 70
     0
  1
*
  1
*
  0
XRECORD
  5
17C
102
{ACAD_REACTORS
330
15
102
}
100
AcDbXrecord
  1
RELLENOS
  1
RELL*
  1
*
  1
*
 70
     0
  1
*
  1
*
  0
XRECORD
  5
17D
102
{ACAD_REACTORS
330
15
102
}
100
AcDbXrecord
  1
REPLANTEO
  1
REP*
  1
*
  1
*
 70
     0
  1
*
  1
*
  0
XRECORD
  5
17E
102
{ACAD_REACTORS
330
15
102
}
100
AcDbXrecord
  1
Riego
  1
Riego*
  1
*
  1
*
 70
     0
  1
*
  1
*
  0
XRECORD
  5
17F
102
{ACAD_REACTORS
330
15
102
}
100
AcDbXrecord
  1
RMTAGS
  1
R*
  1
*
  1
*
 70
     0
  1
*
  1
*
  0
XRECORD
  5
180
102
{ACAD_REACTORS
330
15
102
}
100
AcDbXrecord
  1
room
  1
*room*
  1
*
  1
*
 70
     0
  1
*
  1
*
  0
XRECORD
  5
181
102
{ACAD_REACTORS
330
15
102
}
100
AcDbXrecord
  1
ROTULACION
  1
ROT*
  1
*
  1
*
 70
     0
  1
*
  1
*
  0
XRECORD
  5
182
102
{ACAD_REACTORS
330
15
102
}
100
AcDbXrecord
  1
S
  1
S*
  1
*
  1
*
 70
     0
  1
*
  1
*
  0
XRECORD
  5
183
102
{ACAD_REACTORS
330
15
102
}
100
AcDbXrecord
  1
S1
  1
*S1*
  1
*
  1
*
 70
     0
  1
*
  1
*
  0
XRECORD
  5
184
102
{ACAD_REACTORS
330
15
102
}
100
AcDbXrecord
  1
S2
  1
*S2*
  1
*
  1
*
 70
     0
  1
*
  1
*
  0
XRECORD
  5
185
102
{ACAD_REACTORS
330
15
102
}
100
AcDbXrecord
  1
SAA
  1
*SAA*
  1
*
  1
*
 70
     0
  1
*
  1
*
  0
XRECORD
  5
186
102
{ACAD_REACTORS
330
15
102
}
100
AcDbXrecord
  1
SANEAMIENTO
  1
SAN*
  1
*
  1
*
 70
     0
  1
*
  1
*
  0
XRECORD
  5
187
102
{ACAD_REACTORS
330
15
102
}
100
AcDbXrecord
  1
scale200
  1
*wind*,*clad*,*stone*,*stee*
  1
*
  1
*
 70
     0
  1
*
  1
*
  0
XRECORD
  5
188
102
{ACAD_REACTORS
330
15
102
}
100
AcDbXrecord
  1
se
  1
s*
  1
*
  1
*
 70
     0
  1
*
  1
*
  0
XRECORD
  5
189
102
{ACAD_REACTORS
330
15
102
}
100
AcDbXrecord
  1
SE100
  1
SE-100*
  1
*
  1
*
 70
     0
  1
*
  1
*
  0
XRECORD
  5
18A
102
{ACAD_REACTORS
330
15
102
}
100
AcDbXrecord
  1
secc
  1
stran*
  1
*
  1
*
 70
     0
  1
*
  1
*
  0
XRECORD
  5
18B
102
{ACAD_REACTORS
330
15
102
}
100
AcDbXrecord
  1
SECCIO
  1
*s0*
  1
*
  1
*
 70
     0
  1
*
  1
*
  0
XRECORD
  5
18C
102
{ACAD_REACTORS
330
15
102
}
100
AcDbXrecord
  1
SECCION
  1
SEC*
  1
*
  1
*
 70
     0
  1
*
  1
*
  0
XRECORD
  5
18D
102
{ACAD_REACTORS
330
15
102
}
100
AcDbXrecord
  1
segunda
  1
*
  1
*
  1
*
 70
     0
  1
*
  1
*
  0
XRECORD
  5
18E
102
{ACAD_REACTORS
330
15
102
}
100
AcDbXrecord
  1
segundabis
  1
*
  1
*
  1
*
 70
     0
  1
*
  1
*
  0
XRECORD
  5
18F
102
{ACAD_REACTORS
330
15
102
}
100
AcDbXrecord
  1
seny_horit
  1
*|529
  1
*
  1
*
 70
     0
  1
*
  1
*
  0
XRECORD
  5
190
102
{ACAD_REACTORS
330
15
102
}
100
AcDbXrecord
  1
SERVI
  1
EXIS-*
  1
*
  1
*
 70
     0
  1
*
  1
*
  0
XRECORD
  5
191
102
{ACAD_REACTORS
330
15
102
}
100
AcDbXrecord
  1
SILLAS
  1
*SILLAS
  1
*
  1
*
 70
     0
  1
*
  1
*
  0
XRECORD
  5
192
102
{ACAD_REACTORS
330
15
102
}
100
AcDbXrecord
  1
site
  1
*site*
  1
*
  1
*
 70
     0
  1
*
  1
*
  0
XRECORD
  5
193
102
{ACAD_REACTORS
330
15
102
}
100
AcDbXrecord
  1
SOLADOS
  1
SOL*
  1
*
  1
*
 70
     0
  1
*
  1
*
  0
XRECORD
  5
194
102
{ACAD_REACTORS
330
15
102
}
100
AcDbXrecord
  1
SOLO CAPA
  1
*
  1
*
  1
*
 70
     3
  1
*
  1
*
  0
XRECORD
  5
195
102
{ACAD_REACTORS
330
15
102
}
100
AcDbXrecord
  1
space planning
  1
*sp*
  1
*
  1
*
 70
     0
  1
*
  1
*
  0
XRECORD
  5
196
102
{ACAD_REACTORS
330
15
102
}
100
AcDbXrecord
  1
STR
  1
STR*
  1
*
  1
*
 70
     0
  1
*
  1
*
  0
XRECORD
  5
197
102
{ACAD_REACTORS
330
15
102
}
100
AcDbXrecord
  1
structural
  1
str*
  1
*
  1
*
 70
     0
  1
*
  1
*
  0
XRECORD
  5
198
102
{ACAD_REACTORS
330
15
102
}
100
AcDbXrecord
  1
STRUCTURE
  1
??STR???????*
  1
*
  1
*
 70
     0
  1
*
  1
*
  0
XRECORD
  5
199
102
{ACAD_REACTORS
330
15
102
}
100
AcDbXrecord
  1
SU
  1
*
  1
*
  1
*
 70
     0
  1
*
  1
*
  0
XRECORD
  5
19A
102
{ACAD_REACTORS
330
15
102
}
100
AcDbXrecord
  1
SUELO
  1
SUEL*
  1
*
  1
*
 70
     0
  1
*
  1
*
  0
XRECORD
  5
19B
102
{ACAD_REACTORS
330
15
102
}
100
AcDbXrecord
  1
sup01
  1
001_*
  1
*
  1
*
 70
     0
  1
*
  1
*
  0
XRECORD
  5
19C
102
{ACAD_REACTORS
330
15
102
}
100
AcDbXrecord
  1
sup02
  1
002_*
  1
*
  1
*
 70
     0
  1
*
  1
*
  0
XRECORD
  5
19D
102
{ACAD_REACTORS
330
15
102
}
100
AcDbXrecord
  1
sup03
  1
003_*
  1
*
  1
*
 70
     0
  1
*
  1
*
  0
XRECORD
  5
19E
102
{ACAD_REACTORS
330
15
102
}
100
AcDbXrecord
  1
sup04
  1
004_*
  1
*
  1
*
 70
     0
  1
*
  1
*
  0
XRECORD
  5
19F
102
{ACAD_REACTORS
330
15
102
}
100
AcDbXrecord
  1
superficies
  1
sup*
  1
*
  1
*
 70
     0
  1
*
  1
*
  0
XRECORD
  5
1A0
102
{ACAD_REACTORS
330
15
102
}
100
AcDbXrecord
  1
T
  1
T*
  1
*
  1
*
 70
     0
  1
*
  1
*
  0
XRECORD
  5
1A1
102
{ACAD_REACTORS
330
15
102
}
100
AcDbXrecord
  1
T_A
  1
T_A*
  1
*
  1
*
 70
     0
  1
*
  1
*
  0
XRECORD
  5
1A2
102
{ACAD_REACTORS
330
15
102
}
100
AcDbXrecord
  1
T_C
  1
T_C*
  1
*
  1
*
 70
     0
  1
*
  1
*
  0
XRECORD
  5
1A3
102
{ACAD_REACTORS
330
15
102
}
100
AcDbXrecord
  1
TAJEAS
  1
TAJEA*
  1
*
  1
*
 70
     0
  1
*
  1
*
  0
XRECORD
  5
1A4
102
{ACAD_REACTORS
330
15
102
}
100
AcDbXrecord
  1
talleres
  1
t*
  1
*
  1
*
 70
     0
  1
*
  1
*
  0
XRECORD
  5
1A5
102
{ACAD_REACTORS
330
15
102
}
100
AcDbXrecord
  1
TAQUIMETRICO
  1
TAQ*
  1
*
  1
*
 70
     0
  1
*
  1
*
  0
XRECORD
  5
1A6
102
{ACAD_REACTORS
330
15
102
}
100
AcDbXrecord
  1
TECHOS
  1
*_T
  1
*
  1
*
 70
     0
  1
*
  1
*
  0
XRECORD
  5
1A7
102
{ACAD_REACTORS
330
15
102
}
100
AcDbXrecord
  1
TELE
  1
TELE*
  1
*
  1
*
 70
     0
  1
*
  1
*
  0
XRECORD
  5
1A8
102
{ACAD_REACTORS
330
15
102
}
100
AcDbXrecord
  1
temp
  1
*
  1
253,252
  1
*
 70
     0
  1
*
  1
*
  0
XRECORD
  5
1A9
102
{ACAD_REACTORS
330
15
102
}
100
AcDbXrecord
  1
text
  1
*text*
  1
*
  1
*
 70
     0
  1
*
  1
*
  0
XRECORD
  5
1AA
102
{ACAD_REACTORS
330
15
102
}
100
AcDbXrecord
  1
TEXTO
  1
*TEXTO
  1
80
  1
*
 70
    13
  1
*
  1
*
  0
XRECORD
  5
1AB
102
{ACAD_REACTORS
330
15
102
}
100
AcDbXrecord
  1
Thawed
  1
*
  1
*
  1
*
 70
    12
  1
*
  1
*
  0
XRECORD
  5
1AC
102
{ACAD_REACTORS
330
15
102
}
100
AcDbXrecord
  1
tmp
  1
*tmp*
  1
*
  1
*
 70
     0
  1
*
  1
*
  0
XRECORD
  5
1AD
102
{ACAD_REACTORS
330
15
102
}
100
AcDbXrecord
  1
topo
  1
topo*
  1
*
  1
*
 70
     0
  1
*
  1
*
  0
XRECORD
  5
1AE
102
{ACAD_REACTORS
330
15
102
}
100
AcDbXrecord
  1
TOPOGRAFIA
  1
TOP*
  1
*
  1
*
 70
     0
  1
*
  1
*
  0
XRECORD
  5
1AF
102
{ACAD_REACTORS
330
15
102
}
100
AcDbXrecord
  1
trabajo
  1
*
  1
*
  1
*
 70
     0
  1
*
  1
*
  0
XRECORD
  5
1B0
102
{ACAD_REACTORS
330
15
102
}
100
AcDbXrecord
  1
tram
  1
*tram*
  1
*
  1
*
 70
     0
  1
*
  1
*
  0
XRECORD
  5
1B1
102
{ACAD_REACTORS
330
15
102
}
100
AcDbXrecord
  1
trama
  1
*trama*
  1
*
  1
*
 70
     0
  1
*
  1
*
  0
XRECORD
  5
1B2
102
{ACAD_REACTORS
330
15
102
}
100
AcDbXrecord
  1
TRAMA-FAÇANA
  1
*
  1
*
  1
*
 70
     0
  1
*
  1
*
  0
XRECORD
  5
1B3
102
{ACAD_REACTORS
330
15
102
}
100
AcDbXrecord
  1
tramas
  1
*tramas*
  1
*
  1
*
 70
     0
  1
*
  1
*
  0
XRECORD
  5
1B4
102
{ACAD_REACTORS
330
15
102
}
100
AcDbXrecord
  1
TRAMES
  1
*tra*
  1
*
  1
*
 70
     0
  1
*
  1
*
  0
XRECORD
  5
1B5
102
{ACAD_REACTORS
330
15
102
}
100
AcDbXrecord
  1
TREAD
  1
*TREAD*
  1
*
  1
*
 70
     0
  1
*
  1
*
  0
XRECORD
  5
1B6
102
{ACAD_REACTORS
330
15
102
}
100
AcDbXrecord
  1
TUB
  1
TUB*
  1
*
  1
*
 70
     0
  1
*
  1
*
  0
XRECORD
  5
1B7
102
{ACAD_REACTORS
330
15
102
}
100
AcDbXrecord
  1
uiskas
  1
*
  1
*
  1
*
 70
     1
  1
*
  1
*
  0
XRECORD
  5
1B8
102
{ACAD_REACTORS
330
15
102
}
100
AcDbXrecord
  1
uni
  1
*unit*
  1
*
  1
*
 70
     0
  1
*
  1
*
  0
XRECORD
  5
1B9
102
{ACAD_REACTORS
330
15
102
}
100
AcDbXrecord
  1
URB
  1
*P2*
  1
*
  1
*
 70
     0
  1
*
  1
*
  0
XRECORD
  5
1BA
102
{ACAD_REACTORS
330
15
102
}
100
AcDbXrecord
  1
urban
  1
1*
  1
*
  1
*
 70
     0
  1
*
  1
*
  0
XRECORD
  5
1BB
102
{ACAD_REACTORS
330
15
102
}
100
AcDbXrecord
  1
URBANIZACION
  1
URB*
  1
*
  1
*
 70
     0
  1
*
  1
*
  0
XRECORD
  5
1BC
102
{ACAD_REACTORS
330
15
102
}
100
AcDbXrecord
  1
USOS_MUEBLES
  1
*_UM
  1
*
  1
*
 70
     0
  1
*
  1
*
  0
XRECORD
  5
1BD
102
{ACAD_REACTORS
330
15
102
}
100
AcDbXrecord
  1
Utilizadas
  1
*
  1
*
  1
*
 70
    12
  1
*
  1
*
  0
XRECORD
  5
1BE
102
{ACAD_REACTORS
330
15
102
}
100
AcDbXrecord
  1
VESTUARIOS_ENTRADA
  1
*_VT
  1
*
  1
*
 70
     0
  1
*
  1
*
  0
XRECORD
  5
1BF
102
{ACAD_REACTORS
330
15
102
}
100
AcDbXrecord
  1
vistas
  1
*
  1
*
  1
*
 70
     4
  1
*
  1
*
  0
XRECORD
  5
1C0
102
{ACAD_REACTORS
330
15
102
}
100
AcDbXrecord
  1
VMULT
  1
*VMU*
  1
*
  1
*
 70
     0
  1
*
  1
*
  0
XRECORD
  5
1C1
102
{ACAD_REACTORS
330
15
102
}
100
AcDbXrecord
  1
VP
  1
V*
  1
*
  1
*
 70
     0
  1
*
  1
*
  0
XRECORD
  5
1C2
102
{ACAD_REACTORS
330
15
102
}
100
AcDbXrecord
  1
WALL
  1
*WALL*
  1
*
  1
*
 70
     0
  1
*
  1
*
  0
XRECORD
  5
1C3
102
{ACAD_REACTORS
330
15
102
}
100
AcDbXrecord
  1
WDW
  1
*WDW*
  1
*
  1
*
 70
     0
  1
*
  1
*
  0
XRECORD
  5
1C4
102
{ACAD_REACTORS
330
15
102
}
100
AcDbXrecord
  1
we
  1
*sym*
  1
*
  1
*
 70
     0
  1
*
  1
*
  0
XRECORD
  5
1C5
102
{ACAD_REACTORS
330
15
102
}
100
AcDbXrecord
  1
white
  1
*
  1
7
  1
*
 70
    12
  1
*
  1
*
  0
XRECORD
  5
1C6
102
{ACAD_REACTORS
330
15
102
}
100
AcDbXrecord
  1
window
  1
*wdw*
  1
*
  1
*
 70
     0
  1
*
  1
*
  0
XRECORD
  5
1C7
102
{ACAD_REACTORS
330
15
102
}
100
AcDbXrecord
  1
X
  1
*_*X*
  1
*
  1
*
 70
     0
  1
*
  1
*
  0
XRECORD
  5
1C8
102
{ACAD_REACTORS
330
15
102
}
100
AcDbXrecord
  1
XREF
  1
XREF*
  1
*
  1
*
 70
     0
  1
*
  1
*
  0
XRECORD
  5
1C9
102
{ACAD_REACTORS
330
15
102
}
100
AcDbXrecord
  1
YARDIMLAR
  1
*YARDIM
  1
*
  1
*
 70
     0
  1
*
  1
*
  0
XRECORD
  5
1CA
102
{ACAD_REACTORS
330
15
102
}
100
AcDbXrecord
  1
yo
  1
*somb*
  1
*
  1
*
 70
     0
  1
*
  1
*
  0
XRECORD
  5
1CB
102
{ACAD_REACTORS
330
15
102
}
100
AcDbXrecord
  1
yuzeyler
  1
*-yuzey*
  1
*
  1
*
 70
     0
  1
*
  1
*
  0
XRECORD
  5
1CC
102
{ACAD_REACTORS
330
15
102
}
100
AcDbXrecord
  1
YÜZEYLER
  1
*YUZ*
  1
*
  1
*
 70
     0
  1
*
  1
*
  0
XRECORD
  5
1E4
102
{ACAD_REACTORS
330
1E3
102
}
100
AcDbXrecord
102
EXTNAMES
  1
STANDARD
  2
Standard
  0
XRECORD
  5
17
102
{ACAD_REACTORS
330
16
102
}
100
AcDbXrecord
102
EXTNAMES
  1
__
  2
++
  1
-DETALLES
  2
-detalles
  1
00TRF
  2
00trf
  1
04CUBIERTAS
  2
04cubiertas
  1
2_PLAN_ESPECIAL
  2
2_PLAN ESPECIAL
  1
3D
  2
3d
  1
3D_LAYERS
  2
3D LAYERS
  1
_P00
  2
_p00
  1
A-FLOR
  2
A-Flor
  1
A_
  2
a_
  1
AA_FT
  2
AA_ft
  1
AAA
  2
aaa
  1
ACT
  2
act
  1
ACTIVADAS
  2
Activadas
  1
AE
  2
ae
  1
AGUA
  2
Agua
  1
ALERO
  2
alero
  1
ALLE-SCHÜCO-LAYER
  2
alle-schüco-layer
  1
ALLE-SICHTBAREN-LAYER
  2
alle-sichtbaren-layer
  1
AMARILLO
  2
amarillo
  1
AN
  2
an
  1
AQ
  2
aq
  1
AQ-
  2
aq-
  1
ARBRES
  2
arbres
  1
AREA
  2
area
  1
ARQUETAS
  2
Arquetas
  1
B1
  2
b1
  1
BARRACONES
  2
barracones
  1
BASE
  2
base
  1
BLOQ
  2
bloq
  1
BLOQUEADA
  2
bloqueada
  1
BLOQUEADAS
  2
bloqueadas
  1
C-
  2
c-
  1
CAPA_0
  2
capa 0
  1
CAPAS_ACTIVADAS
  2
capas activadas
  1
CAPAS_DESACTIVADAS
  2
capas desactivadas
  1
CAPAS_P1
  2
capas p1
  1
CAR
  2
car
  1
CARTOGRAFIA
  2
cartografia
  1
CEL
  2
cel
  1
CEL-RAS
  2
cel-ras
  1
CIAN
  2
cian
  1
CLG
  2
clg
  1
COLOR
  2
color
  1
COLOR_8
  2
COLOR 8
  1
COLOR_9
  2
color 9
  1
COLOR-8
  2
color-8
  1
COM
  2
com
  1
CONTOURS1
  2
contours1
  1
COTA
  2
Cota
  1
COULEUR
  2
couleur
  1
CURVA
  2
curva
  1
CYCL
  2
cycl
  1
DEL_DIBUJO
  2
Del dibujo
  1
DEMO
  2
demo
  1
DES
  2
des
  1
DETALLE
  2
detalle
  1
DETALLES
  2
detalles
  1
DIMS
  2
dims
  1
DOORS
  2
doors
  1
DRENAGEM
  2
drenagem
  1
EIXOS
  2
eixos
  1
EJE
  2
eje
  1
ELECT
  2
elect
  1
ELLIPSE
  2
ellipse
  1
ENTORN
  2
entorn
  1
ENTRAMADO-FACHADAS
  2
Entramado-Fachadas
  1
EQ
  2
eq
  1
ESCALA_1-50
  2
escala 1-50
  1
ESCALATOR
  2
escalator
  1
ESPAI_VERD
  2
ESPAI VERD
  1
ESTRU00
  2
estru00
  1
ESTRUCTURAS
  2
estructuras
  1
EXTERIOR
  2
exterior
  1
FALL
  2
fall
  1
FANCOIL
  2
fancoil
  1
FECALES
  2
Fecales
  1
FF200M
  2
ff200m
  1
FIRE
  2
fire
  1
FLOOR
  2
Floor
  1
FREEZE
  2
freeze
  1
FROZEN
  2
Frozen
  1
FURN
  2
furn
  1
FUS
  2
fus
  1
GAS
  2
Gas
  1
GEL
  2
gel
  1
GILLTEMP
  2
gilltemp
  1
GREEN
  2
green
  1
GRID
  2
grid
  1
GRIS8
  2
gris8
  1
GRIS9
  2
gris9
  1
GRISES
  2
grises
  1
GRO
  2
gro
  1
H-
  2
h-
  1
HOJAS
  2
hojas
  1
IL
  2
il
  1
ILUM
  2
ilum
  1
IMG
  2
img
  1
INAC
  2
inac
  1
JALONAMIENTO
  2
jalonamiento
  1
K52
  2
k52
  1
LIM
  2
lim
  1
LINEA_FINA
  2
linea fina
  1
LINEA_GRUESA
  2
LINEA GRUESA
  1
LLUMS
  2
llums
  1
LOT
  2
lot
  1
LVL
  2
lvl
  1
MAGENTA
  2
Magenta
  1
MEDIA_TENSION
  2
Media Tension
  1
MEZZ
  2
mezz
  1
MILL
  2
mill
  1
MZ
  2
mz
  1
N-CLAV
  2
n-clav
  1
NEAL
  2
neal
  1
NELF
  2
nelf
  1
NO_XREF
  2
no xref
  1
OFF
  2
off
  1
OI
  2
oi
  1
OU-AREA
  2
ou-area
  1
P
  2
p
  1
P-2
  2
p-2
  1
P00
  2
p00
  1
P01
  2
p01
  1
P02
  2
p02
  1
P03
  2
p03
  1
P1401
  2
p1401
  1
P14P-2
  2
p14p-2
  1
P14P00
  2
p14p00
  1
P4
  2
p4
  1
PA
  2
Pa
  1
PARCELA
  2
Parcela
  1
PASILLO
  2
pasillo
  1
PATT
  2
patt
  1
PB
  2
pb
  1
PIEZA_DE_CRISTAL
  2
pieza de cristal
  1
PILARES
  2
pilares
  1
PIPES
  2
pipes
  1
PIPES1
  2
Pipes1
  1
PIPING_PLAN2
  2
PIPING PLAN2
  1
PL
  2
pl
  1
PLANTA_BAJA
  2
Planta baja
  1
PLANTA_BAJA_ACT
  2
Planta baja ACT
  1
PLANTA_SUBSUELO
  2
Planta Subsuelo
  1
PLANTA_TÉCNICA
  2
Planta técnica
  1
PLOTEO
  2
ploteo
  1
PLUVIALES
  2
Pluviales
  1
POPOPO
  2
Popopo
  1
POZOS_AGUA
  2
Pozos_Agua
  1
POZOS_FECALES
  2
Pozos_Fecales
  1
POZOS_PLUVIALES
  2
Pozos_pluviales
  1
PQ
  2
Pq
  1
RED
  2
red
  1
RIEGO
  2
Riego
  1
ROOM
  2
room
  1
SCALE200
  2
scale200
  1
SE
  2
se
  1
SECC
  2
secc
  1
SEGUNDA
  2
segunda
  1
SEGUNDABIS
  2
segundabis
  1
SENY_HORIT
  2
seny_horit
  1
SITE
  2
site
  1
SOLO_CAPA
  2
SOLO CAPA
  1
SPACE_PLANNING
  2
space planning
  1
STRUCTURAL
  2
structural
  1
SUP01
  2
sup01
  1
SUP02
  2
sup02
  1
SUP03
  2
sup03
  1
SUP04
  2
sup04
  1
SUPERFICIES
  2
superficies
  1
TALLERES
  2
talleres
  1
TEMP
  2
temp
  1
TEXT
  2
text
  1
THAWED
  2
Thawed
  1
TMP
  2
tmp
  1
TOPO
  2
topo
  1
TRABAJO
  2
trabajo
  1
TRAM
  2
tram
  1
TRAMA
  2
trama
  1
TRAMAS
  2
tramas
  1
UISKAS
  2
uiskas
  1
UNI
  2
uni
  1
URBAN
  2
urban
  1
UTILIZADAS
  2
Utilizadas
  1
VISTAS
  2
vistas
  1
WE
  2
we
  1
WHITE
  2
white
  1
WINDOW
  2
window
  1
YO
  2
yo
  1
YUZEYLER
  2
yuzeyler
  0
ENDSEC
  0
EOF
