  0
SECTION
  2
HEADER
  9
$ACADVER
  1
AC1014
  9
$ACADMAINTVER
 70
     0
  9
$DWGCODEPAGE
  3
ANSI_1252
  9
$INSBASE
 10
0.0
 20
0.0
 30
0.0
  9
$EXTMIN
 10
301.250846
 20
404.067806
 30
0.0
  9
$EXTMAX
 10
3932.971904
 20
1882.060969
 30
0.00006
  9
$LIMMIN
 10
0.0
 20
0.0
  9
$LIMMAX
 10
0.0
 20
0.0
  9
$ORTHOMODE
 70
     0
  9
$REGENMODE
 70
     1
  9
$FILLMODE
 70
     1
  9
$QTEXTMODE
 70
     0
  9
$MIRRTEXT
 70
     1
  9
$DRAGMODE
 70
     2
  9
$LTSCALE
 40
100.0
  9
$OSMODE
 70
    33
  9
$ATTMODE
 70
     1
  9
$TEXTSIZE
 40
0.2
  9
$TRACEWID
 40
0.05
  9
$TEXTSTYLE
  7
STANDARD
  9
$CLAYER
  8
EP
  9
$CELTYPE
  6
BYLAYER
  9
$CECOLOR
 62
   256
  9
$CELTSCALE
 40
1.0
  9
$DELOBJ
 70
     1
  9
$DISPSILH
 70
     0
  9
$DIMSCALE
 40
1.0
  9
$DIMASZ
 40
4.25
  9
$DIMEXO
 40
20.0
  9
$DIMDLI
 40
0.08
  9
$DIMRND
 40
0.0
  9
$DIMDLE
 40
0.0
  9
$DIMEXE
 40
20.0
  9
$DIMTP
 40
0.0
  9
$DIMTM
 40
0.0
  9
$DIMTXT
 40
10.0
  9
$DIMCEN
 40
0.09
  9
$DIMTSZ
 40
0.0
  9
$DIMTOL
 70
     0
  9
$DIMLIM
 70
     0
  9
$DIMTIH
 70
     0
  9
$DIMTOH
 70
     0
  9
$DIMSE1
 70
     0
  9
$DIMSE2
 70
     0
  9
$DIMTAD
 70
     1
  9
$DIMZIN
 70
     0
  9
$DIMBLK
  1
$0$_DOT
  9
$DIMASO
 70
     1
  9
$DIMSHO
 70
     1
  9
$DIMPOST
  1
m
  9
$DIMAPOST
  1

  9
$DIMALT
 70
     0
  9
$DIMALTD
 70
     2
  9
$DIMALTF
 40
25.4
  9
$DIMLFAC
 40
0.01
  9
$DIMTOFL
 70
     0
  9
$DIMTVP
 40
0.0
  9
$DIMTIX
 70
     0
  9
$DIMSOXD
 70
     0
  9
$DIMSAH
 70
     0
  9
$DIMBLK1
  1

  9
$DIMBLK2
  1

  9
$DIMSTYLE
  2
DIM-50
  9
$DIMCLRD
 70
     1
  9
$DIMCLRE
 70
     1
  9
$DIMCLRT
 70
     0
  9
$DIMTFAC
 40
1.0
  9
$DIMGAP
 40
10.0
  9
$DIMJUST
 70
     0
  9
$DIMSD1
 70
     0
  9
$DIMSD2
 70
     0
  9
$DIMTOLJ
 70
     1
  9
$DIMTZIN
 70
     0
  9
$DIMALTZ
 70
     0
  9
$DIMALTTZ
 70
     0
  9
$DIMFIT
 70
     3
  9
$DIMUPT
 70
     0
  9
$DIMUNIT
 70
     2
  9
$DIMDEC
 70
     2
  9
$DIMTDEC
 70
     2
  9
$DIMALTU
 70
     2
  9
$DIMALTTD
 70
     2
  9
$DIMTXSTY
  7
ROMANS
  9
$DIMAUNIT
 70
     0
  9
$LUNITS
 70
     2
  9
$LUPREC
 70
     4
  9
$SKETCHINC
 40
0.1
  9
$FILLETRAD
 40
0.0
  9
$AUNITS
 70
     0
  9
$AUPREC
 70
     0
  9
$MENU
  1
acad
  9
$ELEVATION
 40
0.0
  9
$PELEVATION
 40
0.0
  9
$THICKNESS
 40
0.0
  9
$LIMCHECK
 70
     0
  9
$BLIPMODE
 70
     0
  9
$CHAMFERA
 40
0.0
  9
$CHAMFERB
 40
0.0
  9
$CHAMFERC
 40
0.0
  9
$CHAMFERD
 40
0.0
  9
$SKPOLY
 70
     0
  9
$TDCREATE
 40
2452794.580567129
  9
$TDUPDATE
 40
2452905.024474849
  9
$TDINDWG
 40
2.5294302662
  9
$TDUSRTIMER
 40
2.5294302662
  9
$USRTIMER
 70
     1
  9
$ANGBASE
 50
0.0
  9
$ANGDIR
 70
     0
  9
$PDMODE
 70
     0
  9
$PDSIZE
 40
0.0
  9
$PLINEWID
 40
0.0
  9
$COORDS
 70
     1
  9
$SPLFRAME
 70
     0
  9
$SPLINETYPE
 70
     6
  9
$SPLINESEGS
 70
     8
  9
$ATTDIA
 70
     0
  9
$ATTREQ
 70
     1
  9
$HANDLING
 70
     1
  9
$HANDSEED
  5
756
  9
$SURFTAB1
 70
     6
  9
$SURFTAB2
 70
     6
  9
$SURFTYPE
 70
     6
  9
$SURFU
 70
     6
  9
$SURFV
 70
     6
  9
$UCSNAME
  2

  9
$UCSORG
 10
0.0
 20
0.0
 30
0.0
  9
$UCSXDIR
 10
1.0
 20
0.0
 30
0.0
  9
$UCSYDIR
 10
0.0
 20
1.0
 30
0.0
  9
$PUCSNAME
  2

  9
$PUCSORG
 10
0.0
 20
0.0
 30
0.0
  9
$PUCSXDIR
 10
1.0
 20
0.0
 30
0.0
  9
$PUCSYDIR
 10
0.0
 20
1.0
 30
0.0
  9
$USERI1
 70
     0
  9
$USERI2
 70
     0
  9
$USERI3
 70
     0
  9
$USERI4
 70
     0
  9
$USERI5
 70
     0
  9
$USERR1
 40
0.0
  9
$USERR2
 40
0.0
  9
$USERR3
 40
0.0
  9
$USERR4
 40
0.0
  9
$USERR5
 40
0.0
  9
$WORLDVIEW
 70
     1
  9
$SHADEDGE
 70
     3
  9
$SHADEDIF
 70
    70
  9
$TILEMODE
 70
     1
  9
$MAXACTVP
 70
    16
  9
$PINSBASE
 10
0.0
 20
0.0
 30
0.0
  9
$PLIMCHECK
 70
     0
  9
$PEXTMIN
 10
1.000000E+20
 20
1.000000E+20
 30
1.000000E+20
  9
$PEXTMAX
 10
-1.000000E+20
 20
-1.000000E+20
 30
-1.000000E+20
  9
$PLIMMIN
 10
0.0
 20
0.0
  9
$PLIMMAX
 10
12.0
 20
9.0
  9
$UNITMODE
 70
     0
  9
$VISRETAIN
 70
     0
  9
$PLINEGEN
 70
     1
  9
$PSLTSCALE
 70
     0
  9
$TREEDEPTH
 70
  3020
  9
$PICKSTYLE
 70
     1
  9
$CMLSTYLE
  2
STANDARD
  9
$CMLJUST
 70
     0
  9
$CMLSCALE
 40
1.0
  9
$PROXYGRAPHICS
 70
     0
  9
$MEASUREMENT
 70
     0
  0
ENDSEC
  0
SECTION
  2
CLASSES
  0
CLASS
  1
LWPOLYLINE
  2
AcDbPolyline
  3
"AutoCAD"
 90
        0
280
     0
281
     1
  0
CLASS
  1
IMAGE
  2
AcDbRasterImage
  3
ISM
 90
      127
280
     1
281
     1
  0
CLASS
  1
OLE2FRAME
  2
AcDbOle2Frame
  3
""
 90
        0
280
     0
281
     1
  0
CLASS
  1
HATCH
  2
AcDbHatch
  3
"ACAD_SEDONA"
 90
        0
280
     0
281
     1
  0
CLASS
  1
DICTIONARYVAR
  2
AcDbDictionaryVar
  3
"AutoCAD"
 90
        0
280
     0
281
     0
  0
CLASS
  1
RASTERVARIABLES
  2
AcDbRasterVariables
  3
ISM
 90
        0
280
     1
281
     0
  0
CLASS
  1
IMAGEDEF
  2
AcDbRasterImageDef
  3
ISM
 90
        0
280
     1
281
     0
  0
CLASS
  1
IMAGEDEF_REACTOR
  2
AcDbRasterImageDefReactor
  3
ISM
 90
        1
280
     1
281
     0
  0
CLASS
  1
IDBUFFER
  2
AcDbIdBuffer
  3
"Acad"
 90
        0
280
     0
281
     0
  0
CLASS
  1
SPATIAL_FILTER
  2
AcDbSpatialFilter
  3
"Acad"
 90
        0
280
     0
281
     0
  0
CLASS
  1
XRECORD
  2
AcDbXrecord
  3
"<Built In>"
 90
        0
280
     0
281
     0
  0
CLASS
  1
SORTENTSTABLE
  2
AcDbSortentsTable
  3
"AutoCAD"
 90
        0
280
     0
281
     0
  0
CLASS
  1
LAYER_INDEX
  2
AcDbLayerIndex
  3
"Acad"
 90
        0
280
     0
281
     0
  0
CLASS
  1
SPATIAL_INDEX
  2
AcDbSpatialIndex
  3
"Acad"
 90
        0
280
     0
281
     0
  0
CLASS
  1
OBJECT_PTR
  2
CAseDLPNTableRecord
  3
ASE-LPNTableRecord
 90
        1
280
     1
281
     0
  0
CLASS
  1
LAYOUT
  2
AcDbLayout
  3
AutoCAD 2000
 90
        0
280
     1
281
     0
  0
CLASS
  1
PLOTSETTINGS
  2
AcDbPlotSettings
  3
AutoCAD 2000
 90
        0
280
     1
281
     0
  0
CLASS
  1
ACDBDICTIONARYWDFLT
  2
AcDbDictionaryWithDefault
  3
AutoCAD 2000
 90
        0
280
     1
281
     0
  0
CLASS
  1
ACDBPLACEHOLDER
  2
AcDbPlaceHolder
  3
AutoCAD 2000
 90
        0
280
     1
281
     0
  0
CLASS
  1
LONG_TRANSACTION
  2
AcDbLongTransaction
  3
AutoCAD 2000
 90
        0
280
     1
281
     0
  0
CLASS
  1
LWPOLYLINE
  2
AcDbPolyline
  3
"AutoCAD"
 90
        0
280
     0
281
     1
  0
CLASS
  1
HATCH
  2
AcDbHatch
  3
"ACAD_SEDONA"
 90
        0
280
     0
281
     1
  0
CLASS
  1
XRECORD
  2
AcDbXrecord
  3
"<Built In>"
 90
        0
280
     0
281
     0
  0
ENDSEC
  0
SECTION
  2
TABLES
  0
TABLE
  2
VPORT
  5
1DD
100
AcDbSymbolTable
 70
     2
  0
VPORT
  5
755
100
AcDbSymbolTableRecord
100
AcDbViewportTableRecord
  2
*ACTIVE
 70
     0
 10
0.0
 20
0.0
 11
1.0
 21
1.0
 12
1532.141122
 22
1416.68593
 13
0.0
 23
0.0
 14
1.0
 24
1.0
 15
0.0
 25
0.0
 16
0.0
 26
0.0
 36
1.0
 17
0.0
 27
0.0
 37
0.0
 40
720.972436
 41
1.407018
 42
50.0
 43
0.0
 44
0.0
 50
0.0
 51
0.0
 71
     0
 72
   100
 73
     1
 74
     1
 75
     0
 76
     0
 77
     0
 78
     0
  0
ENDTAB
  0
TABLE
  2
LTYPE
  5
1D4
100
AcDbSymbolTable
 70
     2
  0
LTYPE
  5
1D5
102
{ACAD_XDICTIONARY
360
1D6
102
}
100
AcDbSymbolTableRecord
100
AcDbLinetypeTableRecord
  2
BYBLOCK
 70
     0
  3

 72
    65
 73
     0
 40
0.0
  0
LTYPE
  5
1D8
102
{ACAD_XDICTIONARY
360
1D9
102
}
100
AcDbSymbolTableRecord
100
AcDbLinetypeTableRecord
  2
BYLAYER
 70
     0
  3

 72
    65
 73
     0
 40
0.0
  0
LTYPE
  5
8
102
{ACAD_XDICTIONARY
360
9
102
}
100
AcDbSymbolTableRecord
100
AcDbLinetypeTableRecord
  2
CONTINUOUS
 70
     0
  3
Solid line
 72
    65
 73
     0
 40
0.0
  0
LTYPE
  5
227
100
AcDbSymbolTableRecord
100
AcDbLinetypeTableRecord
  2
DASHDOT
 70
     0
  3
Dash dot __ . __ . __ . __ . __ . __ . __ . __
 72
    65
 73
     4
 40
1.0
 49
0.5
 74
     0
 49
-0.25
 74
     0
 49
0.0
 74
     0
 49
-0.25
 74
     0
  0
ENDTAB
  0
TABLE
  2
LAYER
  5
12
102
{ACAD_XDICTIONARY
360
13
102
}
100
AcDbSymbolTable
 70
    19
  0
LAYER
  5
7
100
AcDbSymbolTableRecord
100
AcDbLayerTableRecord
  2
0
 70
     0
 62
    -7
  6
CONTINUOUS
  0
LAYER
  5
1E9
100
AcDbSymbolTableRecord
100
AcDbLayerTableRecord
  2
_AA_TEXTOS
 70
     0
 62
   240
  6
CONTINUOUS
  0
LAYER
  5
272
100
AcDbSymbolTableRecord
100
AcDbLayerTableRecord
  2
_AA_PERFIL_AL
 70
     0
 62
     3
  6
CONTINUOUS
  0
LAYER
  5
226
100
AcDbSymbolTableRecord
100
AcDbLayerTableRecord
  2
_AA_EJES
 70
     0
 62
   183
  6
CONTINUOUS
  0
LAYER
  5
22F
100
AcDbSymbolTableRecord
100
AcDbLayerTableRecord
  2
_AA_ESTRUCTURA_HR
 70
     0
 62
     3
  6
CONTINUOUS
  0
LAYER
  5
1F5
100
AcDbSymbolTableRecord
100
AcDbLayerTableRecord
  2
_AA_PIEDRA
 70
     0
 62
    45
  6
CONTINUOUS
  0
LAYER
  5
237
100
AcDbSymbolTableRecord
100
AcDbLayerTableRecord
  2
_AA_PERFIL_AC
 70
     0
 62
     2
  6
CONTINUOUS
  0
LAYER
  5
201
100
AcDbSymbolTableRecord
100
AcDbLayerTableRecord
  2
_AA_CARTONYESO
 70
     0
 62
   140
  6
CONTINUOUS
  0
LAYER
  5
27B
100
AcDbSymbolTableRecord
100
AcDbLayerTableRecord
  2
_AA_VIDRIO
 70
     0
 62
    -4
  6
CONTINUOUS
  0
LAYER
  5
3A9
100
AcDbSymbolTableRecord
100
AcDbLayerTableRecord
  2
EP
 70
     0
 62
     1
  6
CONTINUOUS
  0
LAYER
  5
3AA
100
AcDbSymbolTableRecord
100
AcDbLayerTableRecord
  2
ESI
 70
     0
 62
     7
  6
CONTINUOUS
  0
LAYER
  5
3AB
100
AcDbSymbolTableRecord
100
AcDbLayerTableRecord
  2
ESE
 70
     0
 62
     7
  6
CONTINUOUS
  0
LAYER
  5
3AC
100
AcDbSymbolTableRecord
100
AcDbLayerTableRecord
  2
ESM
 70
     0
 62
     7
  6
CONTINUOUS
  0
LAYER
  5
51D
100
AcDbSymbolTableRecord
100
AcDbLayerTableRecord
  2
VR
 70
     0
 62
     7
  6
CONTINUOUS
  0
LAYER
  5
51E
100
AcDbSymbolTableRecord
100
AcDbLayerTableRecord
  2
MVB
 70
     0
 62
     7
  6
CONTINUOUS
  0
LAYER
  5
51F
100
AcDbSymbolTableRecord
100
AcDbLayerTableRecord
  2
PEP
 70
     0
 62
     7
  6
CONTINUOUS
  0
LAYER
  5
547
100
AcDbSymbolTableRecord
100
AcDbLayerTableRecord
  2
MEP
 70
     0
 62
     1
  6
CONTINUOUS
  0
LAYER
  5
555
100
AcDbSymbolTableRecord
100
AcDbLayerTableRecord
  2
_AA_PROYECCION2
 70
     0
 62
   252
  6
CONTINUOUS
  0
LAYER
  5
556
100
AcDbSymbolTableRecord
100
AcDbLayerTableRecord
  2
SEC-FS-VIGAS_CAJON
 70
     0
 62
    -7
  6
CONTINUOUS
  0
ENDTAB
  0
TABLE
  2
STYLE
  5
1D0
100
AcDbSymbolTable
 70
     2
  0
STYLE
  5
1D1
102
{ACAD_XDICTIONARY
360
1D2
102
}
100
AcDbSymbolTableRecord
100
AcDbTextStyleTableRecord
  2
STANDARD
 70
     0
 40
0.0
 41
1.0
 50
0.0
 71
     0
 42
0.0
  3
txt
  4

  0
STYLE
  5
1EA
100
AcDbSymbolTableRecord
100
AcDbTextStyleTableRecord
  2
ROMANS
 70
     0
 40
0.0
 41
1.0
 50
0.0
 71
     0
 42
40.0
  3
romans.shx
  4

  0
ENDTAB
  0
TABLE
  2
VIEW
  5
1DB
100
AcDbSymbolTable
 70
     0
  0
ENDTAB
  0
TABLE
  2
UCS
  5
1DC
100
AcDbSymbolTable
 70
     0
  0
ENDTAB
  0
TABLE
  2
APPID
  5
1DF
100
AcDbSymbolTable
 70
     2
  0
APPID
  5
B
100
AcDbSymbolTableRecord
100
AcDbRegAppTableRecord
  2
ACAD
 70
     0
  0
APPID
  5
279
100
AcDbSymbolTableRecord
100
AcDbRegAppTableRecord
  2
CONTENTBLOCKICON
 70
     0
  0
ENDTAB
  0
TABLE
  2
DIMSTYLE
  5
1E0
100
AcDbSymbolTable
 70
     1
  0
DIMSTYLE
105
1EC
102
{ACAD_XDICTIONARY
360
1ED
102
}
100
AcDbSymbolTableRecord
100
AcDbDimStyleTableRecord
  2
DIM-50
 70
     0
  3
m
  4

  5
$0$_DOT
  6

  7

 40
1.0
 41
4.25
 42
20.0
 43
0.08
 44
20.0
 45
0.0
 46
0.0
 47
0.0
 48
0.0
140
10.0
141
0.09
142
0.0
143
25.4
144
0.01
145
0.0
146
1.0
147
10.0
 71
     0
 72
     0
 73
     0
 74
     0
 75
     0
 76
     0
 77
     1
 78
     0
170
     0
171
     2
172
     0
173
     0
174
     0
175
     0
176
     1
177
     1
178
     0
270
     2
271
     2
272
     2
273
     2
274
     2
340
1EA
275
     0
280
     0
281
     0
282
     0
283
     1
284
     0
285
     0
286
     0
287
     3
288
     0
  0
ENDTAB
  0
TABLE
  2
BLOCK_RECORD
  5
1
100
AcDbSymbolTable
 70
    15
  0
BLOCK_RECORD
  5
2
102
{ACAD_XDICTIONARY
360
3
102
}
100
AcDbSymbolTableRecord
100
AcDbBlockTableRecord
  2
*MODEL_SPACE
  0
BLOCK_RECORD
  5
D
102
{ACAD_XDICTIONARY
360
E
102
}
100
AcDbSymbolTableRecord
100
AcDbBlockTableRecord
  2
*PAPER_SPACE
  0
BLOCK_RECORD
  5
1EF
100
AcDbSymbolTableRecord
100
AcDbBlockTableRecord
  2
$0$_DOT
  0
BLOCK_RECORD
  5
273
102
{ACAD_XDICTIONARY
360
275
102
}
100
AcDbSymbolTableRecord
100
AcDbBlockTableRecord
  2
MALU90OPACO
1001
CONTENTBLOCKICON
1071
        0
1004
2800000020000000200000000100080000000000000400000000000000000000000000000000000000000000000080000080000000808000800000008000800080800000C0C0C000C0DCC000F0CAA6000020400000206000002080000020A0000020C0000020E00000400000004020000040400000406000004080000040A0
1004
000040C0000040E00000600000006020000060400000606000006080000060A0000060C0000060E00000800000008020000080400000806000008080000080A0000080C0000080E00000A0000000A0200000A0400000A0600000A0800000A0A00000A0C00000A0E00000C0000000C0200000C0400000C0600000C0800000C0
1004
A00000C0C00000C0E00000E0000000E0200000E0400000E0600000E0800000E0A00000E0C00000E0E00040000000400020004000400040006000400080004000A0004000C0004000E00040200000402020004020400040206000402080004020A0004020C0004020E000404000004040200040404000404060004040800040
1004
40A0004040C0004040E00040600000406020004060400040606000406080004060A0004060C0004060E00040800000408020004080400040806000408080004080A0004080C0004080E00040A0000040A0200040A0400040A0600040A0800040A0A00040A0C00040A0E00040C0000040C0200040C0400040C0600040C08000
1004
40C0A00040C0C00040C0E00040E0000040E0200040E0400040E0600040E0800040E0A00040E0C00040E0E00080000000800020008000400080006000800080008000A0008000C0008000E00080200000802020008020400080206000802080008020A0008020C0008020E00080400000804020008040400080406000804080
1004
008040A0008040C0008040E00080600000806020008060400080606000806080008060A0008060C0008060E00080800000808020008080400080806000808080008080A0008080C0008080E00080A0000080A0200080A0400080A0600080A0800080A0A00080A0C00080A0E00080C0000080C0200080C0400080C0600080C0
1004
800080C0A00080C0C00080C0E00080E0000080E0200080E0400080E0600080E0800080E0A00080E0C00080E0E000C0000000C0002000C0004000C0006000C0008000C000A000C000C000C000E000C0200000C0202000C0204000C0206000C0208000C020A000C020C000C020E000C0400000C0402000C0404000C0406000C0
1004
408000C040A000C040C000C040E000C0600000C0602000C0604000C0606000C0608000C060A000C060C000C060E000C0800000C0802000C0804000C0806000C0808000C080A000C080C000C080E000C0A00000C0A02000C0A04000C0A06000C0A08000C0A0A000C0A0C000C0A0E000C0C00000C0C02000C0C04000C0C06000
1004
C0C08000C0C0A000F0FBFF00A4A0A000808080000000FF0000FF000000FFFF00FF000000FF00FF00FFFF0000FFFFFF0000000000000000000000000000000000000000000000000000000000000000000000000000000000363636363636363636363636363636360000000000000000000000000000000036000000000000
1004
00000000000000003600000000000000000000000000000000360000000000000000000000000000360000000000000000000000000000000036000000000000000000000000000036000000000000000000000000000000003600000000000000000000000000003600000000000000000000000000000000360000000000
1004
00000000000000000036000000000000000000000000000000003600000000000000000000000000003600000000000000000000000000000000360000000000000000000000000000360000000000000000000000000000000036000000000000000000000000000036000000000000000000000000000000003600000000
1004
00000000000000000000360000000000000000000000000000000036000000000000000000000000000036000000000000000000000000000000003600000000000000000000000000003600000000000000000000000000000000360000000000000000000000000000360000000000000000000000000000000036000000
1004
00000000000000000000003600000000000000000000000000000000360000000000000000000000000000360000000000000000000000000000000036000000000000000000000000000036000000000000000000000000000000003600000000000000000000000000003600000000000000000000000000000000360000
1004
00000000000000000000000036000000000000000000000000000000003600000000000000000000000000003600000000000000000000000000000000360000000000000000000000000000360000000000000000000000000000000036000000000000000000000000000036000000000000000000000000000000003600
1004
00000000000000000000000000360000000000000000000000000000000036000000000000000000000000000036000000000000000000000000000000003600000000000000000000000000003600000000000000000000000000000000360000000000000000000000000000360000000000000000000000000000000036
1004
00000000000000000000000000003600000000000000000000000000000000360000000000000000000000000000360000000000000000000000000000000036000000000000000000000000000036000000000000000000000000000000003600000000000000000000000000003600000000000000000000000000000000
1004
3636363636363636363636363636363600000000000000000000000000000000000000000000000000000000000000000000000000000000
  0
BLOCK_RECORD
  5
299
102
{ACAD_XDICTIONARY
360
29C
102
}
100
AcDbSymbolTableRecord
100
AcDbBlockTableRecord
  2
MALU90SEMITRP
1001
CONTENTBLOCKICON
1071
        0
1004
2800000020000000200000000100080000000000000400000000000000000000000000000000000000000000000080000080000000808000800000008000800080800000C0C0C000C0DCC000F0CAA6000020400000206000002080000020A0000020C0000020E00000400000004020000040400000406000004080000040A0
1004
000040C0000040E00000600000006020000060400000606000006080000060A0000060C0000060E00000800000008020000080400000806000008080000080A0000080C0000080E00000A0000000A0200000A0400000A0600000A0800000A0A00000A0C00000A0E00000C0000000C0200000C0400000C0600000C0800000C0
1004
A00000C0C00000C0E00000E0000000E0200000E0400000E0600000E0800000E0A00000E0C00000E0E00040000000400020004000400040006000400080004000A0004000C0004000E00040200000402020004020400040206000402080004020A0004020C0004020E000404000004040200040404000404060004040800040
1004
40A0004040C0004040E00040600000406020004060400040606000406080004060A0004060C0004060E00040800000408020004080400040806000408080004080A0004080C0004080E00040A0000040A0200040A0400040A0600040A0800040A0A00040A0C00040A0E00040C0000040C0200040C0400040C0600040C08000
1004
40C0A00040C0C00040C0E00040E0000040E0200040E0400040E0600040E0800040E0A00040E0C00040E0E00080000000800020008000400080006000800080008000A0008000C0008000E00080200000802020008020400080206000802080008020A0008020C0008020E00080400000804020008040400080406000804080
1004
008040A0008040C0008040E00080600000806020008060400080606000806080008060A0008060C0008060E00080800000808020008080400080806000808080008080A0008080C0008080E00080A0000080A0200080A0400080A0600080A0800080A0A00080A0C00080A0E00080C0000080C0200080C0400080C0600080C0
1004
800080C0A00080C0C00080C0E00080E0000080E0200080E0400080E0600080E0800080E0A00080E0C00080E0E000C0000000C0002000C0004000C0006000C0008000C000A000C000C000C000E000C0200000C0202000C0204000C0206000C0208000C020A000C020C000C020E000C0400000C0402000C0404000C0406000C0
1004
408000C040A000C040C000C040E000C0600000C0602000C0604000C0606000C0608000C060A000C060C000C060E000C0800000C0802000C0804000C0806000C0808000C080A000C080C000C080E000C0A00000C0A02000C0A04000C0A06000C0A08000C0A0A000C0A0C000C0A0E000C0C00000C0C02000C0C04000C0C06000
1004
C0C08000C0C0A000F0FBFF00A4A0A000808080000000FF0000FF000000FFFF00FF000000FF00FF00FFFF0000FFFFFF0000000000000000000000000000000000000000000000000000000000000000000000000000000000000036363636363636363636363600000000000000000000000000000000000000003600000000
1004
00000000000036000000000000000000000000000000000000000036000000000000000000003600000000000000000000000000000000000000003600000000000000000000360000000000000000000000000000000000000000360000000000000000000036000000000000000000000000000000000000000036000000
1004
00000000000000360000000000000000000000000000000000000000360000000000000000000036000000000000000000000000000000000000000036000000000000000000003600000000000000000000000000000000000000003600000000000000000000360000000000000000000000000000000000000000360000
1004
00000000000000003600000000000000000000000000000000000000003600000000000000000000360000000000000000000000000000000000000000360000000000000000000036000000000000000000000000000000000000000036000000000000000000003600000000000000000000000000000000000000003600
1004
00000000000000000036000000000000000000000000000000000000000036000000000000000000003600000000000000000000000000000000000000003600000000000000000000360000000000000000000000000000000000000000360000000000000000000036000000000000000000000000000000000000000036
1004
00000000000000000000360000000000000000000000000000000000000000360000000000000000000036000000000000000000000000000000000000000036000000000000000000003600000000000000000000000000000000000000003600000000000000000000360000000000000000000000000000000000000000
1004
36363636363636363636363600000000000000000000000000000000000000000000000000000000000000000000000000000000000000000000000000000000000000000000000000000000000000000000000000000000000000000000000000000000000000000000000000000000000000000000000000000000000000
1004
00000000363636363636000000000000000000000000000000000000000000000000000036363636363600000000000000000000000000000000000000000000000000003636000036360000000000000000000000000000000000000000000000363636363600003636363636000000000000000000000000000000000000
1004
0000363636363600003636363636000000000000000000000000000000000000000000000000000000000000000000000000000000000000
  0
BLOCK_RECORD
  5
2A4
100
AcDbSymbolTableRecord
100
AcDbBlockTableRecord
  2
MALU90B
1001
CONTENTBLOCKICON
1071
        0
1004
2800000020000000200000000100080000000000000400000000000000000000000000000000000000000000000080000080000000808000800000008000800080800000C0C0C000C0DCC000F0CAA6000020400000206000002080000020A0000020C0000020E00000400000004020000040400000406000004080000040A0
1004
000040C0000040E00000600000006020000060400000606000006080000060A0000060C0000060E00000800000008020000080400000806000008080000080A0000080C0000080E00000A0000000A0200000A0400000A0600000A0800000A0A00000A0C00000A0E00000C0000000C0200000C0400000C0600000C0800000C0
1004
A00000C0C00000C0E00000E0000000E0200000E0400000E0600000E0800000E0A00000E0C00000E0E00040000000400020004000400040006000400080004000A0004000C0004000E00040200000402020004020400040206000402080004020A0004020C0004020E000404000004040200040404000404060004040800040
1004
40A0004040C0004040E00040600000406020004060400040606000406080004060A0004060C0004060E00040800000408020004080400040806000408080004080A0004080C0004080E00040A0000040A0200040A0400040A0600040A0800040A0A00040A0C00040A0E00040C0000040C0200040C0400040C0600040C08000
1004
40C0A00040C0C00040C0E00040E0000040E0200040E0400040E0600040E0800040E0A00040E0C00040E0E00080000000800020008000400080006000800080008000A0008000C0008000E00080200000802020008020400080206000802080008020A0008020C0008020E00080400000804020008040400080406000804080
1004
008040A0008040C0008040E00080600000806020008060400080606000806080008060A0008060C0008060E00080800000808020008080400080806000808080008080A0008080C0008080E00080A0000080A0200080A0400080A0600080A0800080A0A00080A0C00080A0E00080C0000080C0200080C0400080C0600080C0
1004
800080C0A00080C0C00080C0E00080E0000080E0200080E0400080E0600080E0800080E0A00080E0C00080E0E000C0000000C0002000C0004000C0006000C0008000C000A000C000C000C000E000C0200000C0202000C0204000C0206000C0208000C020A000C020C000C020E000C0400000C0402000C0404000C0406000C0
1004
408000C040A000C040C000C040E000C0600000C0602000C0604000C0606000C0608000C060A000C060C000C060E000C0800000C0802000C0804000C0806000C0808000C080A000C080C000C080E000C0A00000C0A02000C0A04000C0A06000C0A08000C0A0A000C0A0C000C0A0E000C0C00000C0C02000C0C04000C0C06000
1004
C0C08000C0C0A000F0FBFF00A4A0A000808080000000FF0000FF000000FFFF00FF000000FF00FF00FFFF0000FFFFFF0000000000000000000000000000000000000000000000000000000000000000000000000000000000000000363636363636363636360000000000000000000000000000000000000000000036000000
1004
00000000003600000000000000000000000000000000000000000000360000000000000000360000000000000000000000000000000000000000000036000000000000000036000000000000000000000000000000000000000000003600000000000000003600000000000000000000000000000000000000000000360000
1004
00000000000036000000000000000000000000000000000000000000003600000000000000003600000000000000000000000000000000000000000000360000000000000000360000000000000000000000000000000000000000000036000000000000000036000000000000000000000000000000000000000000003600
1004
00000000000000360000000000000000000000000000000000000000000036000000000000000036000000000000000000000000000000000000000000003600000000000000003600000000000000000000000000000000000000000000360000000000000000360000000000000000000000000000000000000000000036
1004
00000000000000003600000000000000000000000000000000000000000000360000000000000000360000000000000000000000000000000000000000000036000000000000000036000000000000000000000000000000000000000000003600000000000000003600000000000000000000000000000000000000000000
1004
36000000000000000036000000000000000000000000000000000000000000003636363636363636363600000000000000000000000000000000000000000000000000000036000000360000000000000000000000000000000000000000000000000000003600000036000000000000000000000000000000000000000000
1004
00000000000036000000360000000000000000000000000000000000000000000000000000003636363636000000000000000000000000000000000000000000003636363636363600000000000000000000000000000000000000000000000000360000000000360000000000000000000000000000000000000000000000
1004
00003600000000003600000000000000000000000000000000000000000000000000363636363636360000000000000000000000000000000000000000000000000000000000000036000000000000000000000000000000000000000000000000000000000000003636363600000000000000000000000000000000000000
1004
0000000000000000003636363600000000000000000000000000000000000000000000000000000000000000000000000000000000000000
  0
BLOCK_RECORD
  5
2C7
100
AcDbSymbolTableRecord
100
AcDbBlockTableRecord
  2
MALU90
1001
CONTENTBLOCKICON
1071
        0
1004
2800000020000000200000000100080000000000000400000000000000000000000000000000000000000000000080000080000000808000800000008000800080800000C0C0C000C0DCC000F0CAA6000020400000206000002080000020A0000020C0000020E00000400000004020000040400000406000004080000040A0
1004
000040C0000040E00000600000006020000060400000606000006080000060A0000060C0000060E00000800000008020000080400000806000008080000080A0000080C0000080E00000A0000000A0200000A0400000A0600000A0800000A0A00000A0C00000A0E00000C0000000C0200000C0400000C0600000C0800000C0
1004
A00000C0C00000C0E00000E0000000E0200000E0400000E0600000E0800000E0A00000E0C00000E0E00040000000400020004000400040006000400080004000A0004000C0004000E00040200000402020004020400040206000402080004020A0004020C0004020E000404000004040200040404000404060004040800040
1004
40A0004040C0004040E00040600000406020004060400040606000406080004060A0004060C0004060E00040800000408020004080400040806000408080004080A0004080C0004080E00040A0000040A0200040A0400040A0600040A0800040A0A00040A0C00040A0E00040C0000040C0200040C0400040C0600040C08000
1004
40C0A00040C0C00040C0E00040E0000040E0200040E0400040E0600040E0800040E0A00040E0C00040E0E00080000000800020008000400080006000800080008000A0008000C0008000E00080200000802020008020400080206000802080008020A0008020C0008020E00080400000804020008040400080406000804080
1004
008040A0008040C0008040E00080600000806020008060400080606000806080008060A0008060C0008060E00080800000808020008080400080806000808080008080A0008080C0008080E00080A0000080A0200080A0400080A0600080A0800080A0A00080A0C00080A0E00080C0000080C0200080C0400080C0600080C0
1004
800080C0A00080C0C00080C0E00080E0000080E0200080E0400080E0600080E0800080E0A00080E0C00080E0E000C0000000C0002000C0004000C0006000C0008000C000A000C000C000C000E000C0200000C0202000C0204000C0206000C0208000C020A000C020C000C020E000C0400000C0402000C0404000C0406000C0
1004
408000C040A000C040C000C040E000C0600000C0602000C0604000C0606000C0608000C060A000C060C000C060E000C0800000C0802000C0804000C0806000C0808000C080A000C080C000C080E000C0A00000C0A02000C0A04000C0A06000C0A08000C0A0A000C0A0C000C0A0E000C0C00000C0C02000C0C04000C0C06000
1004
C0C08000C0C0A000F0FBFF00A4A0A000808080000000FF0000FF000000FFFF00FF000000FF00FF00FFFF0000FFFFFF0000000000000000000000000000000000000000000000000000000000000000000000000000000000000036363636363636363636363600000000000000000000000000000000000000003600000000
1004
00000000000036000000000000000000000000000000000000000036000000000000000000003600000000000000000000000000000000000000003600000000000000000000360000000000000000000000000000000000000000360000000000000000000036000000000000000000000000000000000000000036000000
1004
00000000000000360000000000000000000000000000000000000000360000000000000000000036000000000000000000000000000000000000000036000000000000000000003600000000000000000000000000000000000000003600000000000000000000360000000000000000000000000000000000000000360000
1004
00000000000000003600000000000000000000000000000000000000003600000000000000000000360000000000000000000000000000000000000000360000000000000000000036000000000000000000000000000000000000000036000000000000000000003600000000000000000000000000000000000000003600
1004
00000000000000000036000000000000000000000000000000000000000036000000000000000000003600000000000000000000000000000000000000003600000000000000000000360000000000000000000000000000000000000000360000000000000000000036000000000000000000000000000000000000000036
1004
00000000000000000000360000000000000000000000000000000000000000360000000000000000000036000000000000000000000000000000000000000036363636363636363636363600000000000000000000000000000000000000000000000000000000000000000000000000000000000000000000000000000000
1004
00000000000000000000000000000000000000000000000000000000000000000000000000000000000000000000000000000000000000000000000000000000000000000000000000000000000000000000000000000000000000000000000000000000000000000000000000000000000000000000000000000000000000
1004
00363636363636363636363636000000000000000000000000000000000000000036000000000000000000003600000000000000000000000000000000000000003600000000000000000000360000000000000000000000000000000000000000360000000000000000000036000000000000000000000000000000000000
1004
0000363636363636363636363636000000000000000000000000000000000000000000000000000000000000000000000000000000000000
  0
BLOCK_RECORD
  5
28A
102
{ACAD_XDICTIONARY
360
28D
102
}
100
AcDbSymbolTableRecord
100
AcDbBlockTableRecord
  2
MALU90SEMITRP_OP
1001
CONTENTBLOCKICON
1071
        0
1004
2800000020000000200000000100080000000000000400000000000000000000000000000000000000000000000080000080000000808000800000008000800080800000C0C0C000C0DCC000F0CAA6000020400000206000002080000020A0000020C0000020E00000400000004020000040400000406000004080000040A0
1004
000040C0000040E00000600000006020000060400000606000006080000060A0000060C0000060E00000800000008020000080400000806000008080000080A0000080C0000080E00000A0000000A0200000A0400000A0600000A0800000A0A00000A0C00000A0E00000C0000000C0200000C0400000C0600000C0800000C0
1004
A00000C0C00000C0E00000E0000000E0200000E0400000E0600000E0800000E0A00000E0C00000E0E00040000000400020004000400040006000400080004000A0004000C0004000E00040200000402020004020400040206000402080004020A0004020C0004020E000404000004040200040404000404060004040800040
1004
40A0004040C0004040E00040600000406020004060400040606000406080004060A0004060C0004060E00040800000408020004080400040806000408080004080A0004080C0004080E00040A0000040A0200040A0400040A0600040A0800040A0A00040A0C00040A0E00040C0000040C0200040C0400040C0600040C08000
1004
40C0A00040C0C00040C0E00040E0000040E0200040E0400040E0600040E0800040E0A00040E0C00040E0E00080000000800020008000400080006000800080008000A0008000C0008000E00080200000802020008020400080206000802080008020A0008020C0008020E00080400000804020008040400080406000804080
1004
008040A0008040C0008040E00080600000806020008060400080606000806080008060A0008060C0008060E00080800000808020008080400080806000808080008080A0008080C0008080E00080A0000080A0200080A0400080A0600080A0800080A0A00080A0C00080A0E00080C0000080C0200080C0400080C0600080C0
1004
800080C0A00080C0C00080C0E00080E0000080E0200080E0400080E0600080E0800080E0A00080E0C00080E0E000C0000000C0002000C0004000C0006000C0008000C000A000C000C000C000E000C0200000C0202000C0204000C0206000C0208000C020A000C020C000C020E000C0400000C0402000C0404000C0406000C0
1004
408000C040A000C040C000C040E000C0600000C0602000C0604000C0606000C0608000C060A000C060C000C060E000C0800000C0802000C0804000C0806000C0808000C080A000C080C000C080E000C0A00000C0A02000C0A04000C0A06000C0A08000C0A0A000C0A0C000C0A0E000C0C00000C0C02000C0C04000C0C06000
1004
C0C08000C0C0A000F0FBFF00A4A0A000808080000000FF0000FF000000FFFF00FF000000FF00FF00FFFF0000FFFFFF0000000000000000000000000000000000000000000000000000000000000000000000000000000000000000000000000000000000000000000000000000000000000000000000000000000000000000
1004
00000000000000000000000000000000000000000000000000000000000000000000000000000000000000000000000000000000000000000000000000000000000000000000000000000000000000000000000036000000000000000000000000000000000000000000000000000000000000003600000000000000000000
1004
00000000000000000000000000000000000000003636000000000000000000000000000000000000000000000000000000000000360000000000000036360000000000000000000000000000000000000000003636360000000000003600363636000000000000000000000000000000000000000036363600000036000000
1004
00003636360000000000000000000000000000000000003636000000360000000000000000363636000000000000000000000000000000360000000036000000000000000000000036360000000000000000000000000000000000360000000000000000000000000000363636000000000000000000000000000036000000
1004
00000000000000000000000000003636360000000000000000000036000000000000000000000000000000000000000000363600000000000000003600000000000000000000000000000000000000000000360000000000000000360000000000000000000000000000000000000000003600000000000000003600000000
1004
00000000000000000000000000000000000036000000000000000036360000000000000000000000000000000000000000003600000000000000000000363636000000000000000000000000000000000036000000000000000000000000000036363600000000000000000000000000003600000000000000000000000000
1004
00000000363600000000000000000000003600000000000000000000000000000000000000003636360000000000000000360000000000000000000000000000000000000000000000363636000000000036000000000000000000000000000000000000000000000000000036363600360000000000000000000000000000
1004
00000000000000000000000000000000363600000000000000000000000000000000000000000000000000000000000000000000000000000000000000000000000000000000000000000000000000000000000000000000000000000000000000000000000000000000000000000000000000000000000000000000000000
1004
0000000000000000000000000000000000000000000000000000000000000000000000000000000000000000000000000000000000000000
  0
BLOCK_RECORD
  5
3B9
100
AcDbSymbolTableRecord
100
AcDbBlockTableRecord
  2
APOYOINFERIOR
  0
BLOCK_RECORD
  5
3C4
100
AcDbSymbolTableRecord
100
AcDbBlockTableRecord
  2
APOYOVB
  0
BLOCK_RECORD
  5
3CC
100
AcDbSymbolTableRecord
100
AcDbBlockTableRecord
  2
VIGATSECUN
  0
BLOCK_RECORD
  5
3D7
100
AcDbSymbolTableRecord
100
AcDbBlockTableRecord
  2
VIGATPRIM
  0
BLOCK_RECORD
  5
3FB
100
AcDbSymbolTableRecord
100
AcDbBlockTableRecord
  2
M12
  0
BLOCK_RECORD
  5
531
100
AcDbSymbolTableRecord
100
AcDbBlockTableRecord
  2
VB
  0
BLOCK_RECORD
  5
537
100
AcDbSymbolTableRecord
100
AcDbBlockTableRecord
  2
VB2
  0
BLOCK_RECORD
  5
53F
100
AcDbSymbolTableRecord
100
AcDbBlockTableRecord
  2
APOYOPRINCIPAL
  0
BLOCK_RECORD
  5
557
100
AcDbSymbolTableRecord
100
AcDbBlockTableRecord
  2
M2
  0
ENDTAB
  0
ENDSEC
  0
SECTION
  2
BLOCKS
  0
BLOCK
  5
6
100
AcDbEntity
  8
0
100
AcDbBlockBegin
  2
*MODEL_SPACE
 70
     0
 10
0.0
 20
0.0
 30
0.0
  3
*MODEL_SPACE
  1

1001
ACAD
1000
RTLwPs
1070
   159
  0
ENDBLK
  5
C
100
AcDbEntity
  8
0
100
AcDbBlockEnd
1001
ACAD
1000
RTLwPs
1070
   159
  0
BLOCK
  5
10
100
AcDbEntity
 67
     1
  8
0
100
AcDbBlockBegin
  2
*PAPER_SPACE
 70
     0
 10
0.0
 20
0.0
 30
0.0
  3
*PAPER_SPACE
  1

1001
ACAD
1000
RTLwPs
1070
   159
  0
ENDBLK
  5
11
100
AcDbEntity
 67
     1
  8
0
100
AcDbBlockEnd
1001
ACAD
1000
RTLwPs
1070
   159
  0
BLOCK
  5
1F2
100
AcDbEntity
  8
0
100
AcDbBlockBegin
  2
$0$_DOT
 70
     0
 10
0.0
 20
0.0
 30
0.0
  3
$0$_DOT
  1

  0
LWPOLYLINE
  5
1F0
100
AcDbEntity
  8
0
  6
BYBLOCK
 62
     0
100
AcDbPolyline
 90
        2
 70
     1
 43
0.5
 10
-0.25
 20
0.0
 42
1.0
 10
0.25
 20
0.0
 42
1.0
  0
LINE
  5
1F1
100
AcDbEntity
  8
0
  6
BYBLOCK
 62
     0
100
AcDbLine
 10
-0.5
 20
0.0
 30
0.0
 11
-1.0
 21
0.0
 31
0.0
  0
ENDBLK
  5
1F3
100
AcDbEntity
  8
0
100
AcDbBlockEnd
  0
BLOCK
  5
277
100
AcDbEntity
  8
0
100
AcDbBlockBegin
  2
MALU90OPACO
 70
     0
 10
0.0
 20
0.0
 30
0.0
  3
MALU90OPACO
  1

  0
LWPOLYLINE
  5
274
100
AcDbEntity
  8
_AA_PERFIL_AL
100
AcDbPolyline
 90
        4
 70
     1
 43
0.0
 10
-5.000006
 20
-5.8
 10
4.999995
 20
-5.8
 10
4.999994
 20
-23.8
 10
-5.000006
 20
-23.8
  0
ENDBLK
  5
278
100
AcDbEntity
  8
0
100
AcDbBlockEnd
  0
BLOCK
  5
29E
100
AcDbEntity
  8
0
100
AcDbBlockBegin
  2
MALU90SEMITRP
 70
     0
 10
0.0
 20
0.0
 30
0.0
  3
MALU90SEMITRP
  1

  0
LWPOLYLINE
  5
29A
100
AcDbEntity
  8
_AA_PERFIL_AL
100
AcDbPolyline
 90
       12
 70
   129
 43
0.0
 10
-4.853379
 20
0.95554
 10
-1.649923
 20
0.95554
 10
-1.649923
 20
-1.661917
 10
1.649923
 20
-1.661917
 10
1.649923
 20
0.95554
 10
4.853379
 20
0.95554
 10
4.853379
 20
0.35554
 10
1.949923
 20
0.35554
 10
1.949923
 20
-2.261917
 10
-1.949923
 20
-2.261917
 10
-1.949923
 20
0.35554
 10
-4.853379
 20
0.35554
  0
LWPOLYLINE
  5
29B
100
AcDbEntity
  8
_AA_PERFIL_AL
100
AcDbPolyline
 90
        4
 70
     1
 43
0.0
 10
-5.000006
 20
-5.600001
 10
4.999995
 20
-5.600001
 10
4.999994
 20
-23.600001
 10
-5.000006
 20
-23.600001
  0
ENDBLK
  5
29F
100
AcDbEntity
  8
0
100
AcDbBlockEnd
  0
BLOCK
  5
2A9
100
AcDbEntity
  8
0
100
AcDbBlockBegin
  2
MALU90B
 70
     0
 10
0.0
 20
0.0
 30
0.0
  3
MALU90B
  1

1001
ACAD
1000
RTLwPs
1070
   128
  0
LWPOLYLINE
  5
2A5
100
AcDbEntity
  8
_AA_PERFIL_AL
100
AcDbPolyline
 90
        4
 70
     1
 43
0.0
 10
-5.0
 20
3.750152
 10
1.673683
 20
3.75005
 10
1.67364
 20
0.45005
 10
-5.0
 20
0.449999
  0
LWPOLYLINE
  5
2A6
100
AcDbEntity
  8
_AA_PERFIL_AL
100
AcDbPolyline
 90
        6
 70
   129
 43
0.0
 10
1.67367
 20
2.738082
 10
1.673683
 20
5.955539
 10
4.877139
 20
5.955539
 10
4.877139
 20
5.355539
 10
1.973683
 20
5.355539
 10
1.973683
 20
2.738082
1001
ACAD
1000
RTLwPs
1070
   128
  0
LWPOLYLINE
  5
2A7
100
AcDbEntity
  8
_AA_PERFIL_AL
100
AcDbPolyline
 90
        4
 70
     1
 43
0.0
 10
-5.0
 20
-5.600001
 10
5.0
 20
-5.600001
 10
4.999999
 20
-23.600001
 10
-5.000001
 20
-23.600001
  0
LWPOLYLINE
  5
2A8
100
AcDbEntity
  8
_AA_PERFIL_AL
100
AcDbPolyline
 90
        6
 70
   129
 43
0.0
 10
0.061355
 20
-1.075308
 10
4.957999
 20
-1.075308
 10
4.957999
 20
-4.789786
 10
0.061355
 20
-4.789786
 10
0.061355
 20
-4.789786
 10
0.061355
 20
-4.789786
1001
ACAD
1000
RTLwPs
1070
   128
  0
ENDBLK
  5
2AA
100
AcDbEntity
  8
0
100
AcDbBlockEnd
1001
ACAD
1000
RTLwPs
1070
   128
  0
BLOCK
  5
2CA
100
AcDbEntity
  8
0
100
AcDbBlockBegin
  2
MALU90
 70
     0
 10
0.0
 20
0.0
 30
0.0
  3
MALU90
  1

1001
ACAD
1000
RTLwPs
1070
   128
  0
LWPOLYLINE
  5
2C8
100
AcDbEntity
  8
_AA_PERFIL_AL
100
AcDbPolyline
 90
        4
 70
     1
 43
0.0
 10
-5.0
 20
3.650153
 10
5.0
 20
3.65
 10
4.999957
 20
0.35
 10
-5.0
 20
0.35
  0
LWPOLYLINE
  5
2C9
100
AcDbEntity
  8
_AA_PERFIL_AL
100
AcDbPolyline
 90
        4
 70
     1
 43
0.0
 10
-5.0
 20
-5.7
 10
5.000001
 20
-5.7
 10
4.999999
 20
-23.7
 10
-5.000001
 20
-23.7
  0
ENDBLK
  5
2CB
100
AcDbEntity
  8
0
100
AcDbBlockEnd
1001
ACAD
1000
RTLwPs
1070
   128
  0
BLOCK
  5
28F
100
AcDbEntity
  8
0
100
AcDbBlockBegin
  2
MALU90SEMITRP_OP
 70
     0
 10
0.0
 20
0.0
 30
0.0
  3
MALU90SEMITRP_OP
  1

1001
ACAD
1000
RTLwPs
1070
   128
  0
LWPOLYLINE
  5
28B
100
AcDbEntity
  8
_AA_PERFIL_AL
100
AcDbPolyline
 90
        9
 70
   129
 43
0.0
 10
0.000005
 20
-2.261917
 10
-1.949918
 20
-2.261917
 10
-1.949918
 20
0.35554
 10
-4.853374
 20
0.35554
 10
-4.853374
 20
0.95554
 10
-1.649918
 20
0.95554
 10
-1.649918
 20
-1.661917
 10
0.000005
 20
-1.661917
 10
0.000005
 20
-2.261917
  0
LWPOLYLINE
  5
28C
100
AcDbEntity
  8
_AA_PERFIL_AL
100
AcDbPolyline
 90
        4
 70
     1
 43
0.0
 10
-5.0
 20
-5.600001
 10
5.0
 20
-5.600001
 10
4.999999
 20
-23.600001
 10
-5.000001
 20
-23.600001
  0
ENDBLK
  5
290
100
AcDbEntity
  8
0
100
AcDbBlockEnd
1001
ACAD
1000
RTLwPs
1070
   128
  0
BLOCK
  5
3BA
100
AcDbEntity
  8
0
100
AcDbBlockBegin
  2
APOYOINFERIOR
 70
     0
 10
0.0
 20
0.0
 30
0.0
  3
APOYOINFERIOR
  1

  0
LINE
  5
3BB
100
AcDbEntity
  8
_AA_TEXTOS
100
AcDbLine
 10
0.0
 20
0.0
 30
0.0
 11
-30.264833
 21
-33.393755
 31
0.0
  0
LINE
  5
3BC
100
AcDbEntity
  8
_AA_TEXTOS
100
AcDbLine
 10
0.0
 20
0.0
 30
0.0
 11
42.228585
 21
-33.393755
 31
0.0
  0
ENDBLK
  5
3BD
100
AcDbEntity
  8
0
100
AcDbBlockEnd
  0
BLOCK
  5
3C7
100
AcDbEntity
  8
0
100
AcDbBlockBegin
  2
APOYOVB
 70
     0
 10
0.0
 20
0.0
 30
0.0
  3
APOYOVB
  1

  0
LINE
  5
3C8
100
AcDbEntity
  8
_AA_TEXTOS
 62
     4
100
AcDbLine
 10
0.0
 20
0.0
 30
0.0
 11
33.393755
 21
-30.264833
 31
0.0
  0
LINE
  5
3C9
100
AcDbEntity
  8
_AA_TEXTOS
 62
     4
100
AcDbLine
 10
0.0
 20
0.0
 30
0.0
 11
33.393755
 21
42.228585
 31
0.0
  0
ENDBLK
  5
3CA
100
AcDbEntity
  8
0
100
AcDbBlockEnd
  0
BLOCK
  5
3CD
100
AcDbEntity
  8
0
100
AcDbBlockBegin
  2
VIGATSECUN
 70
     0
 10
0.0
 20
0.0
 30
0.0
  3
VIGATSECUN
  1

  0
LINE
  5
3CE
100
AcDbEntity
  8
_AA_TEXTOS
 62
     6
100
AcDbLine
 10
0.0
 20
0.0
 30
0.0
 11
33.393755
 21
-30.264833
 31
0.0
  0
LINE
  5
3CF
100
AcDbEntity
  8
_AA_TEXTOS
 62
     6
100
AcDbLine
 10
0.0
 20
0.0
 30
0.0
 11
33.393755
 21
42.228585
 31
0.0
  0
ENDBLK
  5
3D0
100
AcDbEntity
  8
0
100
AcDbBlockEnd
  0
BLOCK
  5
3DB
100
AcDbEntity
  8
0
100
AcDbBlockBegin
  2
VIGATPRIM
 70
     0
 10
0.0
 20
0.0
 30
0.0
  3
VIGATPRIM
  1

  0
LINE
  5
3DC
100
AcDbEntity
  8
_AA_TEXTOS
 62
     2
100
AcDbLine
 10
0.0
 20
0.0
 30
0.0
 11
33.393755
 21
-30.264833
 31
0.0
  0
LINE
  5
3DD
100
AcDbEntity
  8
_AA_TEXTOS
 62
     2
100
AcDbLine
 10
0.0
 20
0.0
 30
0.0
 11
33.393755
 21
42.228585
 31
0.0
  0
ENDBLK
  5
3DE
100
AcDbEntity
  8
0
100
AcDbBlockEnd
  0
BLOCK
  5
47D
100
AcDbEntity
  8
0
100
AcDbBlockBegin
  2
M12
 70
     0
 10
0.0
 20
0.0
 30
0.0
  3
M12
  1

  0
POLYLINE
  5
3FC
100
AcDbEntity
  8
_AA_PIEDRA
100
AcDb2dPolyline
 66
     1
 10
0.0
 20
0.0
 30
-0.000061
210
0.0000000032286934
220
0.0
230
-1.0
  0
VERTEX
  5
3FD
100
AcDbEntity
  8
_AA_PIEDRA
100
AcDbVertex
100
AcDb2dVertex
 10
154.97119
 20
1060.515339
 30
-0.000061
  0
VERTEX
  5
3FE
100
AcDbEntity
  8
_AA_PIEDRA
100
AcDbVertex
100
AcDb2dVertex
 10
144.573053
 20
1065.629565
 30
-0.000061
  0
VERTEX
  5
3FF
100
AcDbEntity
  8
_AA_PIEDRA
100
AcDbVertex
100
AcDb2dVertex
 10
136.234254
 20
1070.020055
 30
-0.000061
  0
VERTEX
  5
400
100
AcDbEntity
  8
_AA_PIEDRA
100
AcDbVertex
100
AcDb2dVertex
 10
128.022053
 20
1074.64234
 30
-0.000061
  0
VERTEX
  5
401
100
AcDbEntity
  8
_AA_PIEDRA
100
AcDbVertex
100
AcDb2dVertex
 10
119.956744
 20
1079.515792
 30
-0.000061
  0
VERTEX
  5
402
100
AcDbEntity
  8
_AA_PIEDRA
100
AcDbVertex
100
AcDb2dVertex
 10
112.056348
 20
1084.651934
 30
-0.000061
  0
VERTEX
  5
403
100
AcDbEntity
  8
_AA_PIEDRA
100
AcDbVertex
100
AcDb2dVertex
 10
104.978552
 20
1089.591875
 30
-0.000061
  0
SEQEND
  5
404
100
AcDbEntity
  8
_AA_PIEDRA
  0
LINE
  5
405
100
AcDbEntity
  8
_AA_PIEDRA
100
AcDbLine
 10
-104.978552
 20
1059.591878
 30
0.0
 11
-104.978552
 21
1089.591878
 31
0.0
210
-0.000000000000004
220
1.0
230
0.0
  0
LINE
  5
406
100
AcDbEntity
  8
_AA_CARTONYESO
100
AcDbLine
 10
9.964712
 20
920.345578
 30
0.0
 11
-89.806903
 21
920.351845
 31
0.0
210
-0.000000000000004
220
1.0
230
0.0
  0
ARC
  5
407
100
AcDbEntity
  8
_AA_CARTONYESO
100
AcDbCircle
 10
260129.429183
 20
148700.837127
 30
0.0
 40
299167.428631
210
-0.0000000022136266
220
0.0
230
1.0
100
AcDbArc
 50
209.602023
 51
209.62255
  0
LINE
  5
408
100
AcDbEntity
  8
_AA_ESTRUCTURA_HR
100
AcDbLine
 10
-22.156208
 20
0.0
 30
0.0
 11
-22.156208
 21
-40.0
 31
0.0
210
-0.0000000000015927
220
0.0
230
-1.0
  0
LINE
  5
409
100
AcDbEntity
  8
_AA_PERFIL_AC
100
AcDbLine
 10
45.6959
 20
0.0
 30
0.0
 11
45.6959
 21
867.571361
 31
0.0
  0
POLYLINE
  5
40A
100
AcDbEntity
  8
_AA_PERFIL_AC
100
AcDb2dPolyline
 66
     1
 10
0.0
 20
0.0
 30
0.0
 70
     1
210
0.0000000000015465
220
0.0
230
-1.0
1001
ACAD
1000
RTLwPs
1070
   128
  0
VERTEX
  5
40B
100
AcDbEntity
  8
_AA_PERFIL_AC
100
AcDbVertex
100
AcDb2dVertex
 10
-65.693296
 20
785.0
 30
0.0
  0
VERTEX
  5
40C
100
AcDbEntity
  8
_AA_PERFIL_AC
100
AcDbVertex
100
AcDb2dVertex
 10
-65.693296
 20
765.0
 30
0.0
  0
VERTEX
  5
40D
100
AcDbEntity
  8
_AA_PERFIL_AC
100
AcDbVertex
100
AcDb2dVertex
 10
-45.70941
 20
765.0
 30
0.0
  0
VERTEX
  5
40E
100
AcDbEntity
  8
_AA_PERFIL_AC
100
AcDbVertex
100
AcDb2dVertex
 10
-45.70941
 20
785.0
 30
0.0
  0
VERTEX
  5
40F
100
AcDbEntity
  8
_AA_PERFIL_AC
100
AcDbVertex
100
AcDb2dVertex
 10
-65.693296
 20
785.0
 30
0.0
  0
SEQEND
  5
410
100
AcDbEntity
  8
_AA_PERFIL_AC
  0
LWPOLYLINE
  5
411
100
AcDbEntity
  8
_AA_PERFIL_AC
100
AcDbPolyline
 90
        4
 70
     1
 43
0.0
 38
0.0
 10
65.693296
 20
760.0
 10
95.693296
 20
760.0
 10
95.693296
 20
790.0
 10
65.693296
 20
790.0
1001
ACAD
1000
RTLwPs
1070
   128
  0
LWPOLYLINE
  5
412
100
AcDbEntity
  8
_AA_PERFIL_AC
100
AcDbPolyline
 90
        4
 70
   129
 43
0.0
 10
95.693296
 20
1036.089655
 10
95.693296
 20
863.013367
 10
65.693296
 20
863.013367
 10
65.693296
 20
999.013367
  0
LINE
  5
413
100
AcDbEntity
  8
_AA_PERFIL_AC
100
AcDbLine
 10
65.679786
 20
0.0
 30
0.0
 11
65.679786
 21
867.571361
 31
0.0
  0
POLYLINE
  5
414
100
AcDbEntity
  8
_AA_PERFIL_AC
100
AcDb2dPolyline
 66
     1
 10
0.0
 20
0.0
 30
0.0
 70
     1
210
0.0000000000015465
220
0.0
230
-1.0
1001
ACAD
1000
RTLwPs
1070
   128
  0
VERTEX
  5
415
100
AcDbEntity
  8
_AA_PERFIL_AC
100
AcDbVertex
100
AcDb2dVertex
 10
-65.693296
 20
385.0
 30
0.0
  0
VERTEX
  5
416
100
AcDbEntity
  8
_AA_PERFIL_AC
100
AcDbVertex
100
AcDb2dVertex
 10
-65.693296
 20
365.0
 30
0.0
  0
VERTEX
  5
417
100
AcDbEntity
  8
_AA_PERFIL_AC
100
AcDbVertex
100
AcDb2dVertex
 10
-45.70941
 20
365.0
 30
0.0
  0
VERTEX
  5
418
100
AcDbEntity
  8
_AA_PERFIL_AC
100
AcDbVertex
100
AcDb2dVertex
 10
-45.70941
 20
385.0
 30
0.0
  0
VERTEX
  5
419
100
AcDbEntity
  8
_AA_PERFIL_AC
100
AcDbVertex
100
AcDb2dVertex
 10
-65.693296
 20
385.0
 30
0.0
  0
SEQEND
  5
41A
100
AcDbEntity
  8
_AA_PERFIL_AC
  0
LINE
  5
41B
100
AcDbEntity
  8
_AA_PERFIL_AC
100
AcDbLine
 10
-67.056833
 20
785.0
 30
0.0
 11
-20.035847
 21
0.0
 31
0.0
210
-0.000000000000004
220
1.0
230
0.0
  0
LINE
  5
41C
100
AcDbEntity
  8
_AA_PERFIL_AC
100
AcDbLine
 10
-94.539405
 20
526.50598
 30
0.0
 11
-112.094617
 21
785.0
 31
0.0
210
-0.000000000000004
220
1.0
230
0.0
  0
LINE
  5
41D
100
AcDbEntity
  8
_AA_PERFIL_AC
100
AcDbLine
 10
-112.248749
 20
867.571361
 30
0.0
 11
-117.53301
 21
667.770084
 31
0.0
210
-0.000000000000004
220
1.0
230
0.0
  0
LINE
  5
41E
100
AcDbEntity
  8
_AA_PERFIL_AC
100
AcDbLine
 10
-138.062351
 20
876.389225
 30
0.0
 11
-132.027788
 21
1040.60165
 31
0.0
210
-0.000000000000004
220
1.0
230
0.0
  0
LINE
  5
41F
100
AcDbEntity
  8
_AA_PERFIL_AC
100
AcDbLine
 10
-47.020985
 20
785.0
 30
0.0
 11
0.0
 21
0.0
 31
0.0
210
-0.000000000000004
220
1.0
230
0.0
  0
LINE
  5
420
100
AcDbEntity
  8
_AA_PERFIL_AC
100
AcDbLine
 10
-75.262942
 20
537.838145
 30
0.0
 11
-92.048548
 21
785.0
 31
0.0
210
-0.000000000000004
220
1.0
230
0.0
  0
LINE
  5
421
100
AcDbEntity
  8
_AA_PERFIL_AC
100
AcDbLine
 10
-92.241755
 20
867.571361
 30
0.0
 11
-94.425569
 21
785.0
 31
0.0
210
-0.000000000000004
220
1.0
230
0.0
1001
ACAD
1000
RTLwPs
1070
   128
  0
LINE
  5
422
100
AcDbEntity
  8
_AA_PERFIL_AC
100
AcDbLine
 10
-118.075842
 20
875.654751
 30
0.0
 11
-112.014288
 21
1040.60165
 31
0.0
210
-0.000000000000004
220
1.0
230
0.0
  0
LINE
  5
423
100
AcDbEntity
  8
_AA_PERFIL_AC
100
AcDbLine
 10
45.70941
 20
385.0
 30
0.0
 11
-43.097095
 21
385.0
 31
0.0
  0
LINE
  5
424
100
AcDbEntity
  8
_AA_PERFIL_AC
100
AcDbLine
 10
45.70941
 20
365.0
 30
0.0
 11
-41.899108
 21
365.0
 31
0.0
  0
LWPOLYLINE
  5
425
100
AcDbEntity
  8
_AA_PERFIL_AC
100
AcDbPolyline
 90
        4
 70
   129
 43
0.0
 10
-43.097095
 20
385.0
 10
-23.061248
 20
385.0
 10
-21.863261
 20
365.0
 10
-41.899108
 20
365.0
1001
ACAD
1000
RTLwPs
1070
   128
  0
LINE
  5
426
100
AcDbEntity
  8
_AA_PERFIL_AC
100
AcDbLine
 10
45.70941
 20
785.0
 30
0.0
 11
-114.432562
 21
785.0
 31
0.0
1001
ACAD
1000
RTLwPs
1070
   128
  0
LINE
  5
427
100
AcDbEntity
  8
_AA_PERFIL_AC
100
AcDbLine
 10
45.70941
 20
765.0
 30
0.0
 11
-114.961514
 21
765.0
 31
0.0
1001
ACAD
1000
RTLwPs
1070
   128
  0
INSERT
  5
428
100
AcDbEntity
  8
_AA_PERFIL_AL
100
AcDbBlockReference
  2
MALU90OPACO
 10
-155.995352
 20
1036.479054
 30
0.0
 50
87.895412
1001
ACAD
1000
RTLwPs
1070
   128
  0
LINE
  5
429
100
AcDbEntity
  8
_AA_VIDRIO
100
AcDbLine
 10
-156.069516
 20
1034.460907
 30
0.00006
 11
-151.272754
 21
1034.284633
 31
0.00006
  0
LINE
  5
42A
100
AcDbEntity
  8
_AA_VIDRIO
100
AcDbLine
 10
-161.955752
 20
874.284766
 30
0.00006
 11
-158.32878
 21
972.981853
 31
0.00006
  0
LINE
  5
42B
100
AcDbEntity
  8
_AA_VIDRIO
100
AcDbLine
 10
-151.272754
 20
1034.284633
 30
0.00006
 11
-153.383691
 21
976.841863
 31
0.00006
  0
POLYLINE
  5
42C
100
AcDbEntity
  8
_AA_PIEDRA
100
AcDb2dPolyline
 66
     1
 10
0.0
 20
0.0
 30
-0.000061
210
0.0000000032286934
220
0.0
230
-1.0
  0
VERTEX
  5
42D
100
AcDbEntity
  8
_AA_PIEDRA
100
AcDbVertex
100
AcDb2dVertex
 10
150.227708
 20
1057.276331
 30
-0.000061
  0
VERTEX
  5
42E
100
AcDbEntity
  8
_AA_PIEDRA
100
AcDbVertex
100
AcDb2dVertex
 10
142.304548
 20
1061.173263
 30
-0.000061
  0
VERTEX
  5
42F
100
AcDbEntity
  8
_AA_PIEDRA
100
AcDbVertex
100
AcDb2dVertex
 10
133.842834
 20
1065.628469
 30
-0.000061
  0
VERTEX
  5
430
100
AcDbEntity
  8
_AA_PIEDRA
100
AcDbVertex
100
AcDb2dVertex
 10
125.502293
 20
1070.322991
 30
-0.000061
  0
VERTEX
  5
431
100
AcDbEntity
  8
_AA_PIEDRA
100
AcDbVertex
100
AcDb2dVertex
 10
117.300471
 20
1075.278932
 30
-0.000061
  0
VERTEX
  5
432
100
AcDbEntity
  8
_AA_PIEDRA
100
AcDbVertex
100
AcDb2dVertex
 10
109.978552
 20
1080.038998
 30
-0.000061
  0
SEQEND
  5
433
100
AcDbEntity
  8
_AA_PIEDRA
  0
LINE
  5
434
100
AcDbEntity
  8
_AA_PIEDRA
100
AcDbLine
 10
-155.921189
 20
1038.497191
 30
0.00006
 11
-151.0413
 21
1038.317862
 31
0.00006
  0
LINE
  5
435
100
AcDbEntity
  8
_AA_VIDRIO
100
AcDbLine
 10
-161.955752
 20
874.284766
 30
0.0
 11
-157.15899
 21
874.108492
 31
0.0
  0
LINE
  5
436
100
AcDbEntity
  8
_AA_VIDRIO
100
AcDbLine
 10
-162.104079
 20
870.248482
 30
0.0
 11
-157.307317
 21
870.072208
 31
0.0
  0
INSERT
  5
437
100
AcDbEntity
  8
_AA_PERFIL_AL
100
AcDbBlockReference
  2
MALU90SEMITRP_OP
 10
-162.029915
 20
872.266624
 30
0.0
 50
87.895412
1001
ACAD
1000
RTLwPs
1070
   128
  0
INSERT
  5
438
100
AcDbEntity
  8
_AA_PERFIL_AL
100
AcDbBlockReference
  2
MALU90OPACO
 10
-158.254616
 20
975.0
 30
0.00006
 50
87.895412
1001
ACAD
1000
RTLwPs
1070
   128
  0
LINE
  5
439
100
AcDbEntity
  8
_AA_VIDRIO
100
AcDbLine
 10
-158.32878
 20
972.981853
 30
0.00006
 11
-153.532018
 21
972.805579
 31
0.00006
  0
LINE
  5
43A
100
AcDbEntity
  8
_AA_VIDRIO
100
AcDbLine
 10
-158.180452
 20
977.018137
 30
0.00006
 11
-153.38369
 21
976.841863
 31
0.00006
  0
LINE
  5
43B
100
AcDbEntity
  8
_AA_VIDRIO
100
AcDbLine
 10
-153.532018
 20
972.805579
 30
0.00006
 11
-157.15899
 21
874.108492
 31
0.00006
  0
LINE
  5
43C
100
AcDbEntity
  8
_AA_VIDRIO
100
AcDbLine
 10
-158.180453
 20
977.018137
 30
0.00006
 11
-156.069516
 21
1034.460907
 31
0.00006
  0
LINE
  5
43D
100
AcDbEntity
  8
_AA_PIEDRA
100
AcDbLine
 10
-155.921189
 20
1038.497191
 30
0.00006
 11
-154.97119
 21
1060.515339
 31
0.00006
  0
LINE
  5
43E
100
AcDbEntity
  8
_AA_PIEDRA
100
AcDbLine
 10
-151.0413
 20
1038.317862
 30
0.00006
 11
-150.227708
 21
1057.276331
 31
0.00006
  0
INSERT
  5
43F
100
AcDbEntity
  8
_AA_PERFIL_AL
100
AcDbBlockReference
  2
MALU90SEMITRP
 10
-165.337439
 20
782.262349
 30
0.0
 50
87.895412
1001
ACAD
1000
RTLwPs
1070
   128
  0
LINE
  5
440
100
AcDbEntity
  8
_AA_VIDRIO
100
AcDbLine
 10
-165.263276
 20
784.280486
 30
0.0
 11
-160.466513
 21
784.104212
 31
0.0
  0
LINE
  5
441
100
AcDbEntity
  8
_AA_VIDRIO
100
AcDbLine
 10
-162.104079
 20
870.248482
 30
0.0
 11
-165.263276
 21
784.280486
 31
0.0
  0
LINE
  5
442
100
AcDbEntity
  8
_AA_VIDRIO
100
AcDbLine
 10
-160.466513
 20
784.104212
 30
0.0
 11
-157.307317
 21
870.072208
 31
0.0
  0
INSERT
  5
443
100
AcDbEntity
  8
_AA_PERFIL_AL
100
AcDbBlockReference
  2
MALU90B
 10
-141.324691
 20
668.399316
 30
0.0
 41
-1.0
 50
88.485016
1001
ACAD
1000
RTLwPs
1070
   128
  0
LINE
  5
444
100
AcDbEntity
  8
_AA_VIDRIO
100
AcDbLine
 10
-141.272333
 20
670.378992
 30
0.0
 11
-136.009575
 21
869.366979
 31
0.0
  0
LINE
  5
445
100
AcDbEntity
  8
_AA_VIDRIO
100
AcDbLine
 10
-146.376334
 20
666.51271
 30
0.0
 11
-141.578012
 21
666.385806
 31
0.0
  0
LINE
  5
446
100
AcDbEntity
  8
_AA_VIDRIO
100
AcDbLine
 10
-131.212559
 20
869.190696
 30
0.0
 11
-136.474011
 21
670.252087
 31
0.0
  0
LINE
  5
447
100
AcDbEntity
  8
_AA_VIDRIO
100
AcDbLine
 10
-136.474011
 20
670.252087
 30
0.0
 11
-141.272333
 21
670.378992
 31
0.0
  0
LINE
  5
448
100
AcDbEntity
  8
_AA_PERFIL_AC
100
AcDbLine
 10
-138.062351
 20
876.389225
 30
0.0
 11
-111.682094
 21
875.41979
 31
0.0
1001
ACAD
1000
RTLwPs
1070
   128
  0
INSERT
  5
449
100
AcDbEntity
  8
_AA_PERFIL_AL
100
AcDbBlockReference
  2
MALU90SEMITRP
 10
-147.646753
 20
618.47762
 30
0.0
 50
88.485005
1001
ACAD
1000
RTLwPs
1070
   128
  0
LINE
  5
44A
100
AcDbEntity
  8
_AA_VIDRIO
100
AcDbLine
 10
-147.593361
 20
620.496413
 30
0.0
 11
-142.795039
 21
620.369508
 31
0.0
  0
LINE
  5
44B
100
AcDbEntity
  8
_AA_VIDRIO
100
AcDbLine
 10
-146.376331
 20
666.51271
 30
0.0
 11
-147.593361
 21
620.496413
 31
0.0
  0
LINE
  5
44C
100
AcDbEntity
  8
_AA_VIDRIO
100
AcDbLine
 10
-142.795039
 20
620.369508
 30
0.0
 11
-141.578008
 21
666.385805
 31
0.0
  0
INSERT
  5
44D
100
AcDbEntity
  8
_AA_PERFIL_AL
100
AcDbBlockReference
  2
MALU90OPACO
 10
-121.687622
 20
575.0
 30
0.0
 50
93.885186
1001
ACAD
1000
RTLwPs
1070
   128
  0
LINE
  5
44E
100
AcDbEntity
  8
_AA_VIDRIO
100
AcDbLine
 10
-121.550785
 20
572.985131
 30
0.0
 11
-116.761816
 21
573.310367
 31
0.0
  0
LINE
  5
44F
100
AcDbEntity
  8
_AA_VIDRIO
100
AcDbLine
 10
-117.035489
 20
577.340093
 30
0.0
 11
-122.846757
 21
662.908871
 31
0.0
  0
LINE
  5
450
100
AcDbEntity
  8
_AA_VIDRIO
100
AcDbLine
 10
-127.666471
 20
663.036341
 30
0.0
 11
-121.824458
 21
577.014858
 31
0.0
  0
LINE
  5
451
100
AcDbEntity
  8
_AA_VIDRIO
100
AcDbLine
 10
-121.824458
 20
577.014858
 30
0.0
 11
-117.035489
 21
577.340093
 31
0.0
  0
LINE
  5
452
100
AcDbEntity
  8
_AA_VIDRIO
100
AcDbLine
 10
-118.760331
 20
531.896729
 30
0.0
 11
-113.971363
 21
532.221964
 31
0.0
  0
LINE
  5
453
100
AcDbEntity
  8
_AA_VIDRIO
100
AcDbLine
 10
-121.550785
 20
572.985131
 30
0.0
 11
-118.760331
 21
531.896729
 31
0.0
  0
LINE
  5
454
100
AcDbEntity
  8
_AA_VIDRIO
100
AcDbLine
 10
-113.971363
 20
532.221964
 30
0.0
 11
-116.761816
 21
573.310367
 31
0.0
  0
LINE
  5
455
100
AcDbEntity
  8
_AA_VIDRIO
100
AcDbLine
 10
-113.69769
 20
528.192238
 30
0.0
 11
-110.552006
 21
481.873198
 31
0.0
  0
LINE
  5
456
100
AcDbEntity
  8
_AA_VIDRIO
100
AcDbLine
 10
-115.340975
 20
481.547963
 30
0.0
 11
-118.486659
 21
527.867002
 31
0.0
  0
LINE
  5
457
100
AcDbEntity
  8
_AA_VIDRIO
100
AcDbLine
 10
-118.486659
 20
527.867002
 30
0.0
 11
-113.69769
 21
528.192238
 31
0.0
  0
INSERT
  5
458
100
AcDbEntity
  8
_AA_PERFIL_AL
100
AcDbBlockReference
  2
MALU90SEMITRP_OP
 10
-118.623495
 20
529.881865
 30
0.0
 50
93.885186
1001
ACAD
1000
RTLwPs
1070
   128
  0
INSERT
  5
459
100
AcDbEntity
  8
_AA_PERFIL_AL
100
AcDbBlockReference
  2
MALU90SEMITRP
 10
-115.204139
 20
479.533105
 30
0.0
 50
93.885186
1001
ACAD
1000
RTLwPs
1070
   128
  0
LINE
  5
45A
100
AcDbEntity
  8
_AA_VIDRIO
100
AcDbLine
 10
-115.340975
 20
481.547963
 30
0.0
 11
-110.552006
 21
481.873198
 31
0.0
  0
LINE
  5
45B
100
AcDbEntity
  8
_AA_VIDRIO
100
AcDbLine
 10
-61.770733
 20
378.980372
 30
0.0
 11
-70.789128
 21
529.574196
 31
0.0
  0
LINE
  5
45C
100
AcDbEntity
  8
_AA_VIDRIO
100
AcDbLine
 10
-75.58054
 20
529.287193
 30
0.0
 11
-66.562145
 21
378.693369
 31
0.0
  0
LINE
  5
45D
100
AcDbEntity
  8
_AA_VIDRIO
100
AcDbLine
 10
-54.582116
 20
178.693379
 30
0.0
 11
-66.119528
 21
371.306621
 31
0.0
  0
LINE
  5
45E
100
AcDbEntity
  8
_AA_VIDRIO
100
AcDbLine
 10
-61.328116
 20
371.593624
 30
0.0
 11
-49.790704
 21
178.980382
 31
0.0
  0
INSERT
  5
45F
100
AcDbEntity
  8
_AA_PERFIL_AL
100
AcDbBlockReference
  2
MALU90
 10
-66.34076
 20
375.0
 30
0.0
 50
93.427886
1001
ACAD
1000
RTLwPs
1070
   128
  0
LINE
  5
460
100
AcDbEntity
  8
_AA_VIDRIO
100
AcDbLine
 10
-61.328116
 20
371.593624
 30
0.0
 11
-66.119528
 21
371.306621
 31
0.0
  0
LINE
  5
461
100
AcDbEntity
  8
_AA_VIDRIO
100
AcDbLine
 10
-61.770733
 20
378.980372
 30
0.0
 11
-66.561991
 21
378.693379
 31
0.0
  0
LINE
  5
462
100
AcDbEntity
  8
_AA_VIDRIO
100
AcDbLine
 10
-45.298115
 20
23.699998
 30
0.0
 11
-54.13966
 21
171.306621
 31
0.0
  0
LINE
  5
463
100
AcDbEntity
  8
_AA_VIDRIO
100
AcDbLine
 10
-49.348247
 20
171.593624
 30
0.0
 11
-40.506703
 21
23.987001
 31
0.0
  0
INSERT
  5
464
100
AcDbEntity
  8
_AA_PERFIL_AL
100
AcDbBlockReference
  2
MALU90
 10
-54.360891
 20
175.0
 30
0.0
 50
93.427886
1001
ACAD
1000
RTLwPs
1070
   128
  0
LINE
  5
465
100
AcDbEntity
  8
_AA_VIDRIO
100
AcDbLine
 10
-49.348247
 20
171.593624
 30
0.0
 11
-54.13966
 21
171.306621
 31
0.0
  0
LINE
  5
466
100
AcDbEntity
  8
_AA_VIDRIO
100
AcDbLine
 10
-49.790864
 20
178.980372
 30
0.0
 11
-54.582122
 21
178.693379
 31
0.0
  0
INSERT
  5
467
100
AcDbEntity
  8
_AA_PERFIL_AL
100
AcDbBlockReference
  2
MALU90
 10
-75.651986
 20
532.800249
 30
0.0
 50
93.885086
1001
ACAD
1000
RTLwPs
1070
   128
  0
LINE
  5
468
100
AcDbEntity
  8
_AA_VIDRIO
100
AcDbLine
 10
-70.691221
 20
529.580061
 30
0.0
 11
-75.482633
 21
529.293058
 31
0.0
  0
INSERT
  5
469
100
AcDbEntity
  8
_AA_PERFIL_AL
100
AcDbBlockReference
  2
MALU90
 10
-45.298115
 20
20.0
 30
0.0
 50
90.000002
1001
ACAD
1000
RTLwPs
1070
   128
  0
LINE
  5
46A
100
AcDbEntity
  8
_AA_VIDRIO
100
AcDbLine
 10
-45.298115
 20
23.699998
 30
0.0
 11
-40.506703
 21
23.987001
 31
0.0
  0
LINE
  5
46B
100
AcDbEntity
  8
_AA_PERFIL_AC
100
AcDbLine
 10
-95.216978
 20
536.482998
 30
0.0
 11
-52.345228
 21
539.394565
 31
0.0
1001
ACAD
1000
RTLwPs
1070
   128
  0
LINE
  5
46C
100
AcDbEntity
  8
_AA_PERFIL_AC
100
AcDbLine
 10
-117.53301
 20
667.770084
 30
0.0
 11
-104.109021
 21
667.415052
 31
0.0
1001
ACAD
1000
RTLwPs
1070
   128
  0
LWPOLYLINE
  5
46D
100
AcDbEntity
  8
_AA_PERFIL_AC
100
AcDbPolyline
 90
        4
 70
   129
 43
0.0
 10
-67.056833
 20
785.0
 10
-47.020985
 20
785.0
 10
-45.822999
 20
765.0
 10
-65.858846
 20
765.0
1001
ACAD
1000
RTLwPs
1070
   128
  0
LINE
  5
46E
100
AcDbEntity
  8
_AA_PERFIL_AC
100
AcDbLine
 10
-112.248749
 20
867.571361
 30
0.0
 11
45.6959
 21
867.571361
 31
0.0
1001
ACAD
1000
RTLwPs
1070
   128
  0
POLYLINE
  5
46F
100
AcDbEntity
  8
_AA_PERFIL_AC
100
AcDb2dPolyline
 66
     1
 10
0.0
 20
0.0
 30
0.0
 70
     1
210
0.0000000000015465
220
0.0
230
-1.0
1001
ACAD
1000
RTLwPs
1070
   128
  0
VERTEX
  5
470
100
AcDbEntity
  8
_AA_PERFIL_AC
100
AcDbVertex
100
AcDb2dVertex
 10
-65.679786
 20
867.571361
 30
0.0
  0
VERTEX
  5
471
100
AcDbEntity
  8
_AA_PERFIL_AC
100
AcDbVertex
100
AcDb2dVertex
 10
-65.679786
 20
847.571361
 30
0.0
  0
VERTEX
  5
472
100
AcDbEntity
  8
_AA_PERFIL_AC
100
AcDbVertex
100
AcDb2dVertex
 10
-45.6959
 20
847.571361
 30
0.0
  0
VERTEX
  5
473
100
AcDbEntity
  8
_AA_PERFIL_AC
100
AcDbVertex
100
AcDb2dVertex
 10
-45.6959
 20
867.571361
 30
0.0
  0
VERTEX
  5
474
100
AcDbEntity
  8
_AA_PERFIL_AC
100
AcDbVertex
100
AcDb2dVertex
 10
-65.679786
 20
867.571361
 30
0.0
  0
SEQEND
  5
475
100
AcDbEntity
  8
_AA_PERFIL_AC
  0
LINE
  5
476
100
AcDbEntity
  8
_AA_PERFIL_AC
100
AcDbLine
 10
-112.777701
 20
847.571361
 30
0.0
 11
45.6959
 21
847.571361
 31
0.0
1001
ACAD
1000
RTLwPs
1070
   128
  0
LWPOLYLINE
  5
477
100
AcDbEntity
  8
_AA_PERFIL_AC
100
AcDbPolyline
 90
        4
 70
   129
 43
0.0
 10
-112.014288
 20
1040.60165
 10
-112.749258
 20
1020.60165
 10
-132.762758
 20
1020.60165
 10
-132.027788
 20
1040.60165
1001
ACAD
1000
RTLwPs
1070
   128
  0
LWPOLYLINE
  5
478
100
AcDbEntity
  8
_AA_PERFIL_AC
100
AcDbPolyline
 90
        4
 70
   129
 43
0.0
 10
-92.241755
 20
867.571361
 10
-92.770707
 20
847.571361
 10
-112.777701
 20
847.571361
 10
-112.248749
 20
867.571361
1001
ACAD
1000
RTLwPs
1070
   128
  0
LINE
  5
479
100
AcDbEntity
  8
_AA_PERFIL_AC
100
AcDbLine
 10
-117.708605
 20
885.648005
 30
0.0
 11
-111.682094
 21
885.42654
 31
0.0
1001
ACAD
1000
RTLwPs
1070
   128
  0
INSERT
  5
47A
100
AcDbEntity
  8
_AA_PERFIL_AL
100
AcDbBlockReference
  2
MALU90
 10
-136.137999
 20
871.315132
 30
0.0
 50
87.895416
1001
ACAD
1000
RTLwPs
1070
   128
  0
LINE
  5
47B
100
AcDbEntity
  8
_AA_VIDRIO
100
AcDbLine
 10
-136.009575
 20
869.366979
 30
0.0
 11
-131.212559
 21
869.190696
 31
0.0
  0
LINE
  5
47C
100
AcDbEntity
  8
_AA_PERFIL_AC
100
AcDbLine
 10
-94.539405
 20
526.50598
 30
0.0
 11
-51.747287
 21
529.412139
 31
0.0
1001
ACAD
1000
RTLwPs
1070
   128
  0
ENDBLK
  5
47E
100
AcDbEntity
  8
0
100
AcDbBlockEnd
  0
BLOCK
  5
532
100
AcDbEntity
  8
0
100
AcDbBlockBegin
  2
VB
 70
     0
 10
0.0
 20
0.0
 30
0.0
  3
VB
  1

  0
LINE
  5
533
100
AcDbEntity
  8
_AA_TEXTOS
 62
     4
100
AcDbLine
 10
0.0
 20
0.0
 30
0.0
 11
33.393755
 21
-30.264833
 31
0.0
  0
LINE
  5
534
100
AcDbEntity
  8
_AA_TEXTOS
 62
     4
100
AcDbLine
 10
0.0
 20
0.0
 30
0.0
 11
33.393755
 21
42.228585
 31
0.0
  0
ENDBLK
  5
535
100
AcDbEntity
  8
0
100
AcDbBlockEnd
  0
BLOCK
  5
53A
100
AcDbEntity
  8
0
100
AcDbBlockBegin
  2
VB2
 70
     0
 10
0.0
 20
0.0
 30
0.0
  3
VB2
  1

  0
LINE
  5
53B
100
AcDbEntity
  8
_AA_TEXTOS
 62
     3
100
AcDbLine
 10
0.0
 20
0.0
 30
0.0
 11
33.393755
 21
-30.264833
 31
0.0
  0
LINE
  5
53C
100
AcDbEntity
  8
_AA_TEXTOS
 62
     3
100
AcDbLine
 10
0.0
 20
0.0
 30
0.0
 11
33.393755
 21
42.228585
 31
0.0
  0
ENDBLK
  5
53D
100
AcDbEntity
  8
0
100
AcDbBlockEnd
  0
BLOCK
  5
540
100
AcDbEntity
  8
0
100
AcDbBlockBegin
  2
APOYOPRINCIPAL
 70
     0
 10
0.0
 20
0.0
 30
0.0
  3
APOYOPRINCIPAL
  1

  0
LINE
  5
541
100
AcDbEntity
  8
_AA_TEXTOS
 62
     3
100
AcDbLine
 10
0.0
 20
0.0
 30
0.0
 11
-30.264833
 21
-33.393755
 31
0.0
  0
LINE
  5
542
100
AcDbEntity
  8
_AA_TEXTOS
 62
     3
100
AcDbLine
 10
0.0
 20
0.0
 30
0.0
 11
42.228585
 21
-33.393755
 31
0.0
  0
ENDBLK
  5
543
100
AcDbEntity
  8
0
100
AcDbBlockEnd
  0
BLOCK
  5
63A
100
AcDbEntity
  8
0
100
AcDbBlockBegin
  2
M2
 70
     0
 10
0.0
 20
0.0
 30
0.0
  3
M2
  1

  0
LINE
  5
558
100
AcDbEntity
  8
_AA_EJES
  6
DASHDOT
100
AcDbLine
 10
-715.166813
 20
1160.0
 30
0.0
 11
2267.396658
 21
1160.0
 31
0.0
  0
LINE
  5
559
100
AcDbEntity
  8
_AA_EJES
  6
DASHDOT
100
AcDbLine
 10
-715.166813
 20
760.0
 30
0.0
 11
2267.396658
 21
760.0
 31
0.0
  0
LINE
  5
55A
100
AcDbEntity
  8
_AA_EJES
  6
DASHDOT
100
AcDbLine
 10
-715.166813
 20
360.0
 30
0.0
 11
2267.396658
 21
360.0
 31
0.0
  0
LINE
  5
55B
100
AcDbEntity
  8
_AA_EJES
  6
DASHDOT
100
AcDbLine
 10
-715.166813
 20
-40.0
 30
0.0
 11
2267.396658
 21
-40.0
 31
0.0
  0
LINE
  5
55C
100
AcDbEntity
  8
_AA_EJES
  6
DASHDOT
100
AcDbLine
 10
-735.164813
 20
0.0
 30
0.0
 11
2247.398658
 21
0.0
 31
0.0
  0
LWPOLYLINE
  5
55D
100
AcDbEntity
  8
_AA_PERFIL_AC
100
AcDbPolyline
 90
        5
 70
   128
 43
0.0
 38
0.0
 10
-169.346478
 20
1170.0
 10
-149.317734
 20
1170.0
 10
-150.390384
 20
1150.0
 10
-170.419128
 20
1150.0
 10
-169.346478
 20
1170.0
1001
ACAD
1000
RTLwPs
1070
   128
  0
LWPOLYLINE
  5
55E
100
AcDbEntity
  8
_AA_PERFIL_AC
100
AcDbPolyline
 90
        5
 70
   128
 43
0.0
 38
0.0
 10
-154.454525
 20
770.0
 10
-134.450638
 20
770.0
 10
-134.844923
 20
750.0
 10
-154.848809
 20
750.0
 10
-154.454525
 20
770.0
1001
ACAD
1000
RTLwPs
1070
   128
  0
LWPOLYLINE
  5
55F
100
AcDbEntity
  8
_AA_PERFIL_AC
100
AcDbPolyline
 90
        5
 70
   128
 43
0.0
 10
-149.249025
 20
370.0
 10
-129.183817
 20
370.0
 10
-130.800164
 20
350.0
 10
-150.865372
 20
350.0
 10
-149.249025
 20
370.0
1001
ACAD
1000
RTLwPs
1070
   128
  0
ARC
  5
560
100
AcDbEntity
  8
_AA_CARTONYESO
100
AcDbCircle
 10
-1696.455159
 20
31573.783884
 30
0.0
 40
30510.443375
210
-0.0000000000235866
220
0.0
230
1.0
100
AcDbArc
 50
272.951598
 51
273.051828
1001
ACAD
1000
RTLwPs
1070
   128
  0
LINE
  5
561
100
AcDbEntity
  8
_AA_VIDRIO
100
AcDbLine
 10
-152.90309
 20
195.343901
 30
0.0
 11
-154.783342
 21
241.907715
 31
0.0
210
-0.0000000000000175
220
1.0
230
0.0
1001
ACAD
1000
RTLwPs
1070
   128
  0
POLYLINE
  5
562
100
AcDbEntity
  8
_AA_PIEDRA
100
AcDb2dPolyline
 66
     1
 10
0.0
 20
0.0
 30
0.000146
210
-0.0000000158086069
220
0.0000007520987885
230
0.9999999999997172
1001
ACAD
1000
RTLwPs
1070
   128
  0
VERTEX
  5
563
100
AcDbEntity
  8
_AA_PIEDRA
100
AcDbVertex
100
AcDb2dVertex
 10
-143.430864
 20
187.026738
 30
0.000146
  0
VERTEX
  5
564
100
AcDbEntity
  8
_AA_PIEDRA
100
AcDbVertex
100
AcDb2dVertex
 10
-728.945393
 20
174.713459
 30
0.000146
  0
SEQEND
  5
565
100
AcDbEntity
  8
_AA_PIEDRA
  0
LINE
  5
566
100
AcDbEntity
  8
_AA_PIEDRA
100
AcDbLine
 10
232.170368
 20
1399.348373
 30
0.0
 11
232.170368
 21
1369.348373
 31
0.0
210
-0.0000000000000175
220
1.0
230
0.0
1001
ACAD
1000
RTLwPs
1070
   128
  0
POLYLINE
  5
567
100
AcDbEntity
  8
_AA_CARTONYESO
100
AcDb2dPolyline
 66
     1
 10
0.0
 20
0.0
 30
0.0
210
0.0000000000015459
220
0.0
230
-1.0
1001
ACAD
1000
RTLwPs
1070
   128
  0
VERTEX
  5
568
100
AcDbEntity
  8
_AA_CARTONYESO
100
AcDbVertex
100
AcDb2dVertex
 10
-301.180847
 20
655.852372
 30
0.0
  0
VERTEX
  5
569
100
AcDbEntity
  8
_AA_CARTONYESO
100
AcDbVertex
100
AcDb2dVertex
 10
70.848787
 20
927.328904
 30
0.0
  0
SEQEND
  5
56A
100
AcDbEntity
  8
_AA_CARTONYESO
  0
ARC
  5
56B
100
AcDbEntity
  8
_AA_CARTONYESO
100
AcDbCircle
 10
-3901.74034
 20
-30077.530663
 30
0.0
 40
30947.319285
210
-0.0000000000030732
220
0.0
230
1.0
100
AcDbArc
 50
81.711033
 51
81.886202
1001
ACAD
1000
RTLwPs
1070
   128
  0
ARC
  5
56C
100
AcDbEntity
  8
_AA_CARTONYESO
100
AcDbCircle
 10
13482.661911
 20
23159.932236
 30
0.0
 40
26080.334343
210
0.000000000011195
220
0.0
230
1.0
100
AcDbArc
 50
239.640989
 51
240.060267
1001
ACAD
1000
RTLwPs
1070
   128
  0
POLYLINE
  5
56D
100
AcDbEntity
  8
_AA_PERFIL_AC
100
AcDb2dPolyline
 66
     1
 10
0.0
 20
0.0
 30
0.0
 70
     1
210
0.0000000000015465
220
0.0
230
-1.0
1001
ACAD
1000
RTLwPs
1070
   128
  0
VERTEX
  5
56E
100
AcDbEntity
  8
_AA_PERFIL_AC
100
AcDbVertex
100
AcDb2dVertex
 10
30.016114
 20
370.0
 30
0.0
  0
VERTEX
  5
56F
100
AcDbEntity
  8
_AA_PERFIL_AC
100
AcDbVertex
100
AcDb2dVertex
 10
30.016114
 20
350.0
 30
0.0
  0
VERTEX
  5
570
100
AcDbEntity
  8
_AA_PERFIL_AC
100
AcDbVertex
100
AcDb2dVertex
 10
50.0
 20
350.0
 30
0.0
  0
VERTEX
  5
571
100
AcDbEntity
  8
_AA_PERFIL_AC
100
AcDbVertex
100
AcDb2dVertex
 10
50.0
 20
370.0
 30
0.0
  0
VERTEX
  5
572
100
AcDbEntity
  8
_AA_PERFIL_AC
100
AcDbVertex
100
AcDb2dVertex
 10
30.016114
 20
370.0
 30
0.0
  0
SEQEND
  5
573
100
AcDbEntity
  8
_AA_PERFIL_AC
  0
LINE
  5
574
100
AcDbEntity
  8
SEC-FS-VIGAS_CAJON
100
AcDbLine
 10
114.839625
 20
1196.077443
 30
0.0
 11
114.839625
 21
1058.063987
 31
0.0
210
-0.0000000000000175
220
1.0
230
0.0
1001
ACAD
1000
RTLwPs
1070
   128
  0
LINE
  5
575
100
AcDbEntity
  8
SEC-FS-VIGAS_CAJON
100
AcDbLine
 10
61.802005
 20
1192.998891
 30
0.0
 11
61.802005
 21
1059.375964
 31
0.0
210
-0.0000000000000175
220
1.0
230
0.0
1001
ACAD
1000
RTLwPs
1070
   128
  0
LINE
  5
576
100
AcDbEntity
  8
_AA_CARTONYESO
100
AcDbLine
 10
-72.214599
 20
1106.661053
 30
0.0
 11
-70.87918
 21
927.379091
 31
0.0
210
-0.0000000000000175
220
1.0
230
0.0
1001
ACAD
1000
RTLwPs
1070
   128
  0
POLYLINE
  5
577
100
AcDbEntity
  8
_AA_PIEDRA
100
AcDb2dPolyline
 66
     1
 10
0.0
 20
0.0
 30
0.0
210
-0.0000000000005508
220
0.0
230
-1.0
1001
ACAD
1000
RTLwPs
1070
   128
  0
VERTEX
  5
578
100
AcDbEntity
  8
_AA_PIEDRA
100
AcDbVertex
100
AcDb2dVertex
 10
-8.929857
 20
1356.737404
 30
0.0
1001
ACAD
1000
RTLwPs
1070
   128
  0
VERTEX
  5
579
100
AcDbEntity
  8
_AA_PIEDRA
100
AcDbVertex
100
AcDb2dVertex
 10
-232.170427
 20
1369.348375
 30
0.0
1001
ACAD
1000
RTLwPs
1070
   128
  0
SEQEND
  5
57A
100
AcDbEntity
  8
_AA_PIEDRA
1001
ACAD
1000
RTLwPs
1070
   128
  0
LINE
  5
57B
100
AcDbEntity
  8
SEC-FS-VIGAS_CAJON
100
AcDbLine
 10
114.839625
 20
1058.063987
 30
0.0
 11
61.802005
 21
1059.375964
 31
0.0
210
-0.0000000000000175
220
1.0
230
0.0
1001
ACAD
1000
RTLwPs
1070
   128
  0
LINE
  5
57C
100
AcDbEntity
  8
_AA_EJES
100
AcDbLine
 10
-15.0
 20
1160.0
 30
0.0
 11
-15.0
 21
360.0
 31
0.0
  0
LINE
  5
57D
100
AcDbEntity
  8
_AA_EJES
100
AcDbLine
 10
-40.0
 20
1160.0
 30
0.0
 11
-40.0
 21
0.0
 31
0.0
  0
LINE
  5
57E
100
AcDbEntity
  8
_AA_EJES
100
AcDbLine
 10
-140.120258
 20
1160.0
 30
0.0
 11
-140.120258
 21
0.0
 31
0.0
  0
LINE
  5
57F
100
AcDbEntity
  8
_AA_PERFIL_AC
100
AcDbLine
 10
-49.965652
 20
1170.0
 30
0.0
 11
-50.016326
 21
-15.0
 31
0.0
1001
ACAD
1000
RTLwPs
1070
   128
  0
LINE
  5
580
100
AcDbEntity
  8
_AA_PERFIL_AC
100
AcDbLine
 10
-29.982614
 20
1170.0
 30
0.0
 11
-30.03244
 21
-15.0
 31
0.0
1001
ACAD
1000
RTLwPs
1070
   128
  0
LINE
  5
581
100
AcDbEntity
  8
_AA_PERFIL_AC
100
AcDbLine
 10
0.0
 20
1051.898654
 30
0.0
 11
0.0
 21
-15.0
 31
0.0
1001
ACAD
1000
RTLwPs
1070
   128
  0
LINE
  5
582
100
AcDbEntity
  8
_AA_EJES
100
AcDbLine
 10
-15.0
 20
595.244564
 30
0.0
 11
-15.0
 21
0.0
 31
0.0
  0
POLYLINE
  5
583
100
AcDbEntity
  8
_AA_PERFIL_AC
100
AcDb2dPolyline
 66
     1
 10
0.0
 20
0.0
 30
0.0
 70
     1
210
0.0000000000015465
220
0.0
230
-1.0
1001
ACAD
1000
RTLwPs
1070
   128
  0
VERTEX
  5
584
100
AcDbEntity
  8
_AA_PERFIL_AC
100
AcDbVertex
100
AcDb2dVertex
 10
30.0
 20
770.0
 30
0.0
  0
VERTEX
  5
585
100
AcDbEntity
  8
_AA_PERFIL_AC
100
AcDbVertex
100
AcDb2dVertex
 10
30.0
 20
750.0
 30
0.0
  0
VERTEX
  5
586
100
AcDbEntity
  8
_AA_PERFIL_AC
100
AcDbVertex
100
AcDb2dVertex
 10
49.983886
 20
750.0
 30
0.0
  0
VERTEX
  5
587
100
AcDbEntity
  8
_AA_PERFIL_AC
100
AcDbVertex
100
AcDb2dVertex
 10
49.983886
 20
770.0
 30
0.0
  0
VERTEX
  5
588
100
AcDbEntity
  8
_AA_PERFIL_AC
100
AcDbVertex
100
AcDb2dVertex
 10
30.0
 20
770.0
 30
0.0
  0
SEQEND
  5
589
100
AcDbEntity
  8
_AA_PERFIL_AC
  0
LWPOLYLINE
  5
58A
100
AcDbEntity
  8
_AA_PERFIL_AC
100
AcDbPolyline
 90
        4
 70
     1
 43
0.0
 10
-30.0
 20
745.0
 10
0.0
 20
745.0
 10
0.0
 20
775.0
 10
-30.0
 20
775.0
1001
ACAD
1000
RTLwPs
1070
   128
  0
POLYLINE
  5
58B
100
AcDbEntity
  8
_AA_PERFIL_AC
100
AcDb2dPolyline
 66
     1
 10
0.0
 20
0.0
 30
0.0
 70
     1
210
0.0000000000015465
220
0.0
230
-1.0
1001
ACAD
1000
RTLwPs
1070
   128
  0
VERTEX
  5
58C
100
AcDbEntity
  8
_AA_PERFIL_AC
100
AcDbVertex
100
AcDb2dVertex
 10
29.982614
 20
1170.0
 30
0.0
  0
VERTEX
  5
58D
100
AcDbEntity
  8
_AA_PERFIL_AC
100
AcDbVertex
100
AcDb2dVertex
 10
29.982614
 20
1150.0
 30
0.0
  0
VERTEX
  5
58E
100
AcDbEntity
  8
_AA_PERFIL_AC
100
AcDbVertex
100
AcDb2dVertex
 10
49.9665
 20
1150.0
 30
0.0
  0
VERTEX
  5
58F
100
AcDbEntity
  8
_AA_PERFIL_AC
100
AcDbVertex
100
AcDb2dVertex
 10
49.9665
 20
1170.0
 30
0.0
  0
VERTEX
  5
590
100
AcDbEntity
  8
_AA_PERFIL_AC
100
AcDbVertex
100
AcDb2dVertex
 10
29.982614
 20
1170.0
 30
0.0
  0
SEQEND
  5
591
100
AcDbEntity
  8
_AA_PERFIL_AC
  0
LINE
  5
592
100
AcDbEntity
  8
_AA_PERFIL_AC
100
AcDbLine
 10
-134.450638
 20
770.0
 30
0.0
 11
-49.983038
 21
770.0
 31
0.0
1001
ACAD
1000
RTLwPs
1070
   128
  0
LINE
  5
593
100
AcDbEntity
  8
_AA_PERFIL_AC
100
AcDbLine
 10
-134.844923
 20
750.0
 30
0.0
 11
-49.983886
 21
750.0
 31
0.0
1001
ACAD
1000
RTLwPs
1070
   128
  0
LINE
  5
594
100
AcDbEntity
  8
_AA_PERFIL_AC
100
AcDbLine
 10
-149.317734
 20
1170.0
 30
0.0
 11
-49.965652
 21
1170.0
 31
0.0
1001
ACAD
1000
RTLwPs
1070
   128
  0
LINE
  5
595
100
AcDbEntity
  8
_AA_PERFIL_AC
100
AcDbLine
 10
-150.390384
 20
1150.0
 30
0.0
 11
-49.9665
 21
1150.0
 31
0.0
1001
ACAD
1000
RTLwPs
1070
   128
  0
LINE
  5
596
100
AcDbEntity
  8
_AA_PERFIL_AC
100
AcDbLine
 10
-129.183817
 20
370.0
 30
0.0
 11
-49.999152
 21
370.0
 31
0.0
1001
ACAD
1000
RTLwPs
1070
   128
  0
LINE
  5
597
100
AcDbEntity
  8
_AA_PERFIL_AC
100
AcDbLine
 10
-130.800164
 20
350.0
 30
0.0
 11
-50.0
 21
350.0
 31
0.0
1001
ACAD
1000
RTLwPs
1070
   128
  0
LINE
  5
598
100
AcDbEntity
  8
_AA_VIDRIO
100
AcDbLine
 10
-148.106999
 20
195.537568
 30
0.0
 11
-149.98725
 21
242.101382
 31
0.0
210
-0.0000000000000175
220
1.0
230
0.0
1001
ACAD
1000
RTLwPs
1070
   128
  0
LINE
  5
599
100
AcDbEntity
  8
_AA_PERFIL_AC
100
AcDbLine
 10
-159.022818
 20
538.274305
 30
0.0
 11
-154.848809
 21
750.0
 31
0.0
210
-0.0000000000000175
220
1.0
230
0.0
1001
ACAD
1000
RTLwPs
1070
   128
  0
LINE
  5
59A
100
AcDbEntity
  8
_AA_PERFIL_AC
100
AcDbLine
 10
-175.854578
 20
1048.653766
 30
0.0
 11
-170.419128
 21
1150.0
 31
0.0
210
-0.0000000000000175
220
1.0
230
0.0
1001
ACAD
1000
RTLwPs
1070
   128
  0
LINE
  5
59B
100
AcDbEntity
  8
_AA_PERFIL_AC
100
AcDbLine
 10
-158.957716
 20
249.868741
 30
0.0
 11
-150.865372
 21
350.0
 31
0.0
210
-0.0000000000000175
220
1.0
230
0.0
1001
ACAD
1000
RTLwPs
1070
   128
  0
LINE
  5
59C
100
AcDbEntity
  8
_AA_PROYECCION2
100
AcDbLine
 10
-163.670391
 20
191.556088
 30
0.0
 11
-158.957716
 21
249.868741
 31
0.0
210
-0.0000000000000175
220
1.0
230
0.0
1001
ACAD
1000
RTLwPs
1070
   128
  0
LINE
  5
59D
100
AcDbEntity
  8
_AA_PERFIL_AC
100
AcDbLine
 10
-128.747847
 20
187.026738
 30
0.0
 11
-133.819916
 21
312.634864
 31
0.0
210
-0.0000000000000175
220
1.0
230
0.0
1001
ACAD
1000
RTLwPs
1070
   128
  0
LINE
  5
59E
100
AcDbEntity
  8
_AA_PERFIL_AC
100
AcDbLine
 10
-139.022712
 20
248.257647
 30
0.0
 11
-130.800164
 21
350.0
 31
0.0
210
-0.0000000000000175
220
1.0
230
0.0
1001
ACAD
1000
RTLwPs
1070
   128
  0
LINE
  5
59F
100
AcDbEntity
  8
_AA_PERFIL_AC
100
AcDbLine
 10
-129.183817
 20
370.0
 30
0.0
 11
-96.856874
 21
770.0
 31
0.0
210
-0.0000000000000175
220
1.0
230
0.0
1001
ACAD
1000
RTLwPs
1070
   128
  0
LINE
  5
5A0
100
AcDbEntity
  8
_AA_PERFIL_AC
100
AcDbLine
 10
-149.249025
 20
370.0
 30
0.0
 11
-116.922082
 21
770.0
 31
0.0
210
-0.0000000000000175
220
1.0
230
0.0
1001
ACAD
1000
RTLwPs
1070
   128
  0
LINE
  5
5A1
100
AcDbEntity
  8
_AA_PERFIL_AC
100
AcDbLine
 10
-139.026703
 20
537.880097
 30
0.0
 11
-134.844923
 21
750.0
 31
0.0
210
-0.0000000000000175
220
1.0
230
0.0
1001
ACAD
1000
RTLwPs
1070
   128
  0
LINE
  5
5A2
100
AcDbEntity
  8
_AA_PERFIL_AC
100
AcDbLine
 10
-134.450638
 20
770.0
 30
0.0
 11
-126.564947
 21
1170.0
 31
0.0
210
-0.0000000000000175
220
1.0
230
0.0
1001
ACAD
1000
RTLwPs
1070
   128
  0
LINE
  5
5A3
100
AcDbEntity
  8
_AA_PERFIL_AC
100
AcDbLine
 10
-154.454525
 20
770.0
 30
0.0
 11
-146.568833
 21
1170.0
 31
0.0
210
-0.0000000000000175
220
1.0
230
0.0
1001
ACAD
1000
RTLwPs
1070
   128
  0
LINE
  5
5A4
100
AcDbEntity
  8
_AA_PERFIL_AC
100
AcDbLine
 10
-155.347725
 20
1057.568304
 30
0.0
 11
-150.390384
 21
1150.0
 31
0.0
210
-0.0000000000000175
220
1.0
230
0.0
1001
ACAD
1000
RTLwPs
1070
   128
  0
LINE
  5
5A5
100
AcDbEntity
  8
_AA_PERFIL_AC
100
AcDbLine
 10
-149.317734
 20
1170.0
 30
0.0
 11
-146.477473
 21
1222.957869
 31
0.0
210
-0.0000000000000175
220
1.0
230
0.0
1001
ACAD
1000
RTLwPs
1070
   128
  0
LINE
  5
5A6
100
AcDbEntity
  8
_AA_PERFIL_AC
100
AcDbLine
 10
-169.346478
 20
1170.0
 30
0.0
 11
-166.506216
 21
1222.957869
 31
0.0
210
-0.0000000000000175
220
1.0
230
0.0
1001
ACAD
1000
RTLwPs
1070
   128
  0
POLYLINE
  5
5A7
100
AcDbEntity
  8
_AA_ESTRUCTURA_HR
100
AcDb2dPolyline
 66
     1
 10
0.0
 20
0.0
 30
0.0
210
-0.000000000001524
220
0.0
230
1.0
  0
VERTEX
  5
5A8
100
AcDbEntity
  8
_AA_ESTRUCTURA_HR
100
AcDbVertex
100
AcDb2dVertex
 10
559.799954
 20
1239.381855
 30
0.0
  0
VERTEX
  5
5A9
100
AcDbEntity
  8
_AA_ESTRUCTURA_HR
100
AcDbVertex
100
AcDb2dVertex
 10
88.320815
 20
1208.606585
 30
0.0
  0
SEQEND
  5
5AA
100
AcDbEntity
  8
_AA_ESTRUCTURA_HR
  0
POLYLINE
  5
5AB
100
AcDbEntity
  8
_AA_PERFIL_AC
100
AcDb2dPolyline
 66
     1
 10
0.0
 20
0.0
 30
0.0
210
-0.0000000000017065
220
0.0
230
1.0
1001
ACAD
1000
RTLwPs
1070
   128
  0
VERTEX
  5
5AC
100
AcDbEntity
  8
_AA_PERFIL_AC
100
AcDbVertex
100
AcDb2dVertex
 10
559.799954
 20
1225.308483
 30
0.0
1001
ACAD
1000
RTLwPs
1070
   128
  0
VERTEX
  5
5AD
100
AcDbEntity
  8
_AA_PERFIL_AC
100
AcDbVertex
100
AcDb2dVertex
 10
88.320815
 20
1194.567718
 30
0.0
1001
ACAD
1000
RTLwPs
1070
   128
  0
SEQEND
  5
5AE
100
AcDbEntity
  8
_AA_PERFIL_AC
1001
ACAD
1000
RTLwPs
1070
   128
  0
POLYLINE
  5
5AF
100
AcDbEntity
  8
_AA_PIEDRA
100
AcDb2dPolyline
 66
     1
 10
0.0
 20
0.0
 30
0.0
210
0.0000000000019722
220
0.0
230
-1.0
1001
ACAD
1000
RTLwPs
1070
   128
  0
VERTEX
  5
5B0
100
AcDbEntity
  8
_AA_PIEDRA
100
AcDbVertex
100
AcDb2dVertex
 10
-232.170427
 20
1399.348375
 30
0.0
1001
ACAD
1000
RTLwPs
1070
   128
  0
VERTEX
  5
5B1
100
AcDbEntity
  8
_AA_PIEDRA
100
AcDbVertex
100
AcDb2dVertex
 10
-559.799954
 20
1422.993162
 30
0.0
1001
ACAD
1000
RTLwPs
1070
   128
  0
SEQEND
  5
5B2
100
AcDbEntity
  8
_AA_PIEDRA
1001
ACAD
1000
RTLwPs
1070
   128
  0
LINE
  5
5B3
100
AcDbEntity
  8
_AA_PIEDRA
100
AcDbLine
 10
559.799954
 20
0.0
 30
0.0
 11
112.253746
 21
0.0
 31
0.0
210
0.0000000000015751
220
0.0
230
-1.0
  0
LINE
  5
5B4
100
AcDbEntity
  8
_AA_ESTRUCTURA_HR
100
AcDbLine
 10
-138.731548
 20
187.026738
 30
0.0
 11
-138.731548
 21
-55.0
 31
0.0
210
0.0000000000015751
220
0.0
230
-1.0
  0
LINE
  5
5B5
100
AcDbEntity
  8
_AA_ESTRUCTURA_HR
100
AcDbLine
 10
-138.731548
 20
-55.0
 30
0.0
 11
559.799954
 21
-55.0
 31
0.0
210
0.0000000000015751
220
0.0
230
-1.0
  0
LINE
  5
5B6
100
AcDbEntity
  8
_AA_ESTRUCTURA_HR
100
AcDbLine
 10
559.799954
 20
-15.0
 30
0.0
 11
112.253746
 21
-15.0
 31
0.0
210
0.0000000000015751
220
0.0
230
-1.0
  0
LINE
  5
5B7
100
AcDbEntity
  8
_AA_PERFIL_AC
100
AcDbLine
 10
-175.854578
 20
1048.653766
 30
0.0
 11
-148.989486
 21
1047.212924
 31
0.0
1001
ACAD
1000
RTLwPs
1070
   128
  0
LINE
  5
5B8
100
AcDbEntity
  8
_AA_PERFIL_AC
100
AcDbLine
 10
-159.022818
 20
538.274305
 30
0.0
 11
-139.026703
 21
537.880097
 31
0.0
1001
ACAD
1000
RTLwPs
1070
   128
  0
POLYLINE
  5
5B9
100
AcDbEntity
  8
_AA_ESTRUCTURA_HR
100
AcDb2dPolyline
 66
     1
 10
0.0
 20
0.0
 30
0.0
210
0.0000000000015586
220
0.0
230
-1.0
  0
VERTEX
  5
5BA
100
AcDbEntity
  8
_AA_ESTRUCTURA_HR
100
AcDbVertex
100
AcDb2dVertex
 10
-112.253746
 20
1058.127953
 30
0.0
  0
VERTEX
  5
5BB
100
AcDbEntity
  8
_AA_ESTRUCTURA_HR
100
AcDbVertex
100
AcDb2dVertex
 10
-112.253746
 20
-15.0
 30
0.0
  0
SEQEND
  5
5BC
100
AcDbEntity
  8
_AA_ESTRUCTURA_HR
  0
POLYLINE
  5
5BD
100
AcDbEntity
  8
_AA_ESTRUCTURA_HR
100
AcDb2dPolyline
 66
     1
 10
0.0
 20
0.0
 30
0.0
210
0.0000000000015586
220
0.0
230
-1.0
  0
VERTEX
  5
5BE
100
AcDbEntity
  8
_AA_ESTRUCTURA_HR
100
AcDbVertex
100
AcDb2dVertex
 10
-24.675569
 20
-15.0
 30
0.0
  0
VERTEX
  5
5BF
100
AcDbEntity
  8
_AA_ESTRUCTURA_HR
100
AcDbVertex
100
AcDb2dVertex
 10
-24.675569
 20
1058.127953
 30
0.0
  0
VERTEX
  5
5C0
100
AcDbEntity
  8
_AA_ESTRUCTURA_HR
100
AcDbVertex
100
AcDb2dVertex
 10
-112.253746
 20
1058.127953
 30
0.0
  0
SEQEND
  5
5C1
100
AcDbEntity
  8
_AA_ESTRUCTURA_HR
  0
INSERT
  5
5C2
100
AcDbEntity
  8
_AA_PERFIL_AL
100
AcDbBlockReference
  2
MALU90OPACO
 10
-193.717003
 20
1160.0
 30
0.0
 50
86.930343
  0
LINE
  5
5C3
100
AcDbEntity
  8
_AA_VIDRIO
100
AcDbLine
 10
-193.825148
 20
1157.983388
 30
0.0
 11
-189.032035
 21
1157.726348
 31
0.0
  0
LINE
  5
5C4
100
AcDbEntity
  8
_AA_VIDRIO
100
AcDbLine
 10
-199.243913
 20
1056.937816
 30
0.0
 11
-193.825148
 21
1157.983388
 31
0.0
  0
LINE
  5
5C5
100
AcDbEntity
  8
_AA_VIDRIO
100
AcDbLine
 10
-189.032035
 20
1157.726348
 30
0.0
 11
-194.450802
 21
1056.680744
 31
0.0
  0
LINE
  5
5C6
100
AcDbEntity
  8
_AA_VIDRIO
100
AcDbLine
 10
-188.815746
 20
1161.759561
 30
0.0
 11
-185.159324
 21
1229.942112
 31
0.0
  0
LINE
  5
5C7
100
AcDbEntity
  8
_AA_PERFIL_AL
100
AcDbLine
 10
-188.658393
 20
1254.32963
 30
0.0
 11
-189.736148
 21
1234.232365
 31
0.0
  0
LINE
  5
5C8
100
AcDbEntity
  8
_AA_VIDRIO
100
AcDbLine
 10
-193.608859
 20
1162.016601
 30
0.0
 11
-188.815746
 21
1161.759561
 31
0.0
  0
LINE
  5
5C9
100
AcDbEntity
  8
_AA_VIDRIO
100
AcDbLine
 10
-199.243913
 20
1056.937816
 30
0.0
 11
-194.450802
 21
1056.680744
 31
0.0
  0
LINE
  5
5CA
100
AcDbEntity
  8
_AA_VIDRIO
100
AcDbLine
 10
-194.66769
 20
1052.647563
 30
0.0
 11
-204.632285
 21
866.857767
 31
0.0
  0
LINE
  5
5CB
100
AcDbEntity
  8
_AA_VIDRIO
100
AcDbLine
 10
-209.425396
 20
867.11484
 30
0.0
 11
-199.460801
 21
1052.904635
 31
0.0
  0
LINE
  5
5CC
100
AcDbEntity
  8
_AA_VIDRIO
100
AcDbLine
 10
-199.460801
 20
1052.904635
 30
0.0
 11
-194.66769
 21
1052.647563
 31
0.0
  0
INSERT
  5
5CD
100
AcDbEntity
  8
_AA_PERFIL_AL
100
AcDbBlockReference
  2
MALU90SEMITRP
 10
-209.533322
 20
865.098226
 30
0.0
 50
86.929957
  0
LINE
  5
5CE
100
AcDbEntity
  8
_AA_VIDRIO
100
AcDbLine
 10
-209.425396
 20
867.11484
 30
0.0
 11
-207.827692
 21
867.029149
 31
0.0
  0
LINE
  5
5CF
100
AcDbEntity
  8
_AA_VIDRIO
100
AcDbLine
 10
-205.830562
 20
866.922035
 30
0.0
 11
-204.632285
 21
866.857767
 31
0.0
  0
POLYLINE
  5
5D0
100
AcDbEntity
  8
_AA_PERFIL_AC
100
AcDb2dPolyline
 66
     1
 10
0.0
 20
0.0
 30
0.0
 70
     1
210
0.0000000000015465
220
0.0
230
-1.0
1001
ACAD
1000
RTLwPs
1070
   128
  0
VERTEX
  5
5D1
100
AcDbEntity
  8
_AA_PERFIL_AC
100
AcDbVertex
100
AcDb2dVertex
 10
96.856874
 20
770.0
 30
0.0
  0
VERTEX
  5
5D2
100
AcDbEntity
  8
_AA_PERFIL_AC
100
AcDbVertex
100
AcDb2dVertex
 10
98.473221
 20
750.000001
 30
0.0
  0
VERTEX
  5
5D3
100
AcDbEntity
  8
_AA_PERFIL_AC
100
AcDbVertex
100
AcDb2dVertex
 10
118.457107
 20
750.000001
 30
0.0
  0
VERTEX
  5
5D4
100
AcDbEntity
  8
_AA_PERFIL_AC
100
AcDbVertex
100
AcDb2dVertex
 10
116.922082
 20
770.0
 30
0.0
  0
VERTEX
  5
5D5
100
AcDbEntity
  8
_AA_PERFIL_AC
100
AcDbVertex
100
AcDb2dVertex
 10
96.856874
 20
770.0
 30
0.0
  0
SEQEND
  5
5D6
100
AcDbEntity
  8
_AA_PERFIL_AC
  0
POLYLINE
  5
5D7
100
AcDbEntity
  8
_AA_PERFIL_AC
100
AcDb2dPolyline
 66
     1
 10
0.0
 20
0.0
 30
0.0
 70
     1
210
0.0000000000015465
220
0.0
230
-1.0
1001
ACAD
1000
RTLwPs
1070
   128
  0
VERTEX
  5
5D8
100
AcDbEntity
  8
_AA_PERFIL_AC
100
AcDbVertex
100
AcDb2dVertex
 10
126.564947
 20
1170.0
 30
0.0
  0
VERTEX
  5
5D9
100
AcDbEntity
  8
_AA_PERFIL_AC
100
AcDbVertex
100
AcDb2dVertex
 10
126.958808
 20
1150.0
 30
0.0
  0
VERTEX
  5
5DA
100
AcDbEntity
  8
_AA_PERFIL_AC
100
AcDbVertex
100
AcDb2dVertex
 10
146.942694
 20
1150.0
 30
0.0
  0
VERTEX
  5
5DB
100
AcDbEntity
  8
_AA_PERFIL_AC
100
AcDbVertex
100
AcDb2dVertex
 10
146.568833
 20
1170.0
 30
0.0
  0
VERTEX
  5
5DC
100
AcDbEntity
  8
_AA_PERFIL_AC
100
AcDbVertex
100
AcDb2dVertex
 10
126.564947
 20
1170.0
 30
0.0
  0
SEQEND
  5
5DD
100
AcDbEntity
  8
_AA_PERFIL_AC
  0
LINE
  5
5DE
100
AcDbEntity
  8
_AA_VIDRIO
100
AcDbLine
 10
-183.156513
 20
531.729214
 30
0.0
 11
-184.397775
 21
468.766619
 31
0.0
  0
LINE
  5
5DF
100
AcDbEntity
  8
_AA_VIDRIO
100
AcDbLine
 10
-182.877713
 20
535.724367
 30
0.0
 11
-178.529208
 21
756.30072
 31
0.0
  0
LINE
  5
5E0
100
AcDbEntity
  8
_AA_VIDRIO
100
AcDbLine
 10
-187.95558
 20
531.823824
 30
0.0
 11
-183.156513
 21
531.729214
 31
0.0
  0
LINE
  5
5E1
100
AcDbEntity
  8
_AA_VIDRIO
100
AcDbLine
 10
-167.923425
 20
1050.749629
 30
0.0
 11
-173.584287
 21
763.604468
 31
0.0
  0
LINE
  5
5E2
100
AcDbEntity
  8
_AA_VIDRIO
100
AcDbLine
 10
-178.078646
 20
535.629756
 30
0.0
 11
-178.08804
 21
535.629942
 31
0.0
  0
LINE
  5
5E3
100
AcDbEntity
  8
_AA_VIDRIO
100
AcDbLine
 10
-178.08804
 20
535.629942
 30
0.0
 11
-182.877713
 21
535.724367
 31
0.0
  0
LINE
  5
5E4
100
AcDbEntity
  8
_AA_PROYECCION2
100
AcDbLine
 10
-186.034683
 20
858.841457
 30
0.0
 11
-175.854578
 21
1048.653766
 31
0.0
210
-0.0000000000000175
220
1.0
230
0.0
  0
LWPOLYLINE
  5
5E5
100
AcDbEntity
  8
_AA_PERFIL_AL
100
AcDbPolyline
 90
        4
 70
     0
 43
0.0
 38
0.0
 10
-176.054296
 20
1048.664477
 10
-194.028462
 20
1049.628499
 10
-193.492895
 20
1059.614148
 10
-175.518728
 20
1058.650125
  0
LWPOLYLINE
  5
5E6
100
AcDbEntity
  8
_AA_PERFIL_AL
100
AcDbPolyline
 90
        9
 70
   128
 43
0.0
 38
0.0
 10
-197.093971
 20
1054.800105
 10
-197.198403
 20
1052.852981
 10
-199.812104
 20
1052.993164
 10
-199.967603
 20
1050.093874
 10
-200.566743
 20
1050.126008
 10
-200.395176
 20
1053.324867
 10
-197.781475
 20
1053.184685
 10
-197.69311
 20
1054.83224
 10
-197.093971
 20
1054.800105
  0
LINE
  5
5E7
100
AcDbEntity
  8
_AA_VIDRIO
100
AcDbLine
 10
-189.196843
 20
468.861228
 30
0.0
 11
-184.397775
 21
468.766619
 31
0.0
  0
LINE
  5
5E8
100
AcDbEntity
  8
_AA_VIDRIO
100
AcDbLine
 10
-187.95558
 20
531.823824
 30
0.0
 11
-189.196843
 21
468.861228
 31
0.0
  0
LINE
  5
5E9
100
AcDbEntity
  8
_AA_VIDRIO
100
AcDbLine
 10
-173.730299
 20
756.205912
 30
0.0
 11
-178.08804
 21
535.629942
 31
0.0
  0
INSERT
  5
5EA
100
AcDbEntity
  8
_AA_VIDRIO
100
AcDbBlockReference
  2
MALU90
 10
-178.456279
 20
760.0
 30
0.0
 50
88.868201
1001
ACAD
1000
RTLwPs
1070
   128
  0
LINE
  5
5EB
100
AcDbEntity
  8
_AA_VIDRIO
100
AcDbLine
 10
-173.730299
 20
756.205912
 30
0.0
 11
-178.529363
 21
756.300723
 31
0.0
  0
LINE
  5
5EC
100
AcDbEntity
  8
_AA_VIDRIO
100
AcDbLine
 10
-173.584287
 20
763.604468
 30
0.0
 11
-178.383196
 21
763.699277
 31
0.0
  0
LINE
  5
5ED
100
AcDbEntity
  8
_AA_VIDRIO
100
AcDbLine
 10
-178.383351
 20
763.69928
 30
0.0
 11
-172.722493
 21
1050.84424
 31
0.0
  0
LINE
  5
5EE
100
AcDbEntity
  8
_AA_VIDRIO
100
AcDbLine
 10
-182.920463
 20
248.815135
 30
0.0
 11
-178.136063
 21
248.428472
 31
0.0
  0
LINE
  5
5EF
100
AcDbEntity
  8
_AA_VIDRIO
100
AcDbLine
 10
-160.056095
 20
531.729214
 30
0.0
 11
-173.772116
 21
362.012936
 31
0.0
  0
LINE
  5
5F0
100
AcDbEntity
  8
_AA_VIDRIO
100
AcDbLine
 10
-178.136063
 20
248.428472
 30
0.0
 11
-169.313076
 21
357.600391
 31
0.0
  0
LINE
  5
5F1
100
AcDbEntity
  8
_AA_VIDRIO
100
AcDbLine
 10
-178.461424
 20
244.40259
 30
0.0
 11
-182.445964
 21
195.099564
 31
0.0
  0
LINE
  5
5F2
100
AcDbEntity
  8
_AA_VIDRIO
100
AcDbLine
 10
-187.230365
 20
195.486226
 30
0.0
 11
-183.245825
 21
244.789252
 31
0.0
  0
LINE
  5
5F3
100
AcDbEntity
  8
_AA_VIDRIO
100
AcDbLine
 10
-183.245825
 20
244.789252
 30
0.0
 11
-178.461424
 21
244.40259
 31
0.0
  0
INSERT
  5
5F4
100
AcDbEntity
  8
_AA_PERFIL_AL
100
AcDbBlockReference
  2
MALU90SEMITRP_OP
 10
-183.083144
 20
246.802194
 30
0.0
 50
85.379548
1001
ACAD
1000
RTLwPs
1070
   128
  0
INSERT
  5
5F5
100
AcDbEntity
  8
_AA_PERFIL_AL
100
AcDbBlockReference
  2
MALU90OPACO
 10
-173.934796
 20
360.0
 30
0.0
 50
85.379548
  0
LINE
  5
5F6
100
AcDbEntity
  8
_AA_VIDRIO
100
AcDbLine
 10
-174.097477
 20
357.987053
 30
0.0
 11
-169.313076
 21
357.600391
 31
0.0
  0
LINE
  5
5F7
100
AcDbEntity
  8
_AA_VIDRIO
100
AcDbLine
 10
-173.772116
 20
362.012936
 30
0.0
 11
-168.987715
 21
361.626273
 31
0.0
  0
LINE
  5
5F8
100
AcDbEntity
  8
_AA_VIDRIO
100
AcDbLine
 10
-168.987715
 20
361.626273
 30
0.0
 11
-155.271694
 21
531.342551
 31
0.0
  0
LINE
  5
5F9
100
AcDbEntity
  8
_AA_VIDRIO
100
AcDbLine
 10
-174.097477
 20
357.987053
 30
0.0
 11
-182.920463
 21
248.815135
 31
0.0
  0
INSERT
  5
5FA
100
AcDbEntity
  8
_AA_PERFIL_AL
100
AcDbBlockReference
  2
MALU90SEMITRP
 10
-187.393045
 20
193.47329
 30
0.0
 50
85.379548
  0
LINE
  5
5FB
100
AcDbEntity
  8
_AA_VIDRIO
100
AcDbLine
 10
-187.230365
 20
195.486226
 30
0.0
 11
-182.445964
 21
195.099564
 31
0.0
  0
LINE
  5
5FC
100
AcDbEntity
  8
_AA_ESTRUCTURA_HR
100
AcDbLine
 10
-108.731548
 20
187.026738
 30
0.0
 11
-108.731548
 21
-15.0
 31
0.0
210
0.0000000000015751
220
0.0
230
-1.0
  0
LINE
  5
5FD
100
AcDbEntity
  8
_AA_ESTRUCTURA_HR
100
AcDbLine
 10
-138.731548
 20
187.026738
 30
0.0
 11
-108.731548
 21
187.026738
 31
0.0
  0
LINE
  5
5FE
100
AcDbEntity
  8
_AA_PIEDRA
100
AcDbLine
 10
24.675569
 20
0.0
 30
0.0
 11
-113.389641
 21
0.0
 31
0.0
210
0.0000000000015751
220
0.0
230
-1.0
  0
LINE
  5
5FF
100
AcDbEntity
  8
_AA_ESTRUCTURA_HR
100
AcDbLine
 10
24.675569
 20
-15.0
 30
0.0
 11
-108.731548
 21
-15.0
 31
0.0
210
0.0000000000015751
220
0.0
230
-1.0
  0
INSERT
  5
600
100
AcDbEntity
  8
_AA_PERFIL_AL
100
AcDbBlockReference
  2
MALU90OPACO
 10
-189.844292
 20
1232.215764
 30
0.0
 50
86.930343
  0
LINE
  5
601
100
AcDbEntity
  8
_AA_VIDRIO
100
AcDbLine
 10
-189.952437
 20
1230.199152
 30
0.0
 11
-185.159324
 21
1229.942112
 31
0.0
  0
LINE
  5
602
100
AcDbEntity
  8
_AA_PERFIL_AL
100
AcDbLine
 10
-189.736148
 20
1234.232365
 30
0.0
 11
-184.943035
 21
1233.975325
 31
0.0
  0
LINE
  5
603
100
AcDbEntity
  8
_AA_VIDRIO
100
AcDbLine
 10
-189.952437
 20
1230.199152
 30
0.0
 11
-193.608859
 21
1162.016601
 31
0.0
  0
LWPOLYLINE
  5
604
100
AcDbEntity
  8
_AA_PERFIL_AC
100
AcDbPolyline
 90
        5
 70
   128
 43
0.0
 10
-165.81027
 20
1235.934071
 10
-145.781527
 20
1235.934071
 10
-146.854176
 20
1215.934071
 10
-166.88292
 20
1215.934071
 10
-165.81027
 20
1235.934071
1001
ACAD
1000
RTLwPs
1070
   128
  0
LINE
  5
605
100
AcDbEntity
  8
_AA_PERFIL_AL
100
AcDbLine
 10
-117.779681
 20
1227.540008
 30
0.0
 11
-122.579681
 21
1227.540008
 31
0.0
1001
ACAD
1000
RTLwPs
1070
   128
  0
LINE
  5
606
100
AcDbEntity
  8
_AA_PIEDRA
100
AcDbLine
 10
13.929857
 20
1352.011885
 30
0.0
 11
237.170368
 21
1364.622853
 31
0.0
210
-0.0000000000005508
220
0.0
230
-1.0
1001
ACAD
1000
RTLwPs
1070
   128
  0
LINE
  5
607
100
AcDbEntity
  8
_AA_PIEDRA
100
AcDbLine
 10
237.170368
 20
1364.622853
 30
0.0
 11
237.170368
 21
1394.696213
 31
0.0
210
0.0000000000019722
220
0.0
230
-1.0
1001
ACAD
1000
RTLwPs
1070
   128
  0
LINE
  5
608
100
AcDbEntity
  8
_AA_PIEDRA
100
AcDbLine
 10
237.170368
 20
1394.696213
 30
0.0
 11
560.159864
 21
1418.006133
 31
0.0
210
0.0000000000019722
220
0.0
230
-1.0
1001
ACAD
1000
RTLwPs
1070
   128
  0
LWPOLYLINE
  5
609
100
AcDbEntity
  8
_AA_PERFIL_AC
100
AcDbPolyline
 90
        4
 70
   129
 43
0.0
 10
0.0
 20
1189.5888
 10
0.0
 20
1051.898654
 10
-29.981431
 20
1051.898654
 10
-29.981431
 20
1187.898654
1001
ACAD
1000
RTLwPs
1070
   128
  0
LINE
  5
60A
100
AcDbEntity
  8
_AA_ESTRUCTURA_HR
100
AcDbLine
 10
-141.7337
 20
1181.598833
 30
0.0
 11
-141.7337
 21
1235.934071
 31
0.0
  0
POLYLINE
  5
60B
100
AcDbEntity
  8
_AA_PERFIL_AC
100
AcDb2dPolyline
 66
     1
 10
0.0
 20
0.0
 30
0.0
210
-0.0000000000022015
220
0.0
230
1.0
1001
ACAD
1000
RTLwPs
1070
   128
  0
VERTEX
  5
60C
100
AcDbEntity
  8
_AA_PERFIL_AC
100
AcDbVertex
100
AcDb2dVertex
 10
88.320815
 20
1194.567718
 30
0.0
1001
ACAD
1000
RTLwPs
1070
   128
  0
VERTEX
  5
60D
100
AcDbEntity
  8
_AA_PERFIL_AC
100
AcDbVertex
100
AcDb2dVertex
 10
-141.7337
 20
1181.598833
 30
0.0
1001
ACAD
1000
RTLwPs
1070
   128
  0
SEQEND
  5
60E
100
AcDbEntity
  8
_AA_PERFIL_AC
1001
ACAD
1000
RTLwPs
1070
   128
  0
POLYLINE
  5
60F
100
AcDbEntity
  8
_AA_ESTRUCTURA_HR
100
AcDb2dPolyline
 66
     1
 10
0.0
 20
0.0
 30
0.0
210
-0.0000000000029487
220
0.0
230
1.0
  0
VERTEX
  5
610
100
AcDbEntity
  8
_AA_ESTRUCTURA_HR
100
AcDbVertex
100
AcDb2dVertex
 10
88.320815
 20
1208.606585
 30
0.0
  0
VERTEX
  5
611
100
AcDbEntity
  8
_AA_ESTRUCTURA_HR
100
AcDbVertex
100
AcDb2dVertex
 10
-126.7337
 20
1196.488821
 30
0.0
  0
VERTEX
  5
612
100
AcDbEntity
  8
_AA_ESTRUCTURA_HR
100
AcDbVertex
100
AcDb2dVertex
 10
-126.7337
 20
1235.934071
 30
0.0
  0
VERTEX
  5
613
100
AcDbEntity
  8
_AA_ESTRUCTURA_HR
100
AcDbVertex
100
AcDb2dVertex
 10
-141.7337
 20
1235.934071
 30
0.0
  0
SEQEND
  5
614
100
AcDbEntity
  8
_AA_ESTRUCTURA_HR
  0
LINE
  5
615
100
AcDbEntity
  8
_AA_PERFIL_AL
100
AcDbLine
 10
-184.943035
 20
1233.975325
 30
0.0
 11
-184.095027
 21
1249.788423
 31
0.0
210
0.0000000000047162
220
0.0
230
-1.0
  0
LINE
  5
616
100
AcDbEntity
  8
_AA_PERFIL_AL
100
AcDbLine
 10
-184.095027
 20
1249.788423
 30
0.0
 11
-122.579681
 21
1253.387691
 31
0.0
210
0.0000000000047162
220
0.0
230
-1.0
  0
LINE
  5
617
100
AcDbEntity
  8
_AA_PERFIL_AL
100
AcDbLine
 10
-122.579681
 20
1253.387691
 30
0.0
 11
-122.579681
 21
1227.540008
 31
0.0
210
0.0000000000047162
220
0.0
230
-1.0
  0
LINE
  5
618
100
AcDbEntity
  8
_AA_PERFIL_AL
100
AcDbLine
 10
-188.657941
 20
1254.329656
 30
0.0
 11
-117.779681
 21
1258.476748
 31
0.0
210
0.0000000000047162
220
0.0
230
-1.0
  0
LINE
  5
619
100
AcDbEntity
  8
_AA_PERFIL_AL
100
AcDbLine
 10
-117.779681
 20
1258.476748
 30
0.0
 11
-117.779681
 21
1227.540008
 31
0.0
210
0.0000000000047162
220
0.0
230
-1.0
  0
LINE
  5
61A
100
AcDbEntity
  8
_AA_PERFIL_AL
100
AcDbLine
 10
-117.779681
 20
1253.468197
 30
0.0
 11
13.929857
 21
1261.174531
 31
0.0
210
0.0000000000047162
220
0.0
230
-1.0
  0
LINE
  5
61B
100
AcDbEntity
  8
_AA_PIEDRA
100
AcDbLine
 10
13.929857
 20
1261.174531
 30
0.0
 11
13.929857
 21
1352.011885
 31
0.0
210
0.0000000000047162
220
0.0
230
-1.0
1001
ACAD
1000
RTLwPs
1070
   128
  0
POLYLINE
  5
61C
100
AcDbEntity
  8
_AA_PERFIL_AL
100
AcDb2dPolyline
 66
     1
 10
0.0
 20
0.0
 30
0.0
210
0.0000000000047162
220
0.0
230
-1.0
  0
VERTEX
  5
61D
100
AcDbEntity
  8
_AA_PERFIL_AL
100
AcDbVertex
100
AcDb2dVertex
 10
117.779681
 20
1258.476748
 30
0.0
  0
VERTEX
  5
61E
100
AcDbEntity
  8
_AA_PERFIL_AL
100
AcDbVertex
100
AcDb2dVertex
 10
-8.929857
 20
1265.890532
 30
0.0
  0
SEQEND
  5
61F
100
AcDbEntity
  8
_AA_PERFIL_AL
  0
POLYLINE
  5
620
100
AcDbEntity
  8
_AA_PIEDRA
100
AcDb2dPolyline
 66
     1
 10
0.0
 20
0.0
 30
0.0
210
0.0000000000047162
220
0.0
230
-1.0
1001
ACAD
1000
RTLwPs
1070
   128
  0
VERTEX
  5
621
100
AcDbEntity
  8
_AA_PIEDRA
100
AcDbVertex
100
AcDb2dVertex
 10
-8.929857
 20
1265.890532
 30
0.0
1001
ACAD
1000
RTLwPs
1070
   128
  0
VERTEX
  5
622
100
AcDbEntity
  8
_AA_PIEDRA
100
AcDbVertex
100
AcDb2dVertex
 10
-8.929857
 20
1356.737404
 30
0.0
1001
ACAD
1000
RTLwPs
1070
   128
  0
SEQEND
  5
623
100
AcDbEntity
  8
_AA_PIEDRA
1001
ACAD
1000
RTLwPs
1070
   128
  0
LWPOLYLINE
  5
624
100
AcDbEntity
  8
_AA_PERFIL_AL
100
AcDbPolyline
 90
        5
 70
     0
 43
0.0
 38
0.0
 10
-191.346445
 20
1049.484652
 10
-191.346445
 20
1049.484652
 10
-173.372279
 20
1048.520631
 10
-172.836712
 20
1058.506279
 10
-179.755382
 20
1058.877353
  0
LINE
  5
625
100
AcDbEntity
  8
_AA_VIDRIO
100
AcDbLine
 10
-167.923425
 20
1050.749629
 30
0.0
 11
-172.722493
 21
1050.84424
 31
0.0
  0
LWPOLYLINE
  5
626
100
AcDbEntity
  8
_AA_PERFIL_AL
100
AcDbPolyline
 90
        4
 70
     1
 43
0.0
 38
0.0
 10
-186.567618
 20
538.81733
 10
-186.699058
 20
532.144941
 10
-183.399698
 20
532.07994
 10
-183.268106
 20
538.752283
  0
LWPOLYLINE
  5
627
100
AcDbEntity
  8
_AA_PERFIL_AL
100
AcDbPolyline
 90
        6
 70
     1
 43
0.0
 38
0.0
 10
-185.687286
 20
532.125008
 10
-188.904119
 20
532.188412
 10
-188.96726
 20
528.985578
 10
-188.367377
 20
528.973752
 10
-188.310148
 20
531.876644
 10
-185.693199
 20
531.825053
1001
ACAD
1000
RTLwPs
1070
   128
  0
LWPOLYLINE
  5
628
100
AcDbEntity
  8
_AA_PERFIL_AL
100
AcDbPolyline
 90
        4
 70
     1
 43
0.0
 38
0.0
 10
-177.219281
 20
538.633034
 10
-177.416386
 20
528.634976
 10
-161.371302
 20
528.31866
 10
-161.174197
 20
538.316717
  0
LWPOLYLINE
  5
629
100
AcDbEntity
  8
_AA_PERFIL_AL
100
AcDbPolyline
 90
        6
 70
     1
 43
0.0
 38
0.0
 10
-181.842858
 20
533.661846
 10
-181.939373
 20
528.766153
 10
-178.225616
 20
528.692939
 10
-178.129101
 20
533.588632
 10
-178.129101
 20
533.588632
 10
-178.129101
 20
533.588632
1001
ACAD
1000
RTLwPs
1070
   128
  0
LINE
  5
62A
100
AcDbEntity
  8
_AA_VIDRIO
100
AcDbLine
 10
-160.056095
 20
531.729214
 30
0.0
 11
-155.271694
 21
531.342551
 31
0.0
  0
LWPOLYLINE
  5
62B
100
AcDbEntity
  8
_AA_PERFIL_AL
100
AcDbPolyline
 90
       12
 70
   129
 43
0.0
 38
0.0
 10
-190.287662
 20
462.008519
 10
-190.224521
 20
465.211353
 10
-187.607572
 20
465.159762
 10
-187.542531
 20
468.458967
 10
-190.15948
 20
468.510558
 10
-190.096339
 20
471.713392
 10
-189.496455
 20
471.701566
 10
-189.553683
 20
468.798673
 10
-186.936734
 20
468.747082
 10
-187.013601
 20
464.847994
 10
-189.63055
 20
464.899585
 10
-189.687778
 20
461.996693
  0
LWPOLYLINE
  5
62C
100
AcDbEntity
  8
_AA_PERFIL_AL
100
AcDbPolyline
 90
        4
 70
     1
 43
0.0
 38
0.0
 10
-183.736284
 20
461.732709
 10
-183.539181
 20
471.730767
 10
-166.226591
 20
471.389463
 10
-166.423694
 20
461.391406
  0
LINE
  5
62D
100
AcDbEntity
  8
_AA_PERFIL_AC
100
AcDbLine
 10
-108.731548
 20
187.026738
 30
0.0
 11
-116.120027
 21
370.0
 31
0.0
210
-0.0000000000000175
220
1.0
230
0.0
1001
ACAD
1000
RTLwPs
1070
   128
  0
LINE
  5
62E
100
AcDbEntity
  8
_AA_PERFIL_AC
100
AcDbLine
 10
-158.957716
 20
249.868741
 30
0.0
 11
-139.022712
 21
248.257647
 31
0.0
1001
ACAD
1000
RTLwPs
1070
   128
  0
LINE
  5
62F
100
AcDbEntity
  8
_AA_VIDRIO
100
AcDbLine
 10
-149.98725
 20
242.101382
 30
0.0
 11
-154.783342
 21
241.907715
 31
0.0
1001
ACAD
1000
RTLwPs
1070
   128
  0
INSERT
  5
630
100
AcDbEntity
  8
_AA_VIDRIO
100
AcDbBlockReference
  2
MALU90
 10
-153.174852
 20
192.026738
 30
0.0
 50
90.000002
1001
ACAD
1000
RTLwPs
1070
   128
  0
LINE
  5
631
100
AcDbEntity
  8
_AA_VIDRIO
100
AcDbLine
 10
-152.90309
 20
195.343901
 30
0.0
 11
-148.106999
 21
195.537568
 31
0.0
1001
ACAD
1000
RTLwPs
1070
   128
  0
INSERT
  5
632
100
AcDbEntity
  8
_AA_PERFIL_AL
100
AcDbBlockReference
  2
MALU90OPACO
 10
-159.902103
 20
533.63464
 30
0.0
 50
85.379548
  0
LWPOLYLINE
  5
633
100
AcDbEntity
  8
_AA_PERFIL_AL
100
AcDbPolyline
 90
        4
 70
     1
 43
0.0
 38
0.0
 10
-167.073959
 20
1048.182836
 10
-166.538405
 20
1058.168485
 10
-148.564237
 20
1057.204486
 10
-149.099792
 20
1047.218837
  0
INSERT
  5
634
100
AcDbEntity
  8
_AA_VIDRIO
100
AcDbBlockReference
  2
MALU90
 10
-154.476307
 20
244.490263
 30
0.0
 50
85.379551
1001
ACAD
1000
RTLwPs
1070
   128
  0
LINE
  5
635
100
AcDbEntity
  8
_AA_PERFIL_AC
100
AcDbLine
 10
-175.319023
 20
1058.639414
 30
0.0
 11
-148.792269
 21
1057.216719
 31
0.0
1001
ACAD
1000
RTLwPs
1070
   128
  0
CIRCLE
  5
636
100
AcDbEntity
  8
_AA_TEXTOS
100
AcDbCircle
 10
-188.717618
 20
936.482017
 30
0.0
 40
21.577864
1001
ACAD
1000
RTLwPs
1070
   128
  0
MTEXT
  5
637
100
AcDbEntity
  8
_AA_TEXTOS
100
AcDbMText
 10
-560.421484
 20
673.320213
 30
0.0
 40
30.0
 41
1696.6542
 71
     5
 72
     5
  1
LOS VIDRIO SON 8+8/20/6+6
  7
ROMANS
1001
ACAD
1000
MTEXTBEGIN
1070
    73
1070
     1
1070
    44
1040
1.0
1070
    74
1070
     0
1000
MTEXTEND
  0
LINE
  5
638
100
AcDbEntity
  8
_AA_TEXTOS
100
AcDbLine
 10
-895.994337
 20
637.598058
 30
0.0
 11
-228.348996
 21
637.598058
 31
0.0
1001
ACAD
1000
RTLwPs
1070
   128
  0
LINE
  5
639
100
AcDbEntity
  8
_AA_TEXTOS
100
AcDbLine
 10
-228.348996
 20
637.598058
 30
0.0
 11
-180.945859
 21
573.754927
 31
0.0
1001
ACAD
1000
RTLwPs
1070
   128
  0
ENDBLK
  5
63B
100
AcDbEntity
  8
0
100
AcDbBlockEnd
  0
ENDSEC
  0
SECTION
  2
ENTITIES
  0
LINE
  5
4AF
100
AcDbEntity
  8
_AA_VIDRIO
100
AcDbLine
 10
310.444605
 20
1421.304427
 30
0.00006
 11
315.241367
 21
1421.128153
 31
0.00006
  0
LINE
  5
4B0
100
AcDbEntity
  8
_AA_VIDRIO
100
AcDbLine
 10
304.55837
 20
1261.128287
 30
0.00006
 11
308.185341
 21
1359.825373
 31
0.00006
  0
LINE
  5
4B1
100
AcDbEntity
  8
_AA_VIDRIO
100
AcDbLine
 10
315.241367
 20
1421.128153
 30
0.00006
 11
313.130431
 21
1363.685384
 31
0.00006
  0
LINE
  5
4BB
100
AcDbEntity
  8
_AA_VIDRIO
100
AcDbLine
 10
304.55837
 20
1261.128287
 30
0.0
 11
309.355132
 21
1260.952013
 31
0.0
  0
LINE
  5
4BC
100
AcDbEntity
  8
_AA_VIDRIO
100
AcDbLine
 10
304.410043
 20
1257.092002
 30
0.0
 11
309.206805
 21
1256.915728
 31
0.0
  0
LINE
  5
4BF
100
AcDbEntity
  8
_AA_VIDRIO
100
AcDbLine
 10
308.185341
 20
1359.825373
 30
0.00006
 11
312.982104
 21
1359.649099
 31
0.00006
  0
LINE
  5
4C0
100
AcDbEntity
  8
_AA_VIDRIO
100
AcDbLine
 10
308.333669
 20
1363.861658
 30
0.00006
 11
313.130431
 21
1363.685384
 31
0.00006
  0
LINE
  5
4C1
100
AcDbEntity
  8
_AA_VIDRIO
100
AcDbLine
 10
312.982104
 20
1359.649099
 30
0.00006
 11
309.355132
 21
1260.952013
 31
0.00006
  0
LINE
  5
4C2
100
AcDbEntity
  8
_AA_VIDRIO
100
AcDbLine
 10
308.333669
 20
1363.861658
 30
0.00006
 11
310.444605
 21
1421.304427
 31
0.00006
  0
LINE
  5
4C6
100
AcDbEntity
  8
_AA_VIDRIO
100
AcDbLine
 10
301.250846
 20
1171.124007
 30
0.0
 11
306.047608
 21
1170.947733
 31
0.0
  0
LINE
  5
4C7
100
AcDbEntity
  8
_AA_VIDRIO
100
AcDbLine
 10
304.410043
 20
1257.092002
 30
0.0
 11
301.250846
 21
1171.124007
 31
0.0
  0
LINE
  5
4C8
100
AcDbEntity
  8
_AA_VIDRIO
100
AcDbLine
 10
306.047608
 20
1170.947733
 30
0.0
 11
309.206805
 21
1256.915728
 31
0.0
  0
LINE
  5
4CA
100
AcDbEntity
  8
_AA_VIDRIO
100
AcDbLine
 10
325.241788
 20
1057.222512
 30
0.0
 11
330.504546
 21
1256.2105
 31
0.0
  0
LINE
  5
4CB
100
AcDbEntity
  8
_AA_VIDRIO
100
AcDbLine
 10
320.137787
 20
1053.35623
 30
0.0
 11
324.936109
 21
1053.229326
 31
0.0
  0
LINE
  5
4CC
100
AcDbEntity
  8
_AA_VIDRIO
100
AcDbLine
 10
335.301562
 20
1256.034216
 30
0.0
 11
330.040111
 21
1057.095608
 31
0.0
  0
LINE
  5
4CD
100
AcDbEntity
  8
_AA_VIDRIO
100
AcDbLine
 10
330.040111
 20
1057.095608
 30
0.0
 11
325.241788
 21
1057.222512
 31
0.0
  0
LINE
  5
4D0
100
AcDbEntity
  8
_AA_VIDRIO
100
AcDbLine
 10
318.920761
 20
1007.339933
 30
0.0
 11
323.719083
 21
1007.213028
 31
0.0
  0
LINE
  5
4D1
100
AcDbEntity
  8
_AA_VIDRIO
100
AcDbLine
 10
320.137791
 20
1053.35623
 30
0.0
 11
318.920761
 21
1007.339933
 31
0.0
  0
LINE
  5
4D2
100
AcDbEntity
  8
_AA_VIDRIO
100
AcDbLine
 10
323.719083
 20
1007.213028
 30
0.0
 11
324.936113
 21
1053.229326
 31
0.0
  0
LINE
  5
4D4
100
AcDbEntity
  8
_AA_VIDRIO
100
AcDbLine
 10
344.963337
 20
959.828652
 30
0.0
 11
349.752305
 21
960.153887
 31
0.0
  0
LINE
  5
4D5
100
AcDbEntity
  8
_AA_VIDRIO
100
AcDbLine
 10
349.478633
 20
964.183614
 30
0.0
 11
343.667365
 21
1049.752392
 31
0.0
  0
LINE
  5
4D6
100
AcDbEntity
  8
_AA_VIDRIO
100
AcDbLine
 10
338.847651
 20
1049.879862
 30
0.0
 11
344.689664
 21
963.858378
 31
0.0
  0
LINE
  5
4D7
100
AcDbEntity
  8
_AA_VIDRIO
100
AcDbLine
 10
344.689664
 20
963.858378
 30
0.0
 11
349.478633
 21
964.183614
 31
0.0
  0
LINE
  5
4D8
100
AcDbEntity
  8
_AA_VIDRIO
100
AcDbLine
 10
347.75379
 20
918.740249
 30
0.0
 11
352.542759
 21
919.065485
 31
0.0
  0
LINE
  5
4D9
100
AcDbEntity
  8
_AA_VIDRIO
100
AcDbLine
 10
344.963337
 20
959.828652
 30
0.0
 11
347.75379
 21
918.740249
 31
0.0
  0
LINE
  5
4DA
100
AcDbEntity
  8
_AA_VIDRIO
100
AcDbLine
 10
352.542759
 20
919.065485
 30
0.0
 11
349.752305
 21
960.153887
 31
0.0
  0
LINE
  5
4DB
100
AcDbEntity
  8
_AA_VIDRIO
100
AcDbLine
 10
352.816432
 20
915.035758
 30
0.0
 11
355.962116
 21
868.716718
 31
0.0
  0
LINE
  5
4DC
100
AcDbEntity
  8
_AA_VIDRIO
100
AcDbLine
 10
351.173147
 20
868.391483
 30
0.0
 11
348.027463
 21
914.710523
 31
0.0
  0
LINE
  5
4DD
100
AcDbEntity
  8
_AA_VIDRIO
100
AcDbLine
 10
348.027463
 20
914.710523
 30
0.0
 11
352.816432
 21
915.035758
 31
0.0
  0
LINE
  5
4E0
100
AcDbEntity
  8
_AA_VIDRIO
100
AcDbLine
 10
351.173147
 20
868.391483
 30
0.0
 11
355.962116
 21
868.716718
 31
0.0
  0
LINE
  5
4E1
100
AcDbEntity
  8
_AA_VIDRIO
100
AcDbLine
 10
404.743388
 20
765.823893
 30
0.0
 11
395.724994
 21
916.417717
 31
0.0
  0
LINE
  5
4E2
100
AcDbEntity
  8
_AA_VIDRIO
100
AcDbLine
 10
390.933582
 20
916.130714
 30
0.0
 11
399.951976
 21
765.53689
 31
0.0
  0
LINE
  5
4E3
100
AcDbEntity
  8
_AA_VIDRIO
100
AcDbLine
 10
411.932006
 20
565.5369
 30
0.0
 11
400.394593
 21
758.150142
 31
0.0
  0
LINE
  5
4E4
100
AcDbEntity
  8
_AA_VIDRIO
100
AcDbLine
 10
405.186005
 20
758.437145
 30
0.0
 11
416.723418
 21
565.823902
 31
0.0
  0
LINE
  5
4E6
100
AcDbEntity
  8
_AA_VIDRIO
100
AcDbLine
 10
405.186005
 20
758.437145
 30
0.0
 11
400.394593
 21
758.150142
 31
0.0
  0
LINE
  5
4E7
100
AcDbEntity
  8
_AA_VIDRIO
100
AcDbLine
 10
404.743388
 20
765.823893
 30
0.0
 11
399.952131
 21
765.536899
 31
0.0
  0
LINE
  5
4E8
100
AcDbEntity
  8
_AA_VIDRIO
100
AcDbLine
 10
421.216007
 20
410.543519
 30
0.0
 11
412.374462
 21
558.150142
 31
0.0
  0
LINE
  5
4E9
100
AcDbEntity
  8
_AA_VIDRIO
100
AcDbLine
 10
417.165874
 20
558.437145
 30
0.0
 11
426.007419
 21
410.830521
 31
0.0
  0
LINE
  5
4EB
100
AcDbEntity
  8
_AA_VIDRIO
100
AcDbLine
 10
417.165874
 20
558.437145
 30
0.0
 11
412.374462
 21
558.150142
 31
0.0
  0
LINE
  5
4EC
100
AcDbEntity
  8
_AA_VIDRIO
100
AcDbLine
 10
416.723257
 20
565.823893
 30
0.0
 11
411.932
 21
565.536899
 31
0.0
  0
LINE
  5
4EE
100
AcDbEntity
  8
_AA_VIDRIO
100
AcDbLine
 10
395.822901
 20
916.423581
 30
0.0
 11
391.031489
 21
916.136579
 31
0.0
  0
LINE
  5
4F0
100
AcDbEntity
  8
_AA_VIDRIO
100
AcDbLine
 10
421.216007
 20
410.543519
 30
0.0
 11
426.007419
 21
410.830521
 31
0.0
  0
LINE
  5
501
100
AcDbEntity
  8
_AA_VIDRIO
100
AcDbLine
 10
330.504546
 20
1256.2105
 30
0.0
 11
335.301562
 21
1256.034216
 31
0.0
  0
LINE
  5
503
100
AcDbEntity
  8
EP
100
AcDbLine
 10
1650.575246
 20
444.067806
 30
0.0
 11
1650.575246
 21
1579.768893
 31
0.0
  0
LINE
  5
63D
100
AcDbEntity
  8
_AA_EJES
  6
DASHDOT
100
AcDbLine
 10
950.408433
 20
1619.067806
 30
0.0
 11
3932.971904
 21
1619.067806
 31
0.0
  0
LINE
  5
63E
100
AcDbEntity
  8
_AA_EJES
  6
DASHDOT
100
AcDbLine
 10
950.408433
 20
1219.067806
 30
0.0
 11
3932.971904
 21
1219.067806
 31
0.0
  0
LINE
  5
63F
100
AcDbEntity
  8
_AA_EJES
  6
DASHDOT
100
AcDbLine
 10
950.408433
 20
819.067806
 30
0.0
 11
3932.971904
 21
819.067806
 31
0.0
  0
LINE
  5
640
100
AcDbEntity
  8
_AA_EJES
  6
DASHDOT
100
AcDbLine
 10
950.408433
 20
419.067806
 30
0.0
 11
3932.971904
 21
419.067806
 31
0.0
  0
LINE
  5
641
100
AcDbEntity
  8
_AA_EJES
  6
DASHDOT
100
AcDbLine
 10
930.410433
 20
459.067806
 30
0.0
 11
3912.973904
 21
459.067806
 31
0.0
  0
LWPOLYLINE
  5
642
100
AcDbEntity
  8
_AA_PERFIL_AC
100
AcDbPolyline
 90
        5
 70
   128
 43
0.0
 38
0.0
 10
1496.228768
 20
1629.067806
 10
1516.257511
 20
1629.067806
 10
1515.184862
 20
1609.067806
 10
1495.156118
 20
1609.067806
 10
1496.228768
 20
1629.067806
1001
ACAD
1000
RTLwPs
1070
   128
  0
LWPOLYLINE
  5
643
100
AcDbEntity
  8
_AA_PERFIL_AC
100
AcDbPolyline
 90
        5
 70
   128
 43
0.0
 38
0.0
 10
1511.120721
 20
1229.067806
 10
1531.124607
 20
1229.067806
 10
1530.730323
 20
1209.067806
 10
1510.726437
 20
1209.067806
 10
1511.120721
 20
1229.067806
1001
ACAD
1000
RTLwPs
1070
   128
  0
LWPOLYLINE
  5
644
100
AcDbEntity
  8
_AA_PERFIL_AC
100
AcDbPolyline
 90
        5
 70
   128
 43
0.0
 10
1516.326221
 20
829.067806
 10
1536.391429
 20
829.067806
 10
1534.775082
 20
809.067806
 10
1514.709874
 20
809.067806
 10
1516.326221
 20
829.067806
1001
ACAD
1000
RTLwPs
1070
   128
  0
ARC
  5
645
100
AcDbEntity
  8
_AA_CARTONYESO
100
AcDbCircle
 10
-30.879913
 20
32032.85169
 30
0.0
 40
30510.443375
210
-0.0000000000235866
220
0.0
230
1.0
100
AcDbArc
 50
272.951598
 51
273.051828
1001
ACAD
1000
RTLwPs
1070
   128
  0
LINE
  5
646
100
AcDbEntity
  8
_AA_VIDRIO
100
AcDbLine
 10
1512.672156
 20
654.411707
 30
0.0
 11
1510.791904
 21
700.975522
 31
0.0
210
-0.0000000000000175
220
1.0
230
0.0
1001
ACAD
1000
RTLwPs
1070
   128
  0
POLYLINE
  5
647
100
AcDbEntity
  8
_AA_PIEDRA
100
AcDb2dPolyline
 66
     1
 10
0.0
 20
0.0
 30
0.000465
210
-0.0000000158086069
220
0.0000007520987885
230
0.9999999999997172
1001
ACAD
1000
RTLwPs
1070
   128
  0
VERTEX
  5
648
100
AcDbEntity
  8
_AA_PIEDRA
100
AcDbVertex
100
AcDb2dVertex
 10
1522.144382
 20
646.094544
 30
0.000465
  0
VERTEX
  5
649
100
AcDbEntity
  8
_AA_PIEDRA
100
AcDbVertex
100
AcDb2dVertex
 10
936.629853
 20
633.781266
 30
0.000465
  0
SEQEND
  5
64A
100
AcDbEntity
  8
_AA_PIEDRA
  0
LINE
  5
64B
100
AcDbEntity
  8
_AA_PIEDRA
100
AcDbLine
 10
1897.745614
 20
1858.416179
 30
0.0
 11
1897.745614
 21
1828.416179
 31
0.0
210
-0.0000000000000175
220
1.0
230
0.0
1001
ACAD
1000
RTLwPs
1070
   128
  0
POLYLINE
  5
64C
100
AcDbEntity
  8
_AA_CARTONYESO
100
AcDb2dPolyline
 66
     1
 10
0.0
 20
0.0
 30
0.0
210
0.0000000000015459
220
0.0
230
-1.0
1001
ACAD
1000
RTLwPs
1070
   128
  0
VERTEX
  5
64D
100
AcDbEntity
  8
_AA_CARTONYESO
100
AcDbVertex
100
AcDb2dVertex
 10
-1966.756093
 20
1114.920178
 30
0.0
  0
VERTEX
  5
64E
100
AcDbEntity
  8
_AA_CARTONYESO
100
AcDbVertex
100
AcDb2dVertex
 10
-1594.726458
 20
1386.39671
 30
0.0
  0
SEQEND
  5
64F
100
AcDbEntity
  8
_AA_CARTONYESO
  0
ARC
  5
650
100
AcDbEntity
  8
_AA_CARTONYESO
100
AcDbCircle
 10
-2236.165094
 20
-29618.462856
 30
0.0
 40
30947.319285
210
-0.0000000000030732
220
0.0
230
1.0
100
AcDbArc
 50
81.711033
 51
81.886202
1001
ACAD
1000
RTLwPs
1070
   128
  0
ARC
  5
651
100
AcDbEntity
  8
_AA_CARTONYESO
100
AcDbCircle
 10
15148.237157
 20
23619.000042
 30
0.0
 40
26080.334343
210
0.000000000011195
220
0.0
230
1.0
100
AcDbArc
 50
239.640989
 51
240.060267
1001
ACAD
1000
RTLwPs
1070
   128
  0
POLYLINE
  5
652
100
AcDbEntity
  8
_AA_PERFIL_AC
100
AcDb2dPolyline
 66
     1
 10
0.0
 20
0.0
 30
0.0
 70
     1
210
0.0000000000015465
220
0.0
230
-1.0
1001
ACAD
1000
RTLwPs
1070
   128
  0
VERTEX
  5
653
100
AcDbEntity
  8
_AA_PERFIL_AC
100
AcDbVertex
100
AcDb2dVertex
 10
-1635.559132
 20
829.067806
 30
0.0
  0
VERTEX
  5
654
100
AcDbEntity
  8
_AA_PERFIL_AC
100
AcDbVertex
100
AcDb2dVertex
 10
-1635.559132
 20
809.067806
 30
0.0
  0
VERTEX
  5
655
100
AcDbEntity
  8
_AA_PERFIL_AC
100
AcDbVertex
100
AcDb2dVertex
 10
-1615.575246
 20
809.067806
 30
0.0
  0
VERTEX
  5
656
100
AcDbEntity
  8
_AA_PERFIL_AC
100
AcDbVertex
100
AcDb2dVertex
 10
-1615.575246
 20
829.067806
 30
0.0
  0
VERTEX
  5
657
100
AcDbEntity
  8
_AA_PERFIL_AC
100
AcDbVertex
100
AcDb2dVertex
 10
-1635.559132
 20
829.067806
 30
0.0
  0
SEQEND
  5
658
100
AcDbEntity
  8
_AA_PERFIL_AC
  0
LINE
  5
659
100
AcDbEntity
  8
SEC-FS-VIGAS_CAJON
100
AcDbLine
 10
1780.414871
 20
1655.145249
 30
0.0
 11
1780.414871
 21
1517.131793
 31
0.0
210
-0.0000000000000175
220
1.0
230
0.0
1001
ACAD
1000
RTLwPs
1070
   128
  0
LINE
  5
65A
100
AcDbEntity
  8
SEC-FS-VIGAS_CAJON
100
AcDbLine
 10
1727.377251
 20
1652.066697
 30
0.0
 11
1727.377251
 21
1518.44377
 31
0.0
210
-0.0000000000000175
220
1.0
230
0.0
1001
ACAD
1000
RTLwPs
1070
   128
  0
LINE
  5
65B
100
AcDbEntity
  8
_AA_CARTONYESO
100
AcDbLine
 10
1593.360647
 20
1565.72886
 30
0.0
 11
1594.696066
 21
1386.446897
 31
0.0
210
-0.0000000000000175
220
1.0
230
0.0
1001
ACAD
1000
RTLwPs
1070
   128
  0
POLYLINE
  5
65C
100
AcDbEntity
  8
_AA_PIEDRA
100
AcDb2dPolyline
 66
     1
 10
0.0
 20
0.0
 30
0.0
210
-0.0000000000005508
220
0.0
230
-1.0
1001
ACAD
1000
RTLwPs
1070
   128
  0
VERTEX
  5
65D
100
AcDbEntity
  8
_AA_PIEDRA
100
AcDbVertex
100
AcDb2dVertex
 10
-1674.505103
 20
1815.805211
 30
0.0
1001
ACAD
1000
RTLwPs
1070
   128
  0
VERTEX
  5
65E
100
AcDbEntity
  8
_AA_PIEDRA
100
AcDbVertex
100
AcDb2dVertex
 10
-1897.745673
 20
1828.416182
 30
0.0
1001
ACAD
1000
RTLwPs
1070
   128
  0
SEQEND
  5
65F
100
AcDbEntity
  8
_AA_PIEDRA
1001
ACAD
1000
RTLwPs
1070
   128
  0
LINE
  5
660
100
AcDbEntity
  8
SEC-FS-VIGAS_CAJON
100
AcDbLine
 10
1780.414871
 20
1517.131793
 30
0.0
 11
1727.377251
 21
1518.44377
 31
0.0
210
-0.0000000000000175
220
1.0
230
0.0
1001
ACAD
1000
RTLwPs
1070
   128
  0
LINE
  5
661
100
AcDbEntity
  8
_AA_EJES
100
AcDbLine
 10
1650.575246
 20
1619.067806
 30
0.0
 11
1650.575246
 21
819.067806
 31
0.0
  0
LINE
  5
662
100
AcDbEntity
  8
_AA_EJES
100
AcDbLine
 10
1625.575246
 20
1619.067806
 30
0.0
 11
1625.575246
 21
459.067806
 31
0.0
  0
LINE
  5
663
100
AcDbEntity
  8
_AA_EJES
100
AcDbLine
 10
1525.454988
 20
1619.067806
 30
0.0
 11
1525.454988
 21
459.067806
 31
0.0
  0
LINE
  5
664
100
AcDbEntity
  8
_AA_PERFIL_AC
100
AcDbLine
 10
1615.609594
 20
1629.067806
 30
0.0
 11
1615.55892
 21
444.067806
 31
0.0
1001
ACAD
1000
RTLwPs
1070
   128
  0
LINE
  5
665
100
AcDbEntity
  8
_AA_PERFIL_AC
100
AcDbLine
 10
1635.592632
 20
1629.067806
 30
0.0
 11
1635.542806
 21
444.067806
 31
0.0
1001
ACAD
1000
RTLwPs
1070
   128
  0
LINE
  5
666
100
AcDbEntity
  8
_AA_PERFIL_AC
100
AcDbLine
 10
1665.575246
 20
1510.96646
 30
0.0
 11
1665.575246
 21
444.067806
 31
0.0
1001
ACAD
1000
RTLwPs
1070
   128
  0
LINE
  5
667
100
AcDbEntity
  8
_AA_EJES
100
AcDbLine
 10
1650.575246
 20
1054.31237
 30
0.0
 11
1650.575246
 21
459.067806
 31
0.0
  0
POLYLINE
  5
668
100
AcDbEntity
  8
_AA_PERFIL_AC
100
AcDb2dPolyline
 66
     1
 10
0.0
 20
0.0
 30
0.0
 70
     1
210
0.0000000000015465
220
0.0
230
-1.0
1001
ACAD
1000
RTLwPs
1070
   128
  0
VERTEX
  5
669
100
AcDbEntity
  8
_AA_PERFIL_AC
100
AcDbVertex
100
AcDb2dVertex
 10
-1635.575246
 20
1229.067806
 30
0.0
  0
VERTEX
  5
66A
100
AcDbEntity
  8
_AA_PERFIL_AC
100
AcDbVertex
100
AcDb2dVertex
 10
-1635.575246
 20
1209.067806
 30
0.0
  0
VERTEX
  5
66B
100
AcDbEntity
  8
_AA_PERFIL_AC
100
AcDbVertex
100
AcDb2dVertex
 10
-1615.59136
 20
1209.067806
 30
0.0
  0
VERTEX
  5
66C
100
AcDbEntity
  8
_AA_PERFIL_AC
100
AcDbVertex
100
AcDb2dVertex
 10
-1615.59136
 20
1229.067806
 30
0.0
  0
VERTEX
  5
66D
100
AcDbEntity
  8
_AA_PERFIL_AC
100
AcDbVertex
100
AcDb2dVertex
 10
-1635.575246
 20
1229.067806
 30
0.0
  0
SEQEND
  5
66E
100
AcDbEntity
  8
_AA_PERFIL_AC
  0
LWPOLYLINE
  5
66F
100
AcDbEntity
  8
_AA_PERFIL_AC
100
AcDbPolyline
 90
        4
 70
     1
 43
0.0
 10
1635.575246
 20
1204.067806
 10
1665.575246
 20
1204.067806
 10
1665.575246
 20
1234.067806
 10
1635.575246
 20
1234.067806
1001
ACAD
1000
RTLwPs
1070
   128
  0
POLYLINE
  5
670
100
AcDbEntity
  8
_AA_PERFIL_AC
100
AcDb2dPolyline
 66
     1
 10
0.0
 20
0.0
 30
0.0
 70
     1
210
0.0000000000015465
220
0.0
230
-1.0
1001
ACAD
1000
RTLwPs
1070
   128
  0
VERTEX
  5
671
100
AcDbEntity
  8
_AA_PERFIL_AC
100
AcDbVertex
100
AcDb2dVertex
 10
-1635.592632
 20
1629.067806
 30
0.0
  0
VERTEX
  5
672
100
AcDbEntity
  8
_AA_PERFIL_AC
100
AcDbVertex
100
AcDb2dVertex
 10
-1635.592632
 20
1609.067806
 30
0.0
  0
VERTEX
  5
673
100
AcDbEntity
  8
_AA_PERFIL_AC
100
AcDbVertex
100
AcDb2dVertex
 10
-1615.608746
 20
1609.067806
 30
0.0
  0
VERTEX
  5
674
100
AcDbEntity
  8
_AA_PERFIL_AC
100
AcDbVertex
100
AcDb2dVertex
 10
-1615.608746
 20
1629.067806
 30
0.0
  0
VERTEX
  5
675
100
AcDbEntity
  8
_AA_PERFIL_AC
100
AcDbVertex
100
AcDb2dVertex
 10
-1635.592632
 20
1629.067806
 30
0.0
  0
SEQEND
  5
676
100
AcDbEntity
  8
_AA_PERFIL_AC
  0
LINE
  5
677
100
AcDbEntity
  8
_AA_PERFIL_AC
100
AcDbLine
 10
1531.124607
 20
1229.067806
 30
0.0
 11
1615.592208
 21
1229.067806
 31
0.0
1001
ACAD
1000
RTLwPs
1070
   128
  0
LINE
  5
678
100
AcDbEntity
  8
_AA_PERFIL_AC
100
AcDbLine
 10
1530.730323
 20
1209.067806
 30
0.0
 11
1615.59136
 21
1209.067806
 31
0.0
1001
ACAD
1000
RTLwPs
1070
   128
  0
LINE
  5
679
100
AcDbEntity
  8
_AA_PERFIL_AC
100
AcDbLine
 10
1516.257511
 20
1629.067806
 30
0.0
 11
1615.609594
 21
1629.067806
 31
0.0
1001
ACAD
1000
RTLwPs
1070
   128
  0
LINE
  5
67A
100
AcDbEntity
  8
_AA_PERFIL_AC
100
AcDbLine
 10
1515.184862
 20
1609.067806
 30
0.0
 11
1615.608746
 21
1609.067806
 31
0.0
1001
ACAD
1000
RTLwPs
1070
   128
  0
LINE
  5
67B
100
AcDbEntity
  8
_AA_PERFIL_AC
100
AcDbLine
 10
1536.391429
 20
829.067806
 30
0.0
 11
1615.576094
 21
829.067806
 31
0.0
1001
ACAD
1000
RTLwPs
1070
   128
  0
LINE
  5
67C
100
AcDbEntity
  8
_AA_PERFIL_AC
100
AcDbLine
 10
1534.775082
 20
809.067806
 30
0.0
 11
1615.575246
 21
809.067806
 31
0.0
1001
ACAD
1000
RTLwPs
1070
   128
  0
LINE
  5
67D
100
AcDbEntity
  8
_AA_VIDRIO
100
AcDbLine
 10
1517.468247
 20
654.605374
 30
0.0
 11
1515.587996
 21
701.169188
 31
0.0
210
-0.0000000000000175
220
1.0
230
0.0
1001
ACAD
1000
RTLwPs
1070
   128
  0
LINE
  5
67E
100
AcDbEntity
  8
_AA_PERFIL_AC
100
AcDbLine
 10
1506.552428
 20
997.342111
 30
0.0
 11
1510.726437
 21
1209.067806
 31
0.0
210
-0.0000000000000175
220
1.0
230
0.0
1001
ACAD
1000
RTLwPs
1070
   128
  0
LINE
  5
67F
100
AcDbEntity
  8
_AA_PERFIL_AC
100
AcDbLine
 10
1489.720668
 20
1507.721572
 30
0.0
 11
1495.156118
 21
1609.067806
 31
0.0
210
-0.0000000000000175
220
1.0
230
0.0
1001
ACAD
1000
RTLwPs
1070
   128
  0
LINE
  5
680
100
AcDbEntity
  8
_AA_PERFIL_AC
100
AcDbLine
 10
1506.61753
 20
708.936547
 30
0.0
 11
1514.709874
 21
809.067806
 31
0.0
210
-0.0000000000000175
220
1.0
230
0.0
1001
ACAD
1000
RTLwPs
1070
   128
  0
LINE
  5
681
100
AcDbEntity
  8
_AA_PROYECCION2
100
AcDbLine
 10
1501.904855
 20
650.623894
 30
0.0
 11
1506.61753
 21
708.936547
 31
0.0
210
-0.0000000000000175
220
1.0
230
0.0
1001
ACAD
1000
RTLwPs
1070
   128
  0
LINE
  5
682
100
AcDbEntity
  8
_AA_PERFIL_AC
100
AcDbLine
 10
1536.827399
 20
646.094544
 30
0.0
 11
1531.75533
 21
771.70267
 31
0.0
210
-0.0000000000000175
220
1.0
230
0.0
1001
ACAD
1000
RTLwPs
1070
   128
  0
LINE
  5
683
100
AcDbEntity
  8
_AA_PERFIL_AC
100
AcDbLine
 10
1526.552534
 20
707.325453
 30
0.0
 11
1534.775082
 21
809.067806
 31
0.0
210
-0.0000000000000175
220
1.0
230
0.0
1001
ACAD
1000
RTLwPs
1070
   128
  0
LINE
  5
684
100
AcDbEntity
  8
_AA_PERFIL_AC
100
AcDbLine
 10
1536.391429
 20
829.067806
 30
0.0
 11
1568.718372
 21
1229.067806
 31
0.0
210
-0.0000000000000175
220
1.0
230
0.0
1001
ACAD
1000
RTLwPs
1070
   128
  0
LINE
  5
685
100
AcDbEntity
  8
_AA_PERFIL_AC
100
AcDbLine
 10
1516.326221
 20
829.067806
 30
0.0
 11
1548.653164
 21
1229.067806
 31
0.0
210
-0.0000000000000175
220
1.0
230
0.0
1001
ACAD
1000
RTLwPs
1070
   128
  0
LINE
  5
686
100
AcDbEntity
  8
_AA_PERFIL_AC
100
AcDbLine
 10
1526.548543
 20
996.947903
 30
0.0
 11
1530.730323
 21
1209.067806
 31
0.0
210
-0.0000000000000175
220
1.0
230
0.0
1001
ACAD
1000
RTLwPs
1070
   128
  0
LINE
  5
687
100
AcDbEntity
  8
_AA_PERFIL_AC
100
AcDbLine
 10
1531.124607
 20
1229.067806
 30
0.0
 11
1539.010299
 21
1629.067806
 31
0.0
210
-0.0000000000000175
220
1.0
230
0.0
1001
ACAD
1000
RTLwPs
1070
   128
  0
LINE
  5
688
100
AcDbEntity
  8
_AA_PERFIL_AC
100
AcDbLine
 10
1511.120721
 20
1229.067806
 30
0.0
 11
1519.006413
 21
1629.067806
 31
0.0
210
-0.0000000000000175
220
1.0
230
0.0
1001
ACAD
1000
RTLwPs
1070
   128
  0
LINE
  5
689
100
AcDbEntity
  8
_AA_PERFIL_AC
100
AcDbLine
 10
1510.227521
 20
1516.63611
 30
0.0
 11
1515.184862
 21
1609.067806
 31
0.0
210
-0.0000000000000175
220
1.0
230
0.0
1001
ACAD
1000
RTLwPs
1070
   128
  0
LINE
  5
68A
100
AcDbEntity
  8
_AA_PERFIL_AC
100
AcDbLine
 10
1516.257511
 20
1629.067806
 30
0.0
 11
1519.097773
 21
1682.025675
 31
0.0
210
-0.0000000000000175
220
1.0
230
0.0
1001
ACAD
1000
RTLwPs
1070
   128
  0
LINE
  5
68B
100
AcDbEntity
  8
_AA_PERFIL_AC
100
AcDbLine
 10
1496.228768
 20
1629.067806
 30
0.0
 11
1499.069029
 21
1682.025675
 31
0.0
210
-0.0000000000000175
220
1.0
230
0.0
1001
ACAD
1000
RTLwPs
1070
   128
  0
POLYLINE
  5
68C
100
AcDbEntity
  8
_AA_ESTRUCTURA_HR
100
AcDb2dPolyline
 66
     1
 10
0.0
 20
0.0
 30
0.0
210
-0.000000000001524
220
0.0
230
1.0
  0
VERTEX
  5
68D
100
AcDbEntity
  8
_AA_ESTRUCTURA_HR
100
AcDbVertex
100
AcDb2dVertex
 10
2225.3752
 20
1698.449662
 30
0.0
  0
VERTEX
  5
68E
100
AcDbEntity
  8
_AA_ESTRUCTURA_HR
100
AcDbVertex
100
AcDb2dVertex
 10
1753.896061
 20
1667.674392
 30
0.0
  0
SEQEND
  5
68F
100
AcDbEntity
  8
_AA_ESTRUCTURA_HR
  0
POLYLINE
  5
690
100
AcDbEntity
  8
_AA_PERFIL_AC
100
AcDb2dPolyline
 66
     1
 10
0.0
 20
0.0
 30
0.0
210
-0.0000000000017065
220
0.0
230
1.0
1001
ACAD
1000
RTLwPs
1070
   128
  0
VERTEX
  5
691
100
AcDbEntity
  8
_AA_PERFIL_AC
100
AcDbVertex
100
AcDb2dVertex
 10
2225.3752
 20
1684.376289
 30
0.0
1001
ACAD
1000
RTLwPs
1070
   128
  0
VERTEX
  5
692
100
AcDbEntity
  8
_AA_PERFIL_AC
100
AcDbVertex
100
AcDb2dVertex
 10
1753.896061
 20
1653.635524
 30
0.0
1001
ACAD
1000
RTLwPs
1070
   128
  0
SEQEND
  5
693
100
AcDbEntity
  8
_AA_PERFIL_AC
1001
ACAD
1000
RTLwPs
1070
   128
  0
POLYLINE
  5
694
100
AcDbEntity
  8
_AA_PIEDRA
100
AcDb2dPolyline
 66
     1
 10
0.0
 20
0.0
 30
0.0
210
0.0000000000019722
220
0.0
230
-1.0
1001
ACAD
1000
RTLwPs
1070
   128
  0
VERTEX
  5
695
100
AcDbEntity
  8
_AA_PIEDRA
100
AcDbVertex
100
AcDb2dVertex
 10
-1897.745673
 20
1858.416182
 30
0.0
1001
ACAD
1000
RTLwPs
1070
   128
  0
VERTEX
  5
696
100
AcDbEntity
  8
_AA_PIEDRA
100
AcDbVertex
100
AcDb2dVertex
 10
-2225.3752
 20
1882.060969
 30
0.0
1001
ACAD
1000
RTLwPs
1070
   128
  0
SEQEND
  5
697
100
AcDbEntity
  8
_AA_PIEDRA
1001
ACAD
1000
RTLwPs
1070
   128
  0
LINE
  5
698
100
AcDbEntity
  8
_AA_PIEDRA
100
AcDbLine
 10
2225.3752
 20
459.067806
 30
0.0
 11
1777.828992
 21
459.067806
 31
0.0
210
0.0000000000015751
220
0.0
230
-1.0
  0
LINE
  5
699
100
AcDbEntity
  8
_AA_ESTRUCTURA_HR
100
AcDbLine
 10
1526.843698
 20
646.094544
 30
0.0
 11
1526.843698
 21
404.067806
 31
0.0
210
0.0000000000015751
220
0.0
230
-1.0
  0
LINE
  5
69A
100
AcDbEntity
  8
_AA_ESTRUCTURA_HR
100
AcDbLine
 10
1526.843698
 20
404.067806
 30
0.0
 11
2225.3752
 21
404.067806
 31
0.0
210
0.0000000000015751
220
0.0
230
-1.0
  0
LINE
  5
69B
100
AcDbEntity
  8
_AA_ESTRUCTURA_HR
100
AcDbLine
 10
2225.3752
 20
444.067806
 30
0.0
 11
1777.828992
 21
444.067806
 31
0.0
210
0.0000000000015751
220
0.0
230
-1.0
  0
LINE
  5
69C
100
AcDbEntity
  8
_AA_PERFIL_AC
100
AcDbLine
 10
1489.720668
 20
1507.721572
 30
0.0
 11
1516.58576
 21
1506.28073
 31
0.0
1001
ACAD
1000
RTLwPs
1070
   128
  0
LINE
  5
69D
100
AcDbEntity
  8
_AA_PERFIL_AC
100
AcDbLine
 10
1506.552428
 20
997.342111
 30
0.0
 11
1526.548543
 21
996.947903
 31
0.0
1001
ACAD
1000
RTLwPs
1070
   128
  0
POLYLINE
  5
69E
100
AcDbEntity
  8
_AA_ESTRUCTURA_HR
100
AcDb2dPolyline
 66
     1
 10
0.0
 20
0.0
 30
0.0
210
0.0000000000015586
220
0.0
230
-1.0
  0
VERTEX
  5
69F
100
AcDbEntity
  8
_AA_ESTRUCTURA_HR
100
AcDbVertex
100
AcDb2dVertex
 10
-1777.828992
 20
1517.195759
 30
0.0
  0
VERTEX
  5
6A0
100
AcDbEntity
  8
_AA_ESTRUCTURA_HR
100
AcDbVertex
100
AcDb2dVertex
 10
-1777.828992
 20
444.067806
 30
0.0
  0
SEQEND
  5
6A1
100
AcDbEntity
  8
_AA_ESTRUCTURA_HR
  0
POLYLINE
  5
6A2
100
AcDbEntity
  8
_AA_ESTRUCTURA_HR
100
AcDb2dPolyline
 66
     1
 10
0.0
 20
0.0
 30
0.0
210
0.0000000000015586
220
0.0
230
-1.0
  0
VERTEX
  5
6A3
100
AcDbEntity
  8
_AA_ESTRUCTURA_HR
100
AcDbVertex
100
AcDb2dVertex
 10
-1690.250815
 20
444.067806
 30
0.0
  0
VERTEX
  5
6A4
100
AcDbEntity
  8
_AA_ESTRUCTURA_HR
100
AcDbVertex
100
AcDb2dVertex
 10
-1690.250815
 20
1517.195759
 30
0.0
  0
VERTEX
  5
6A5
100
AcDbEntity
  8
_AA_ESTRUCTURA_HR
100
AcDbVertex
100
AcDb2dVertex
 10
-1777.828992
 20
1517.195759
 30
0.0
  0
SEQEND
  5
6A6
100
AcDbEntity
  8
_AA_ESTRUCTURA_HR
  0
INSERT
  5
6A7
100
AcDbEntity
  8
_AA_PERFIL_AL
100
AcDbBlockReference
  2
MALU90OPACO
 10
1471.858243
 20
1619.067806
 30
0.0
 50
86.930343
  0
LINE
  5
6A8
100
AcDbEntity
  8
_AA_VIDRIO
100
AcDbLine
 10
1471.750098
 20
1617.051194
 30
0.0
 11
1476.543211
 21
1616.794154
 31
0.0
  0
LINE
  5
6A9
100
AcDbEntity
  8
_AA_VIDRIO
100
AcDbLine
 10
1466.331333
 20
1516.005623
 30
0.0
 11
1471.750098
 21
1617.051194
 31
0.0
  0
LINE
  5
6AA
100
AcDbEntity
  8
_AA_VIDRIO
100
AcDbLine
 10
1476.543211
 20
1616.794154
 30
0.0
 11
1471.124444
 21
1515.74855
 31
0.0
  0
LINE
  5
6AB
100
AcDbEntity
  8
_AA_VIDRIO
100
AcDbLine
 10
1476.7595
 20
1620.827368
 30
0.0
 11
1480.415922
 21
1689.009918
 31
0.0
  0
LINE
  5
6AC
100
AcDbEntity
  8
_AA_PERFIL_AL
100
AcDbLine
 10
1476.916853
 20
1713.397436
 30
0.0
 11
1475.839098
 21
1693.300171
 31
0.0
  0
LINE
  5
6AD
100
AcDbEntity
  8
_AA_VIDRIO
100
AcDbLine
 10
1471.966387
 20
1621.084408
 30
0.0
 11
1476.7595
 21
1620.827368
 31
0.0
  0
LINE
  5
6AE
100
AcDbEntity
  8
_AA_VIDRIO
100
AcDbLine
 10
1466.331333
 20
1516.005623
 30
0.0
 11
1471.124444
 21
1515.74855
 31
0.0
  0
LINE
  5
6AF
100
AcDbEntity
  8
_AA_VIDRIO
100
AcDbLine
 10
1470.907556
 20
1511.715369
 30
0.0
 11
1460.942961
 21
1325.925573
 31
0.0
  0
LINE
  5
6B0
100
AcDbEntity
  8
_AA_VIDRIO
100
AcDbLine
 10
1456.14985
 20
1326.182646
 30
0.0
 11
1466.114445
 21
1511.972441
 31
0.0
  0
LINE
  5
6B1
100
AcDbEntity
  8
_AA_VIDRIO
100
AcDbLine
 10
1466.114445
 20
1511.972441
 30
0.0
 11
1470.907556
 21
1511.715369
 31
0.0
  0
INSERT
  5
6B2
100
AcDbEntity
  8
_AA_PERFIL_AL
100
AcDbBlockReference
  2
MALU90SEMITRP
 10
1456.041924
 20
1324.166033
 30
0.0
 50
86.929957
  0
LINE
  5
6B3
100
AcDbEntity
  8
_AA_VIDRIO
100
AcDbLine
 10
1456.14985
 20
1326.182646
 30
0.0
 11
1457.747554
 21
1326.096955
 31
0.0
  0
LINE
  5
6B4
100
AcDbEntity
  8
_AA_VIDRIO
100
AcDbLine
 10
1459.744684
 20
1325.989841
 30
0.0
 11
1460.942961
 21
1325.925573
 31
0.0
  0
POLYLINE
  5
6B5
100
AcDbEntity
  8
_AA_PERFIL_AC
100
AcDb2dPolyline
 66
     1
 10
0.0
 20
0.0
 30
0.0
 70
     1
210
0.0000000000015465
220
0.0
230
-1.0
1001
ACAD
1000
RTLwPs
1070
   128
  0
VERTEX
  5
6B6
100
AcDbEntity
  8
_AA_PERFIL_AC
100
AcDbVertex
100
AcDb2dVertex
 10
-1568.718372
 20
1229.067806
 30
0.0
  0
VERTEX
  5
6B7
100
AcDbEntity
  8
_AA_PERFIL_AC
100
AcDbVertex
100
AcDb2dVertex
 10
-1567.102025
 20
1209.067807
 30
0.0
  0
VERTEX
  5
6B8
100
AcDbEntity
  8
_AA_PERFIL_AC
100
AcDbVertex
100
AcDb2dVertex
 10
-1547.118139
 20
1209.067807
 30
0.0
  0
VERTEX
  5
6B9
100
AcDbEntity
  8
_AA_PERFIL_AC
100
AcDbVertex
100
AcDb2dVertex
 10
-1548.653164
 20
1229.067806
 30
0.0
  0
VERTEX
  5
6BA
100
AcDbEntity
  8
_AA_PERFIL_AC
100
AcDbVertex
100
AcDb2dVertex
 10
-1568.718372
 20
1229.067806
 30
0.0
  0
SEQEND
  5
6BB
100
AcDbEntity
  8
_AA_PERFIL_AC
  0
POLYLINE
  5
6BC
100
AcDbEntity
  8
_AA_PERFIL_AC
100
AcDb2dPolyline
 66
     1
 10
0.0
 20
0.0
 30
0.0
 70
     1
210
0.0000000000015465
220
0.0
230
-1.0
1001
ACAD
1000
RTLwPs
1070
   128
  0
VERTEX
  5
6BD
100
AcDbEntity
  8
_AA_PERFIL_AC
100
AcDbVertex
100
AcDb2dVertex
 10
-1539.010299
 20
1629.067806
 30
0.0
  0
VERTEX
  5
6BE
100
AcDbEntity
  8
_AA_PERFIL_AC
100
AcDbVertex
100
AcDb2dVertex
 10
-1538.616438
 20
1609.067806
 30
0.0
  0
VERTEX
  5
6BF
100
AcDbEntity
  8
_AA_PERFIL_AC
100
AcDbVertex
100
AcDb2dVertex
 10
-1518.632552
 20
1609.067806
 30
0.0
  0
VERTEX
  5
6C0
100
AcDbEntity
  8
_AA_PERFIL_AC
100
AcDbVertex
100
AcDb2dVertex
 10
-1519.006413
 20
1629.067806
 30
0.0
  0
VERTEX
  5
6C1
100
AcDbEntity
  8
_AA_PERFIL_AC
100
AcDbVertex
100
AcDb2dVertex
 10
-1539.010299
 20
1629.067806
 30
0.0
  0
SEQEND
  5
6C2
100
AcDbEntity
  8
_AA_PERFIL_AC
  0
LINE
  5
6C3
100
AcDbEntity
  8
_AA_VIDRIO
100
AcDbLine
 10
1482.418733
 20
990.79702
 30
0.0
 11
1481.177471
 21
927.834425
 31
0.0
  0
LINE
  5
6C4
100
AcDbEntity
  8
_AA_VIDRIO
100
AcDbLine
 10
1482.697533
 20
994.792173
 30
0.0
 11
1487.046038
 21
1215.368527
 31
0.0
  0
LINE
  5
6C5
100
AcDbEntity
  8
_AA_VIDRIO
100
AcDbLine
 10
1477.619666
 20
990.89163
 30
0.0
 11
1482.418733
 21
990.79702
 31
0.0
  0
LINE
  5
6C6
100
AcDbEntity
  8
_AA_VIDRIO
100
AcDbLine
 10
1497.651821
 20
1509.817436
 30
0.0
 11
1491.990959
 21
1222.672275
 31
0.0
  0
LINE
  5
6C7
100
AcDbEntity
  8
_AA_VIDRIO
100
AcDbLine
 10
1487.4966
 20
994.697563
 30
0.0
 11
1487.487206
 21
994.697748
 31
0.0
  0
LINE
  5
6C8
100
AcDbEntity
  8
_AA_VIDRIO
100
AcDbLine
 10
1487.487206
 20
994.697748
 30
0.0
 11
1482.697533
 21
994.792173
 31
0.0
  0
LINE
  5
6C9
100
AcDbEntity
  8
_AA_PROYECCION2
100
AcDbLine
 10
1479.540563
 20
1317.909263
 30
0.0
 11
1489.720668
 21
1507.721572
 31
0.0
210
-0.0000000000000175
220
1.0
230
0.0
  0
LWPOLYLINE
  5
6CA
100
AcDbEntity
  8
_AA_PERFIL_AL
100
AcDbPolyline
 90
        4
 70
     0
 43
0.0
 38
0.0
 10
1489.52095
 20
1507.732283
 10
1471.546784
 20
1508.696305
 10
1472.082351
 20
1518.681954
 10
1490.056518
 20
1517.717931
  0
LWPOLYLINE
  5
6CB
100
AcDbEntity
  8
_AA_PERFIL_AL
100
AcDbPolyline
 90
        9
 70
   128
 43
0.0
 38
0.0
 10
1468.481275
 20
1513.867912
 10
1468.376843
 20
1511.920787
 10
1465.763142
 20
1512.06097
 10
1465.607642
 20
1509.16168
 10
1465.008503
 20
1509.193814
 10
1465.18007
 20
1512.392673
 10
1467.793771
 20
1512.252491
 10
1467.882135
 20
1513.900046
 10
1468.481275
 20
1513.867912
  0
LINE
  5
6CC
100
AcDbEntity
  8
_AA_VIDRIO
100
AcDbLine
 10
1476.378403
 20
927.929034
 30
0.0
 11
1481.177471
 21
927.834425
 31
0.0
  0
LINE
  5
6CD
100
AcDbEntity
  8
_AA_VIDRIO
100
AcDbLine
 10
1477.619666
 20
990.89163
 30
0.0
 11
1476.378403
 21
927.929034
 31
0.0
  0
LINE
  5
6CE
100
AcDbEntity
  8
_AA_VIDRIO
100
AcDbLine
 10
1491.844947
 20
1215.273718
 30
0.0
 11
1487.487206
 21
994.697748
 31
0.0
  0
INSERT
  5
6CF
100
AcDbEntity
  8
_AA_VIDRIO
100
AcDbBlockReference
  2
MALU90
 10
1487.118967
 20
1219.067806
 30
0.0
 50
88.868201
1001
ACAD
1000
RTLwPs
1070
   128
  0
LINE
  5
6D0
100
AcDbEntity
  8
_AA_VIDRIO
100
AcDbLine
 10
1491.844947
 20
1215.273718
 30
0.0
 11
1487.045883
 21
1215.36853
 31
0.0
  0
LINE
  5
6D1
100
AcDbEntity
  8
_AA_VIDRIO
100
AcDbLine
 10
1491.990959
 20
1222.672275
 30
0.0
 11
1487.19205
 21
1222.767083
 31
0.0
  0
LINE
  5
6D2
100
AcDbEntity
  8
_AA_VIDRIO
100
AcDbLine
 10
1487.191895
 20
1222.767086
 30
0.0
 11
1492.852753
 21
1509.912046
 31
0.0
  0
LINE
  5
6D3
100
AcDbEntity
  8
_AA_VIDRIO
100
AcDbLine
 10
1482.654782
 20
707.882941
 30
0.0
 11
1487.439183
 21
707.496278
 31
0.0
  0
LINE
  5
6D4
100
AcDbEntity
  8
_AA_VIDRIO
100
AcDbLine
 10
1505.519151
 20
990.79702
 30
0.0
 11
1491.80313
 21
821.080742
 31
0.0
  0
LINE
  5
6D5
100
AcDbEntity
  8
_AA_VIDRIO
100
AcDbLine
 10
1487.439183
 20
707.496278
 30
0.0
 11
1496.262169
 21
816.668197
 31
0.0
  0
LINE
  5
6D6
100
AcDbEntity
  8
_AA_VIDRIO
100
AcDbLine
 10
1487.113822
 20
703.470396
 30
0.0
 11
1483.129282
 21
654.16737
 31
0.0
  0
LINE
  5
6D7
100
AcDbEntity
  8
_AA_VIDRIO
100
AcDbLine
 10
1478.344881
 20
654.554032
 30
0.0
 11
1482.329421
 21
703.857058
 31
0.0
  0
LINE
  5
6D8
100
AcDbEntity
  8
_AA_VIDRIO
100
AcDbLine
 10
1482.329421
 20
703.857058
 30
0.0
 11
1487.113822
 21
703.470396
 31
0.0
  0
INSERT
  5
6D9
100
AcDbEntity
  8
_AA_PERFIL_AL
100
AcDbBlockReference
  2
MALU90SEMITRP_OP
 10
1482.492102
 20
705.87
 30
0.0
 50
85.379548
1001
ACAD
1000
RTLwPs
1070
   128
  0
INSERT
  5
6DA
100
AcDbEntity
  8
_AA_PERFIL_AL
100
AcDbBlockReference
  2
MALU90OPACO
 10
1491.64045
 20
819.067806
 30
0.0
 50
85.379548
  0
LINE
  5
6DB
100
AcDbEntity
  8
_AA_VIDRIO
100
AcDbLine
 10
1491.477769
 20
817.05486
 30
0.0
 11
1496.262169
 21
816.668197
 31
0.0
  0
LINE
  5
6DC
100
AcDbEntity
  8
_AA_VIDRIO
100
AcDbLine
 10
1491.80313
 20
821.080742
 30
0.0
 11
1496.587531
 21
820.69408
 31
0.0
  0
LINE
  5
6DD
100
AcDbEntity
  8
_AA_VIDRIO
100
AcDbLine
 10
1496.587531
 20
820.69408
 30
0.0
 11
1510.303552
 21
990.410357
 31
0.0
  0
LINE
  5
6DE
100
AcDbEntity
  8
_AA_VIDRIO
100
AcDbLine
 10
1491.477769
 20
817.05486
 30
0.0
 11
1482.654782
 21
707.882941
 31
0.0
  0
INSERT
  5
6DF
100
AcDbEntity
  8
_AA_PERFIL_AL
100
AcDbBlockReference
  2
MALU90SEMITRP
 10
1478.182201
 20
652.541096
 30
0.0
 50
85.379548
  0
LINE
  5
6E0
100
AcDbEntity
  8
_AA_VIDRIO
100
AcDbLine
 10
1478.344881
 20
654.554032
 30
0.0
 11
1483.129282
 21
654.16737
 31
0.0
  0
LINE
  5
6E1
100
AcDbEntity
  8
_AA_ESTRUCTURA_HR
100
AcDbLine
 10
1556.843698
 20
646.094544
 30
0.0
 11
1556.843698
 21
444.067806
 31
0.0
210
0.0000000000015751
220
0.0
230
-1.0
  0
LINE
  5
6E2
100
AcDbEntity
  8
_AA_ESTRUCTURA_HR
100
AcDbLine
 10
1526.843698
 20
646.094544
 30
0.0
 11
1556.843698
 21
646.094544
 31
0.0
  0
LINE
  5
6E3
100
AcDbEntity
  8
_AA_PIEDRA
100
AcDbLine
 10
1690.250815
 20
459.067806
 30
0.0
 11
1552.185605
 21
459.067806
 31
0.0
210
0.0000000000015751
220
0.0
230
-1.0
  0
LINE
  5
6E4
100
AcDbEntity
  8
_AA_ESTRUCTURA_HR
100
AcDbLine
 10
1690.250815
 20
444.067806
 30
0.0
 11
1556.843698
 21
444.067806
 31
0.0
210
0.0000000000015751
220
0.0
230
-1.0
  0
INSERT
  5
6E5
100
AcDbEntity
  8
_AA_PERFIL_AL
100
AcDbBlockReference
  2
MALU90OPACO
 10
1475.730954
 20
1691.28357
 30
0.0
 50
86.930343
  0
LINE
  5
6E6
100
AcDbEntity
  8
_AA_VIDRIO
100
AcDbLine
 10
1475.622809
 20
1689.266958
 30
0.0
 11
1480.415922
 21
1689.009918
 31
0.0
  0
LINE
  5
6E7
100
AcDbEntity
  8
_AA_PERFIL_AL
100
AcDbLine
 10
1475.839098
 20
1693.300171
 30
0.0
 11
1480.632211
 21
1693.043131
 31
0.0
  0
LINE
  5
6E8
100
AcDbEntity
  8
_AA_VIDRIO
100
AcDbLine
 10
1475.622809
 20
1689.266958
 30
0.0
 11
1471.966387
 21
1621.084408
 31
0.0
  0
LWPOLYLINE
  5
6E9
100
AcDbEntity
  8
_AA_PERFIL_AC
100
AcDbPolyline
 90
        5
 70
   128
 43
0.0
 10
1499.764975
 20
1695.001877
 10
1519.793719
 20
1695.001877
 10
1518.72107
 20
1675.001877
 10
1498.692326
 20
1675.001877
 10
1499.764975
 20
1695.001877
1001
ACAD
1000
RTLwPs
1070
   128
  0
LINE
  5
6EA
100
AcDbEntity
  8
_AA_PERFIL_AL
100
AcDbLine
 10
1547.795565
 20
1686.607814
 30
0.0
 11
1542.995565
 21
1686.607814
 31
0.0
1001
ACAD
1000
RTLwPs
1070
   128
  0
LINE
  5
6EB
100
AcDbEntity
  8
_AA_PIEDRA
100
AcDbLine
 10
1679.505103
 20
1811.079692
 30
0.0
 11
1902.745614
 21
1823.690659
 31
0.0
210
-0.0000000000005508
220
0.0
230
-1.0
1001
ACAD
1000
RTLwPs
1070
   128
  0
LINE
  5
6EC
100
AcDbEntity
  8
_AA_PIEDRA
100
AcDbLine
 10
1902.745614
 20
1823.690659
 30
0.0
 11
1902.745614
 21
1853.76402
 31
0.0
210
0.0000000000019722
220
0.0
230
-1.0
1001
ACAD
1000
RTLwPs
1070
   128
  0
LINE
  5
6ED
100
AcDbEntity
  8
_AA_PIEDRA
100
AcDbLine
 10
1902.745614
 20
1853.76402
 30
0.0
 11
2225.73511
 21
1877.073939
 31
0.0
210
0.0000000000019722
220
0.0
230
-1.0
1001
ACAD
1000
RTLwPs
1070
   128
  0
LWPOLYLINE
  5
6EE
100
AcDbEntity
  8
_AA_PERFIL_AC
100
AcDbPolyline
 90
        4
 70
   129
 43
0.0
 10
1665.575246
 20
1648.656606
 10
1665.575246
 20
1510.96646
 10
1635.593815
 20
1510.96646
 10
1635.593815
 20
1646.96646
1001
ACAD
1000
RTLwPs
1070
   128
  0
LINE
  5
6EF
100
AcDbEntity
  8
_AA_ESTRUCTURA_HR
100
AcDbLine
 10
1523.841546
 20
1640.666639
 30
0.0
 11
1523.841546
 21
1695.001877
 31
0.0
  0
POLYLINE
  5
6F0
100
AcDbEntity
  8
_AA_PERFIL_AC
100
AcDb2dPolyline
 66
     1
 10
0.0
 20
0.0
 30
0.0
210
-0.0000000000022015
220
0.0
230
1.0
1001
ACAD
1000
RTLwPs
1070
   128
  0
VERTEX
  5
6F1
100
AcDbEntity
  8
_AA_PERFIL_AC
100
AcDbVertex
100
AcDb2dVertex
 10
1753.896061
 20
1653.635524
 30
0.0
1001
ACAD
1000
RTLwPs
1070
   128
  0
VERTEX
  5
6F2
100
AcDbEntity
  8
_AA_PERFIL_AC
100
AcDbVertex
100
AcDb2dVertex
 10
1523.841546
 20
1640.666639
 30
0.0
1001
ACAD
1000
RTLwPs
1070
   128
  0
SEQEND
  5
6F3
100
AcDbEntity
  8
_AA_PERFIL_AC
1001
ACAD
1000
RTLwPs
1070
   128
  0
POLYLINE
  5
6F4
100
AcDbEntity
  8
_AA_ESTRUCTURA_HR
100
AcDb2dPolyline
 66
     1
 10
0.0
 20
0.0
 30
0.0
210
-0.0000000000029487
220
0.0
230
1.0
  0
VERTEX
  5
6F5
100
AcDbEntity
  8
_AA_ESTRUCTURA_HR
100
AcDbVertex
100
AcDb2dVertex
 10
1753.896061
 20
1667.674392
 30
0.0
  0
VERTEX
  5
6F6
100
AcDbEntity
  8
_AA_ESTRUCTURA_HR
100
AcDbVertex
100
AcDb2dVertex
 10
1538.841546
 20
1655.556627
 30
0.0
  0
VERTEX
  5
6F7
100
AcDbEntity
  8
_AA_ESTRUCTURA_HR
100
AcDbVertex
100
AcDb2dVertex
 10
1538.841546
 20
1695.001877
 30
0.0
  0
VERTEX
  5
6F8
100
AcDbEntity
  8
_AA_ESTRUCTURA_HR
100
AcDbVertex
100
AcDb2dVertex
 10
1523.841546
 20
1695.001877
 30
0.0
  0
SEQEND
  5
6F9
100
AcDbEntity
  8
_AA_ESTRUCTURA_HR
  0
LINE
  5
6FA
100
AcDbEntity
  8
_AA_PERFIL_AL
100
AcDbLine
 10
1480.632211
 20
1693.043131
 30
0.0
 11
1481.480219
 21
1708.856229
 31
0.0
210
0.0000000000047162
220
0.0
230
-1.0
  0
LINE
  5
6FB
100
AcDbEntity
  8
_AA_PERFIL_AL
100
AcDbLine
 10
1481.480219
 20
1708.856229
 30
0.0
 11
1542.995565
 21
1712.455497
 31
0.0
210
0.0000000000047162
220
0.0
230
-1.0
  0
LINE
  5
6FC
100
AcDbEntity
  8
_AA_PERFIL_AL
100
AcDbLine
 10
1542.995565
 20
1712.455497
 30
0.0
 11
1542.995565
 21
1686.607814
 31
0.0
210
0.0000000000047162
220
0.0
230
-1.0
  0
LINE
  5
6FD
100
AcDbEntity
  8
_AA_PERFIL_AL
100
AcDbLine
 10
1476.917305
 20
1713.397462
 30
0.0
 11
1547.795565
 21
1717.544554
 31
0.0
210
0.0000000000047162
220
0.0
230
-1.0
  0
LINE
  5
6FE
100
AcDbEntity
  8
_AA_PERFIL_AL
100
AcDbLine
 10
1547.795565
 20
1717.544554
 30
0.0
 11
1547.795565
 21
1686.607814
 31
0.0
210
0.0000000000047162
220
0.0
230
-1.0
  0
LINE
  5
6FF
100
AcDbEntity
  8
_AA_PERFIL_AL
100
AcDbLine
 10
1547.795565
 20
1712.536003
 30
0.0
 11
1679.505103
 21
1720.242337
 31
0.0
210
0.0000000000047162
220
0.0
230
-1.0
  0
LINE
  5
700
100
AcDbEntity
  8
_AA_PIEDRA
100
AcDbLine
 10
1679.505103
 20
1720.242337
 30
0.0
 11
1679.505103
 21
1811.079692
 31
0.0
210
0.0000000000047162
220
0.0
230
-1.0
1001
ACAD
1000
RTLwPs
1070
   128
  0
POLYLINE
  5
701
100
AcDbEntity
  8
_AA_PERFIL_AL
100
AcDb2dPolyline
 66
     1
 10
0.0
 20
0.0
 30
0.0
210
0.0000000000047162
220
0.0
230
-1.0
  0
VERTEX
  5
702
100
AcDbEntity
  8
_AA_PERFIL_AL
100
AcDbVertex
100
AcDb2dVertex
 10
-1547.795565
 20
1717.544554
 30
0.0
  0
VERTEX
  5
703
100
AcDbEntity
  8
_AA_PERFIL_AL
100
AcDbVertex
100
AcDb2dVertex
 10
-1674.505103
 20
1724.958338
 30
0.0
  0
SEQEND
  5
704
100
AcDbEntity
  8
_AA_PERFIL_AL
  0
POLYLINE
  5
705
100
AcDbEntity
  8
_AA_PIEDRA
100
AcDb2dPolyline
 66
     1
 10
0.0
 20
0.0
 30
0.0
210
0.0000000000047162
220
0.0
230
-1.0
1001
ACAD
1000
RTLwPs
1070
   128
  0
VERTEX
  5
706
100
AcDbEntity
  8
_AA_PIEDRA
100
AcDbVertex
100
AcDb2dVertex
 10
-1674.505103
 20
1724.958338
 30
0.0
1001
ACAD
1000
RTLwPs
1070
   128
  0
VERTEX
  5
707
100
AcDbEntity
  8
_AA_PIEDRA
100
AcDbVertex
100
AcDb2dVertex
 10
-1674.505103
 20
1815.805211
 30
0.0
1001
ACAD
1000
RTLwPs
1070
   128
  0
SEQEND
  5
708
100
AcDbEntity
  8
_AA_PIEDRA
1001
ACAD
1000
RTLwPs
1070
   128
  0
LWPOLYLINE
  5
709
100
AcDbEntity
  8
_AA_PERFIL_AL
100
AcDbPolyline
 90
        5
 70
     0
 43
0.0
 38
0.0
 10
1474.2288
 20
1508.552459
 10
1474.2288
 20
1508.552458
 10
1492.202967
 20
1507.588437
 10
1492.738534
 20
1517.574085
 10
1485.819864
 20
1517.945159
  0
LINE
  5
70A
100
AcDbEntity
  8
_AA_VIDRIO
100
AcDbLine
 10
1497.651821
 20
1509.817436
 30
0.0
 11
1492.852753
 21
1509.912046
 31
0.0
  0
LWPOLYLINE
  5
70B
100
AcDbEntity
  8
_AA_PERFIL_AL
100
AcDbPolyline
 90
        4
 70
     1
 43
0.0
 38
0.0
 10
1479.007627
 20
997.885136
 10
1478.876188
 20
991.212747
 10
1482.175548
 20
991.147746
 10
1482.307139
 20
997.820089
  0
LWPOLYLINE
  5
70C
100
AcDbEntity
  8
_AA_PERFIL_AL
100
AcDbPolyline
 90
        6
 70
     1
 43
0.0
 38
0.0
 10
1479.88796
 20
991.192814
 10
1476.671127
 20
991.256219
 10
1476.607986
 20
988.053384
 10
1477.207869
 20
988.041558
 10
1477.265098
 20
990.944451
 10
1479.882047
 20
990.892859
1001
ACAD
1000
RTLwPs
1070
   128
  0
LWPOLYLINE
  5
70D
100
AcDbEntity
  8
_AA_PERFIL_AL
100
AcDbPolyline
 90
        4
 70
     1
 43
0.0
 38
0.0
 10
1488.355964
 20
997.70084
 10
1488.15886
 20
987.702783
 10
1504.203944
 20
987.386466
 10
1504.401048
 20
997.384524
  0
LWPOLYLINE
  5
70E
100
AcDbEntity
  8
_AA_PERFIL_AL
100
AcDbPolyline
 90
        6
 70
     1
 43
0.0
 38
0.0
 10
1483.732388
 20
992.729652
 10
1483.635873
 20
987.83396
 10
1487.34963
 20
987.760745
 10
1487.446145
 20
992.656438
 10
1487.446145
 20
992.656438
 10
1487.446145
 20
992.656438
1001
ACAD
1000
RTLwPs
1070
   128
  0
LINE
  5
70F
100
AcDbEntity
  8
_AA_VIDRIO
100
AcDbLine
 10
1505.519151
 20
990.79702
 30
0.0
 11
1510.303552
 21
990.410357
 31
0.0
  0
LWPOLYLINE
  5
710
100
AcDbEntity
  8
_AA_PERFIL_AL
100
AcDbPolyline
 90
       12
 70
   129
 43
0.0
 38
0.0
 10
1475.287584
 20
921.076325
 10
1475.350725
 20
924.279159
 10
1477.967674
 20
924.227568
 10
1478.032715
 20
927.526773
 10
1475.415766
 20
927.578364
 10
1475.478907
 20
930.781198
 10
1476.078791
 20
930.769372
 10
1476.021563
 20
927.86648
 10
1478.638512
 20
927.814889
 10
1478.561645
 20
923.915801
 10
1475.944696
 20
923.967391
 10
1475.887468
 20
921.064499
  0
LWPOLYLINE
  5
711
100
AcDbEntity
  8
_AA_PERFIL_AL
100
AcDbPolyline
 90
        4
 70
     1
 43
0.0
 38
0.0
 10
1481.838962
 20
920.800516
 10
1482.036065
 20
930.798573
 10
1499.348655
 20
930.457269
 10
1499.151552
 20
920.459212
  0
LINE
  5
712
100
AcDbEntity
  8
_AA_PERFIL_AC
100
AcDbLine
 10
1556.843698
 20
646.094544
 30
0.0
 11
1549.455219
 21
829.067806
 31
0.0
210
-0.0000000000000175
220
1.0
230
0.0
1001
ACAD
1000
RTLwPs
1070
   128
  0
LINE
  5
713
100
AcDbEntity
  8
_AA_PERFIL_AC
100
AcDbLine
 10
1506.61753
 20
708.936547
 30
0.0
 11
1526.552534
 21
707.325453
 31
0.0
1001
ACAD
1000
RTLwPs
1070
   128
  0
LINE
  5
714
100
AcDbEntity
  8
_AA_VIDRIO
100
AcDbLine
 10
1515.587996
 20
701.169188
 30
0.0
 11
1510.791904
 21
700.975522
 31
0.0
1001
ACAD
1000
RTLwPs
1070
   128
  0
INSERT
  5
715
100
AcDbEntity
  8
_AA_VIDRIO
100
AcDbBlockReference
  2
MALU90
 10
1512.400394
 20
651.094544
 30
0.0
 50
90.000002
1001
ACAD
1000
RTLwPs
1070
   128
  0
LINE
  5
716
100
AcDbEntity
  8
_AA_VIDRIO
100
AcDbLine
 10
1512.672156
 20
654.411707
 30
0.0
 11
1517.468247
 21
654.605374
 31
0.0
1001
ACAD
1000
RTLwPs
1070
   128
  0
INSERT
  5
717
100
AcDbEntity
  8
_AA_PERFIL_AL
100
AcDbBlockReference
  2
MALU90OPACO
 10
1505.673142
 20
992.702446
 30
0.0
 50
85.379548
  0
LWPOLYLINE
  5
718
100
AcDbEntity
  8
_AA_PERFIL_AL
100
AcDbPolyline
 90
        4
 70
     1
 43
0.0
 38
0.0
 10
1498.501287
 20
1507.250642
 10
1499.036841
 20
1517.236292
 10
1517.011009
 20
1516.272292
 10
1516.475454
 20
1506.286643
  0
INSERT
  5
719
100
AcDbEntity
  8
_AA_VIDRIO
100
AcDbBlockReference
  2
MALU90
 10
1511.098939
 20
703.558069
 30
0.0
 50
85.379551
1001
ACAD
1000
RTLwPs
1070
   128
  0
LINE
  5
71A
100
AcDbEntity
  8
_AA_PERFIL_AC
100
AcDbLine
 10
1490.256223
 20
1517.707221
 30
0.0
 11
1516.782977
 21
1516.284525
 31
0.0
1001
ACAD
1000
RTLwPs
1070
   128
  0
LINE
  5
720
100
AcDbEntity
  8
ESI
100
AcDbLine
 10
1625.569793
 20
444.067806
 30
0.0
 11
1625.569793
 21
1579.768893
 31
0.0
  0
LINE
  5
721
100
AcDbEntity
  8
MVB
100
AcDbLine
 10
1625.569793
 20
1579.768893
 30
0.0
 11
1650.575246
 21
1579.768893
 31
0.0
1001
ACAD
1000
RTLwPs
1070
   128
  0
INSERT
  5
722
100
AcDbEntity
  8
EP
100
AcDbBlockReference
  2
VB2
 10
1650.575246
 20
1579.768893
 30
0.0
  0
LINE
  5
723
100
AcDbEntity
  8
ESM
100
AcDbLine
 10
1520.935734
 20
1219.067806
 30
0.0
 11
1625.569793
 21
1219.067806
 31
0.0
1001
ACAD
1000
RTLwPs
1070
   128
  0
LINE
  5
724
100
AcDbEntity
  8
MEP
100
AcDbLine
 10
1625.569793
 20
1219.067806
 30
0.0
 11
1650.575246
 21
1219.067806
 31
0.0
  0
LINE
  5
725
100
AcDbEntity
  8
ESM
100
AcDbLine
 10
1625.569793
 20
819.067806
 30
0.0
 11
1525.550651
 21
819.067806
 31
0.0
  0
LINE
  5
728
100
AcDbEntity
  8
PEP
100
AcDbLine
 10
1650.575246
 20
619.067806
 30
0.0
 11
1625.569793
 21
619.067806
 31
0.0
  0
LINE
  5
72A
100
AcDbEntity
  8
ESE
100
AcDbLine
 10
1499.706107
 20
1507.186028
 30
0.0
 11
1509.242812
 21
1685.001888
 31
0.0
210
-0.0000000000000175
220
1.0
230
0.0
1001
ACAD
1000
RTLwPs
1070
   128
  0
LINE
  5
72C
100
AcDbEntity
  8
ESE
100
AcDbLine
 10
1516.560694
 20
997.144806
 30
0.0
 11
1528.821426
 21
1619.067808
 31
0.0
210
-0.0000000000000175
220
1.0
230
0.0
1001
ACAD
1000
RTLwPs
1070
   128
  0
LINE
  5
72D
100
AcDbEntity
  8
ESE
100
AcDbLine
 10
1505.706604
 20
1619.067808
 30
0.0
 11
1528.821426
 21
1619.067808
 31
0.0
1001
ACAD
1000
RTLwPs
1070
   128
  0
LINE
  5
72F
100
AcDbEntity
  8
ESE
100
AcDbLine
 10
1516.585032
 20
708.131
 30
0.0
 11
1557.877595
 21
1219.067806
 31
0.0
210
-0.0000000000000175
220
1.0
230
0.0
1001
ACAD
1000
RTLwPs
1070
   128
  0
LINE
  5
731
100
AcDbEntity
  8
ESE
100
AcDbLine
 10
1546.835549
 20
646.094544
 30
0.0
 11
1539.850871
 21
819.067806
 31
0.0
210
-0.0000000000000175
220
1.0
230
0.0
1001
ACAD
1000
RTLwPs
1070
   128
  0
INSERT
  5
732
100
AcDbEntity
  8
EP
100
AcDbBlockReference
  2
VIGATPRIM
 10
1650.575246
 20
1219.067806
 30
0.0
  0
INSERT
  5
733
100
AcDbEntity
  8
EP
100
AcDbBlockReference
  2
VIGATSECUN
 10
1625.569793
 20
819.067806
 30
0.0
  0
INSERT
  5
734
100
AcDbEntity
  8
EP
100
AcDbBlockReference
  2
APOYOPRINCIPAL
 10
1650.575246
 20
444.067806
 30
0.0
  0
INSERT
  5
735
100
AcDbEntity
  8
EP
100
AcDbBlockReference
  2
APOYOINFERIOR
 10
1625.569793
 20
444.067806
 30
0.0
  0
INSERT
  5
736
100
AcDbEntity
  8
EP
100
AcDbBlockReference
  2
APOYOINFERIOR
 10
1546.835549
 20
646.094544
 30
0.0
  0
INSERT
  5
737
100
AcDbEntity
  8
EP
100
AcDbBlockReference
  2
VIGATSECUN
 10
1525.550651
 20
819.067806
 30
0.0
  0
INSERT
  5
738
100
AcDbEntity
  8
EP
100
AcDbBlockReference
  2
VIGATSECUN
 10
1520.935734
 20
1219.067806
 30
0.0
  0
INSERT
  5
739
100
AcDbEntity
  8
EP
100
AcDbBlockReference
  2
VIGATSECUN
 10
1557.877595
 20
1219.067806
 30
0.0
  0
INSERT
  5
73B
100
AcDbEntity
  8
EP
100
AcDbBlockReference
  2
VIGATSECUN
 10
1509.242812
 20
1685.001888
 30
0.0
  0
INSERT
  5
73D
100
AcDbEntity
  8
EP
100
AcDbBlockReference
  2
VIGATSECUN
 10
1528.821426
 20
1619.067808
 30
0.0
  0
LINE
  5
73E
100
AcDbEntity
  8
MVB
100
AcDbLine
 10
1527.539888
 20
1554.062074
 30
0.0
 11
1552.509515
 21
1554.062074
 31
0.0
1001
ACAD
1000
RTLwPs
1070
   128
  0
LINE
  5
73F
100
AcDbEntity
  8
VR
100
AcDbLine
 10
1552.509515
 20
1554.062074
 30
0.0
 11
1650.575246
 21
1579.768893
 31
0.0
  0
INSERT
  5
740
100
AcDbEntity
  8
EP
100
AcDbBlockReference
  2
VB
 10
1552.509515
 20
1554.062074
 30
0.0
  0
LINE
  5
746
100
AcDbEntity
  8
PEP
100
AcDbLine
 10
1650.575246
 20
819.067806
 30
0.0
 11
1625.569793
 21
819.067806
 31
0.0
  0
LINE
  5
747
100
AcDbEntity
  8
PEP
100
AcDbLine
 10
1650.575246
 20
1019.067806
 30
0.0
 11
1625.569793
 21
1019.067806
 31
0.0
  0
INSERT
  5
754
100
AcDbEntity
  8
EP
100
AcDbBlockReference
  2
VIGATSECUN
 10
1625.569793
 20
1219.067806
 30
0.0
  0
ENDSEC
  0
SECTION
  2
OBJECTS
  0
DICTIONARY
  5
1E6
102
{ACAD_XDICTIONARY
360
1E7
102
}
100
AcDbDictionary
  3
ACAD_GROUP
350
1E2
  3
ACAD_MLINESTYLE
350
1E3
  0
DICTIONARY
  5
1D6
100
AcDbDictionary
280
     1
  3
ACAD_XREC_ROUNDTRIP
360
1D7
  0
DICTIONARY
  5
1D9
100
AcDbDictionary
280
     1
  3
ACAD_XREC_ROUNDTRIP
360
1DA
  0
DICTIONARY
  5
9
100
AcDbDictionary
280
     1
  3
ACAD_XREC_ROUNDTRIP
360
A
  0
DICTIONARY
  5
13
100
AcDbDictionary
280
     1
  3
ACAD_LAYERFILTERS
360
14
  3
ACAD_LAYERSTATES
360
1CF
  0
DICTIONARY
  5
1D2
100
AcDbDictionary
280
     1
  3
ACAD_XREC_ROUNDTRIP
360
1D3
  0
DICTIONARY
  5
1ED
100
AcDbDictionary
280
     1
  3
ACAD_XREC_ROUNDTRIP
360
1EE
  0
DICTIONARY
  5
3
100
AcDbDictionary
280
     1
  3
ACAD_LAYOUTSELFREF
360
4
  3
ACAD_SORTENTS
360
5
  0
DICTIONARY
  5
E
100
AcDbDictionary
280
     1
  3
ACAD_LAYOUTSELFREF
360
F
  0
DICTIONARY
  5
275
100
AcDbDictionary
280
     1
  3
ACAD_XREC_ROUNDTRIP
360
276
  0
DICTIONARY
  5
29C
100
AcDbDictionary
280
     1
  3
ACAD_XREC_ROUNDTRIP
360
29D
  0
DICTIONARY
  5
28D
100
AcDbDictionary
280
     1
  3
ACAD_XREC_ROUNDTRIP
360
28E
  0
DICTIONARY
  5
1E7
100
AcDbDictionary
280
     1
  3
ACAD_XREC_ROUNDTRIP
360
1E8
  0
DICTIONARY
  5
1E2
102
{ACAD_REACTORS
330
1E6
102
}
100
AcDbDictionary
  0
DICTIONARY
  5
1E3
102
{ACAD_XDICTIONARY
360
1E4
102
}
102
{ACAD_REACTORS
330
1E6
102
}
100
AcDbDictionary
  3
STANDARD
350
1EB
  0
XRECORD
  5
1D7
102
{ACAD_REACTORS
330
1D6
102
}
100
AcDbXrecord
102
EXTNAMES
  1
BYBLOCK
  2
ByBlock
  0
XRECORD
  5
1DA
102
{ACAD_REACTORS
330
1D9
102
}
100
AcDbXrecord
102
EXTNAMES
  1
BYLAYER
  2
ByLayer
  0
XRECORD
  5
A
102
{ACAD_REACTORS
330
9
102
}
100
AcDbXrecord
102
EXTNAMES
  1
CONTINUOUS
  2
Continuous
  0
DICTIONARY
  5
14
102
{ACAD_XDICTIONARY
360
15
102
}
102
{ACAD_REACTORS
330
13
102
}
100
AcDbDictionary
280
     1
  3
-
360
17
  3
-0
360
18
  3
-1
360
19
  3
-2
360
1A
  3
-3
360
1B
  3
-DETALLES
360
1C
  3
__
360
1D
  3
_AA_
360
1E
  3
_P00
360
1F
  3
0-
360
20
  3
00
360
21
  3
00TRF
360
22
  3
01
360
23
  3
01-TEXT
360
24
  3
02
360
25
  3
02-TERRES
360
26
  3
03
360
27
  3
03-FONAMENTS
360
28
  3
04
360
29
  3
04-ESTRUCTURA
360
2A
  3
04CUBIERTAS
360
2B
  3
05
360
2C
  3
06
360
2D
  3
06-
360
2E
  3
07
360
2F
  3
07-
360
30
  3
08-
360
31
  3
09-
360
32
  3
1
360
33
  3
1-
360
34
  3
1_TOPOGRAFICO
360
35
  3
10-
360
36
  3
100
360
37
  3
11
360
38
  3
11-
360
39
  3
12
360
3A
  3
13-
360
3B
  3
14-
360
3C
  3
15
360
3D
  3
16-
360
3E
  3
17-
360
3F
  3
177
360
40
  3
2
360
41
  3
2_PLAN_ESPECIAL
360
42
  3
200
360
43
  3
26
360
44
  3
28
360
45
  3
3_CENTRO
360
46
  3
3D
360
47
  3
3D_LAYERS
360
48
  3
4_PARKING
360
49
  3
40
360
4A
  3
50
360
4B
  3
500
360
4C
  3
8
360
4D
  3
84
360
4E
  3
A
360
4F
  3
A-FLOR
360
50
  3
A_
360
51
  3
A1
360
52
  3
A2
360
53
  3
A3
360
54
  3
A4
360
55
  3
AA_
360
56
  3
AA_FT
360
57
  3
AAA
360
58
  3
ACOMETIDA-SERGAS
360
59
  3
ACT
360
5A
  3
ACTI
360
5B
  3
ACTIVADAS
360
5C
  3
ACTIVAS
360
5D
  3
AE
360
5E
  3
AGUA
360
5F
  3
AIRE
360
60
  3
ALÇAT
360
61
  3
ALERO
360
62
  3
ALL
360
63
  3
ALLE-SCHÜCO-LAYER
360
64
  3
ALLE-SICHTBAREN-LAYER
360
65
  3
ALZADOS
360
66
  3
AMARILLO
360
67
  3
AN
360
68
  3
ANT-H
360
69
  3
AQ
360
6A
  3
AQ-
360
6B
  3
ARBRES
360
6C
  3
AREA
360
6D
  3
AREAS
360
6E
  3
ARQUETAS
360
6F
  3
ARQUITECTURA
360
70
  3
B1
360
71
  3
B2
360
72
  3
B3
360
73
  3
B4
360
74
  3
BARRACONES
360
75
  3
BASE
360
76
  3
BIND
360
77
  3
BLOQ
360
78
  3
BLOQUEADA
360
79
  3
BLOQUEADAS
360
7A
  3
BORDE
360
7B
  3
BUS
360
7C
  3
C
360
7D
  3
C-
360
7E
  3
C1
360
7F
  3
C2
360
80
  3
C3
360
81
  3
C4
360
82
  3
C5
360
83
  3
C6
360
84
  3
CÁMARA
360
85
  3
CAPA_0
360
86
  3
CAPAS_ACTIVADAS
360
87
  3
CAPAS_DESACTIVADAS
360
88
  3
CAPAS_P1
360
89
  3
CAR
360
8A
  3
CARCYCLE
360
8B
  3
CARPINTERIA
360
8C
  3
CARRITALYBASE
360
8D
  3
CARRIZOS3FINAL
360
8E
  3
CARTO
360
8F
  3
CARTOGRAFIA
360
90
  3
CEILING
360
91
  3
CEL
360
92
  3
CEL-RAS
360
93
  3
CIAN
360
94
  3
CLAD
360
95
  3
CLG
360
96
  3
COLOR
360
97
  3
COLOR-8
360
98
  3
COLOR_8
360
99
  3
COLOR_9
360
9A
  3
COM
360
9B
  3
COMUNES
360
9C
  3
CONTOURS1
360
9D
  3
COTA
360
9E
  3
COTAINT
360
9F
  3
COTAS
360
A0
  3
COTAS-ACABADOS
360
A1
  3
COTAS_ACABADOS
360
A2
  3
COTES
360
A3
  3
COULEUR
360
A4
  3
CPI
360
A5
  3
CUBICAL
360
A6
  3
CUBIERTA
360
A7
  3
CURVA
360
A8
  3
CYAN
360
A9
  3
CYCL
360
AA
  3
CYCLE
360
AB
  3
D1
360
AC
  3
D2
360
AD
  3
D3
360
AE
  3
D4
360
AF
  3
D5
360
B0
  3
DEL_DIBUJO
360
B1
  3
DEMO
360
B2
  3
DES
360
B3
  3
DESACTIVAS
360
B4
  3
DETAIL
360
B5
  3
DETAILS
360
B6
  3
DETALLE
360
B7
  3
DETALLES
360
B8
  3
DIB
360
B9
  3
DIM
360
BA
  3
DIMS
360
BB
  3
DOOR
360
BC
  3
DOORS
360
BD
  3
DREN
360
BE
  3
DRENAGEM
360
BF
  3
E
360
C0
  3
E1
360
C1
  3
E3
360
C2
  3
EIXOS
360
C3
  3
EJE
360
C4
  3
ELECT
360
C5
  3
ELLIPSE
360
C6
  3
ENSE
360
C7
  3
ENTORN
360
C8
  3
ENTRADA
360
C9
  3
ENTRAMADO-FACHADAS
360
CA
  3
EQ
360
CB
  3
EQU
360
CC
  3
ESCALA_1-50
360
CD
  3
ESCALATOR
360
CE
  3
ESCALERA
360
CF
  3
ESPAI_VERD
360
D0
  3
ESQUEMAS
360
D1
  3
ESTRU00
360
D2
  3
ESTRUCTURA
360
D3
  3
ESTRUCTURAS
360
D4
  3
EXIS
360
D5
  3
EXTERIOR
360
D6
  3
F1
360
D7
  3
F2
360
D8
  3
FACHADA
360
D9
  3
FACHADAS
360
DA
  3
FALL
360
DB
  3
FALLOS
360
DC
  3
FANCOIL
360
DD
  3
FECALES
360
DE
  3
FF200M
360
DF
  3
FIN
360
E0
  3
FIRE
360
E1
  3
FIX
360
E2
  3
FLOOR
360
E3
  3
FREEZE
360
E4
  3
FROZEN
360
E5
  3
FURN
360
E6
  3
FURNITURE
360
E7
  3
FUS
360
E8
  3
GAS
360
E9
  3
GEL
360
EA
  3
GILLTEMP
360
EB
  3
GREEN
360
EC
  3
GRID
360
ED
  3
GRIS8
360
EE
  3
GRIS9
360
EF
  3
GRISES
360
F0
  3
GRO
360
F1
  3
H-
360
F2
  3
HA
360
F3
  3
HA-GENE-AR
360
F4
  3
HAOU
360
F5
  3
HOJAS
360
F6
  3
I
360
F7
  3
IL
360
F8
  3
ILUM
360
F9
  3
IMG
360
FA
  3
INAC
360
FB
  3
INS
360
FC
  3
INST_TECHO
360
FD
  3
INSTALACION_TECHO
360
FE
  3
INSTALACIONES_TECHO
360
FF
  3
INU
360
100
  3
INUTIIL
360
101
  3
JALONAMIENTO
360
102
  3
K52
360
103
  3
KAYDIRAKLAR
360
104
  3
KEY
360
105
  3
KONSOLLAR
360
106
  3
LABEL
360
107
  3
LAS-UTILES
360
108
  3
LAURA
360
109
  3
LAZY
360
10A
  3
LGA
360
10B
  3
LIM
360
10C
  3
LIMPIO
360
10D
  3
LINEA_FINA
360
10E
  3
LINEA_GRUESA
360
10F
  3
LINEAS_REFERENCIA
360
110
  3
LINES
360
111
  3
LLUMS
360
112
  3
LOCKER
360
113
  3
LOT
360
114
  3
LUNAR
360
115
  3
LUNAR2
360
116
  3
LVL
360
117
  3
MAGENTA
360
118
  3
MARCOS
360
119
  3
MATAS
360
11A
  3
MATERIALS
360
11B
  3
MEDIA_TENSION
360
11C
  3
MEUS
360
11D
  3
MEXT
360
11E
  3
MEZZ
360
11F
  3
MILL
360
120
  3
MOBILIARIO
360
121
  3
MUEBLEPERIMETRAL
360
122
  3
MUEBLES
360
123
  3
MZ
360
124
  3
N
360
125
  3
N-CLAV
360
126
  3
NAME
360
127
  3
NEAL
360
128
  3
NELF
360
129
  3
NEW
360
12A
  3
NO_XREF
360
12B
  3
NORMAL
360
12C
  3
NOTE
360
12D
  3
NUEVA
360
12E
  3
NUEVA_IMPLANTACIÓN
360
12F
  3
NUEVAS
360
130
  3
NUEVOS-SERVICIOS
360
131
  3
NUM
360
132
  3
OCULT
360
133
  3
OFF
360
134
  3
OFICINES
360
135
  3
OI
360
136
  3
ON
360
137
  3
OU
360
138
  3
OU-AREA
360
139
  3
OUTY
360
13A
  3
P
360
13B
  3
P-1
360
13C
  3
P-2
360
13D
  3
P00
360
13E
  3
P01
360
13F
  3
P02
360
140
  3
P03
360
141
  3
P05
360
142
  3
P1
360
143
  3
P1401
360
144
  3
P14P-2
360
145
  3
P14P00
360
146
  3
P2
360
147
  3
P3
360
148
  3
P4
360
149
  3
P5
360
14A
  3
PA
360
14B
  3
PARCELA
360
14C
  3
PARKING
360
14D
  3
PARTITIONS
360
14E
  3
PASILLO
360
14F
  3
PATT
360
150
  3
PAU
360
151
  3
PB
360
152
  3
PEPE
360
153
  3
PIANOS
360
154
  3
PIEZA_DE_CRISTAL
360
155
  3
PILARES
360
156
  3
PILARESZ2
360
157
  3
PIPES
360
158
  3
PIPES1
360
159
  3
PIPING_PLAN2
360
15A
  3
PL
360
15B
  3
PLAKALAR
360
15C
  3
PLAN
360
15D
  3
PLAN-PARCIAL
360
15E
  3
PLANTA_BAJA
360
15F
  3
PLANTA_BAJA_ACT
360
160
  3
PLANTA_SUBSUELO
360
161
  3
PLANTA_TÉCNICA
360
162
  3
PLANTAS
360
163
  3
PLOT
360
164
  3
PLOTEO
360
165
  3
PLUVIALES
360
166
  3
POLILINEAS
360
167
  3
PONT
360
168
  3
POOL
360
169
  3
POPOPO
360
16A
  3
POZOS_AGUA
360
16B
  3
POZOS_FECALES
360
16C
  3
POZOS_PLUVIALES
360
16D
  3
PQ
360
16E
  3
PR
360
16F
  3
PROGEST
360
170
  3
PROJ-URBANITZACIO
360
171
  3
PROYECCCIONES
360
172
  3
PRUEBA
360
173
  3
PRUEBA3
360
174
  3
PUERTAS
360
175
  3
RAIL
360
176
  3
RCP
360
177
  3
RED
360
178
  3
REFERENCIA
360
179
  3
RELLENO
360
17A
  3
RELLENOS
360
17B
  3
REPLANTEO
360
17C
  3
RIEGO
360
17D
  3
RMTAGS
360
17E
  3
ROOM
360
17F
  3
ROTULACION
360
180
  3
S
360
181
  3
S1
360
182
  3
S2
360
183
  3
SAA
360
184
  3
SANEAMIENTO
360
185
  3
SAU
360
186
  3
SAU3
360
187
  3
SAU5
360
188
  3
SCALE200
360
189
  3
SE
360
18A
  3
SE100
360
18B
  3
SECC
360
18C
  3
SECCIO
360
18D
  3
SECCION
360
18E
  3
SEGUNDA
360
18F
  3
SEGUNDABIS
360
190
  3
SENY_HORIT
360
191
  3
SERVI
360
192
  3
SILLAS
360
193
  3
SITE
360
194
  3
SOLADOS
360
195
  3
SOLO_CAPA
360
196
  3
SPACE_PLANNING
360
197
  3
STR
360
198
  3
STRUCTURAL
360
199
  3
STRUCTURE
360
19A
  3
SU
360
19B
  3
SUELO
360
19C
  3
SUP01
360
19D
  3
SUP02
360
19E
  3
SUP03
360
19F
  3
SUP04
360
1A0
  3
SUPERFICIES
360
1A1
  3
T
360
1A2
  3
T_A
360
1A3
  3
T_C
360
1A4
  3
TAJEAS
360
1A5
  3
TALLERES
360
1A6
  3
TAQUIMETRICO
360
1A7
  3
TECHOS
360
1A8
  3
TELE
360
1A9
  3
TEMP
360
1AA
  3
TEXT
360
1AB
  3
TEXTO
360
1AC
  3
THAWED
360
1AD
  3
TMP
360
1AE
  3
TOPO
360
1AF
  3
TOPOGRAFIA
360
1B0
  3
TRABAJO
360
1B1
  3
TRAM
360
1B2
  3
TRAMA
360
1B3
  3
TRAMA-FAÇANA
360
1B4
  3
TRAMAS
360
1B5
  3
TRAMES
360
1B6
  3
TREAD
360
1B7
  3
TUB
360
1B8
  3
UISKAS
360
1B9
  3
UNI
360
1BA
  3
URB
360
1BB
  3
URBAN
360
1BC
  3
URBANIZACION
360
1BD
  3
USOS_MUEBLES
360
1BE
  3
UTILIZADAS
360
1BF
  3
VESTUARIOS_ENTRADA
360
1C0
  3
VISTAS
360
1C1
  3
VMULT
360
1C2
  3
VP
360
1C3
  3
WALL
360
1C4
  3
WDW
360
1C5
  3
WE
360
1C6
  3
WHITE
360
1C7
  3
WINDOW
360
1C8
  3
X
360
1C9
  3
XREF
360
1CA
  3
YARDIMLAR
360
1CB
  3
YO
360
1CC
  3
YUZEYLER
360
1CD
  3
YÜZEYLER
360
1CE
  0
DICTIONARY
  5
1CF
102
{ACAD_REACTORS
330
13
102
}
100
AcDbDictionary
  0
XRECORD
  5
1D3
102
{ACAD_REACTORS
330
1D2
102
}
100
AcDbXrecord
102
EXTNAMES
  1
STANDARD
  2
Standard
  0
XRECORD
  5
1EE
102
{ACAD_REACTORS
330
1ED
102
}
100
AcDbXrecord
102
ACADR14ROUNDTRIP
1000
DSTYLE
1002
{
1070
   342
340
1EF
1002
}
  0
XRECORD
  5
4
102
{ACAD_REACTORS
330
3
102
}
100
AcDbXrecord
340
2
  0
SORTENTSTABLE
  5
5
102
{ACAD_REACTORS
330
3
102
}
100
AcDbSortentsTable
330
2
  0
XRECORD
  5
F
102
{ACAD_REACTORS
330
E
102
}
100
AcDbXrecord
340
D
  0
XRECORD
  5
276
102
{ACAD_REACTORS
330
275
102
}
100
AcDbXrecord
102
EXTNAMES
  1
MALU90OPACO
  2
MALU90opaco
  0
XRECORD
  5
29D
102
{ACAD_REACTORS
330
29C
102
}
100
AcDbXrecord
102
EXTNAMES
  1
MALU90SEMITRP
  2
MALU90semitrp
  0
XRECORD
  5
28E
102
{ACAD_REACTORS
330
28D
102
}
100
AcDbXrecord
102
EXTNAMES
  1
MALU90SEMITRP_OP
  2
MALU90semitrp+op
  0
XRECORD
  5
1E8
102
{ACAD_REACTORS
330
1E7
102
}
100
AcDbXrecord
102
EXTNAMES
  1
ACDBVARIABLEDICTIONARY
  2
AcDbVariableDictionary
  0
DICTIONARY
  5
1E4
100
AcDbDictionary
280
     1
  3
ACAD_XREC_ROUNDTRIP
360
1E5
  0
MLINESTYLE
  5
1EB
102
{ACAD_REACTORS
330
1E3
102
}
100
AcDbMlineStyle
  2
STANDARD
 70
     0
  3

 62
     0
 51
90.0
 52
90.0
 71
     2
 49
0.5
 62
   256
  6
BYLAYER
 49
-0.5
 62
   256
  6
BYLAYER
  0
DICTIONARY
  5
15
100
AcDbDictionary
280
     1
  3
ACAD_XREC_ROUNDTRIP
360
16
  0
XRECORD
  5
17
102
{ACAD_REACTORS
330
14
102
}
100
AcDbXrecord
  1
-
  1
*
  1
*
  1
*
 70
     0
  1
*
  1
*
  0
XRECORD
  5
18
102
{ACAD_REACTORS
330
14
102
}
100
AcDbXrecord
  1
-0
  1
0*
  1
*
  1
*
 70
     0
  1
*
  1
*
  0
XRECORD
  5
19
102
{ACAD_REACTORS
330
14
102
}
100
AcDbXrecord
  1
-1
  1
*-1
  1
*
  1
*
 70
     0
  1
*
  1
*
  0
XRECORD
  5
1A
102
{ACAD_REACTORS
330
14
102
}
100
AcDbXrecord
  1
-2
  1
*-2
  1
*
  1
*
 70
     0
  1
*
  1
*
  0
XRECORD
  5
1B
102
{ACAD_REACTORS
330
14
102
}
100
AcDbXrecord
  1
-3
  1
*-3
  1
*
  1
*
 70
     0
  1
*
  1
*
  0
XRECORD
  5
1C
102
{ACAD_REACTORS
330
14
102
}
100
AcDbXrecord
  1
-detalles
  1
-det*
  1
*
  1
*
 70
     0
  1
*
  1
*
  0
XRECORD
  5
1D
102
{ACAD_REACTORS
330
14
102
}
100
AcDbXrecord
  1
++
  1
*++*
  1
*
  1
*
 70
     0
  1
*
  1
*
  0
XRECORD
  5
1E
102
{ACAD_REACTORS
330
14
102
}
100
AcDbXrecord
  1
_AA_
  1
_AA_*
  1
*
  1
*
 70
     0
  1
*
  1
*
  0
XRECORD
  5
1F
102
{ACAD_REACTORS
330
14
102
}
100
AcDbXrecord
  1
_p00
  1
*
  1
*
  1
*
 70
     0
  1
*
  1
*
  0
XRECORD
  5
20
102
{ACAD_REACTORS
330
14
102
}
100
AcDbXrecord
  1
0-
  1
0-*
  1
*
  1
*
 70
     0
  1
*
  1
*
  0
XRECORD
  5
21
102
{ACAD_REACTORS
330
14
102
}
100
AcDbXrecord
  1
00
  1
*p00
  1
*
  1
*
 70
     0
  1
*
  1
*
  0
XRECORD
  5
22
102
{ACAD_REACTORS
330
14
102
}
100
AcDbXrecord
  1
00trf
  1
00trf*
  1
*
  1
*
 70
     0
  1
*
  1
*
  0
XRECORD
  5
23
102
{ACAD_REACTORS
330
14
102
}
100
AcDbXrecord
  1
01
  1
*p01
  1
*
  1
*
 70
     0
  1
*
  1
*
  0
XRECORD
  5
24
102
{ACAD_REACTORS
330
14
102
}
100
AcDbXrecord
  1
01-TEXT
  1
01-*
  1
*
  1
*
 70
     0
  1
*
  1
*
  0
XRECORD
  5
25
102
{ACAD_REACTORS
330
14
102
}
100
AcDbXrecord
  1
02
  1
*p02
  1
*
  1
*
 70
     0
  1
*
  1
*
  0
XRECORD
  5
26
102
{ACAD_REACTORS
330
14
102
}
100
AcDbXrecord
  1
02-TERRES
  1
02-*
  1
*
  1
*
 70
     0
  1
*
  1
*
  0
XRECORD
  5
27
102
{ACAD_REACTORS
330
14
102
}
100
AcDbXrecord
  1
03
  1
*p03
  1
*
  1
*
 70
     0
  1
*
  1
*
  0
XRECORD
  5
28
102
{ACAD_REACTORS
330
14
102
}
100
AcDbXrecord
  1
03-FONAMENTS
  1
03-*
  1
*
  1
*
 70
     0
  1
*
  1
*
  0
XRECORD
  5
29
102
{ACAD_REACTORS
330
14
102
}
100
AcDbXrecord
  1
04
  1
*04
  1
*
  1
*
 70
     0
  1
*
  1
*
  0
XRECORD
  5
2A
102
{ACAD_REACTORS
330
14
102
}
100
AcDbXrecord
  1
04-ESTRUCTURA
  1
04-*
  1
*
  1
*
 70
     0
  1
*
  1
*
  0
XRECORD
  5
2B
102
{ACAD_REACTORS
330
14
102
}
100
AcDbXrecord
  1
04cubiertas
  1
*04
  1
*
  1
*
 70
     0
  1
*
  1
*
  0
XRECORD
  5
2C
102
{ACAD_REACTORS
330
14
102
}
100
AcDbXrecord
  1
05
  1
*05
  1
*
  1
*
 70
     0
  1
*
  1
*
  0
XRECORD
  5
2D
102
{ACAD_REACTORS
330
14
102
}
100
AcDbXrecord
  1
06
  1
*06
  1
*
  1
*
 70
     0
  1
*
  1
*
  0
XRECORD
  5
2E
102
{ACAD_REACTORS
330
14
102
}
100
AcDbXrecord
  1
06-
  1
06-*
  1
*
  1
*
 70
     0
  1
*
  1
*
  0
XRECORD
  5
2F
102
{ACAD_REACTORS
330
14
102
}
100
AcDbXrecord
  1
07
  1
*07
  1
*
  1
*
 70
     0
  1
*
  1
*
  0
XRECORD
  5
30
102
{ACAD_REACTORS
330
14
102
}
100
AcDbXrecord
  1
07-
  1
07-*
  1
*
  1
*
 70
     0
  1
*
  1
*
  0
XRECORD
  5
31
102
{ACAD_REACTORS
330
14
102
}
100
AcDbXrecord
  1
08-
  1
08-*
  1
*
  1
*
 70
     0
  1
*
  1
*
  0
XRECORD
  5
32
102
{ACAD_REACTORS
330
14
102
}
100
AcDbXrecord
  1
09-
  1
09-*
  1
*
  1
*
 70
     0
  1
*
  1
*
  0
XRECORD
  5
33
102
{ACAD_REACTORS
330
14
102
}
100
AcDbXrecord
  1
1
  1
p*
  1
*
  1
*
 70
     0
  1
*
  1
*
  0
XRECORD
  5
34
102
{ACAD_REACTORS
330
14
102
}
100
AcDbXrecord
  1
1-
  1
*
  1
*
  1
*
 70
     0
  1
*
  1
*
  0
XRECORD
  5
35
102
{ACAD_REACTORS
330
14
102
}
100
AcDbXrecord
  1
1_TOPOGRAFICO
  1
*
  1
ROJO
  1
*
 70
     0
  1
*
  1
*
  0
XRECORD
  5
36
102
{ACAD_REACTORS
330
14
102
}
100
AcDbXrecord
  1
10-
  1
10-*
  1
*
  1
*
 70
     0
  1
*
  1
*
  0
XRECORD
  5
37
102
{ACAD_REACTORS
330
14
102
}
100
AcDbXrecord
  1
100
  1
100*
  1
*
  1
*
 70
     0
  1
*
  1
*
  0
XRECORD
  5
38
102
{ACAD_REACTORS
330
14
102
}
100
AcDbXrecord
  1
11
  1
6_*
  1
*
  1
*
 70
     0
  1
*
  1
*
  0
XRECORD
  5
39
102
{ACAD_REACTORS
330
14
102
}
100
AcDbXrecord
  1
11-
  1
11-*
  1
*
  1
*
 70
     0
  1
*
  1
*
  0
XRECORD
  5
3A
102
{ACAD_REACTORS
330
14
102
}
100
AcDbXrecord
  1
12
  1
12-*
  1
*
  1
*
 70
     0
  1
*
  1
*
  0
XRECORD
  5
3B
102
{ACAD_REACTORS
330
14
102
}
100
AcDbXrecord
  1
13-
  1
13-*
  1
*
  1
*
 70
     0
  1
*
  1
*
  0
XRECORD
  5
3C
102
{ACAD_REACTORS
330
14
102
}
100
AcDbXrecord
  1
14-
  1
14-*
  1
*
  1
*
 70
     0
  1
*
  1
*
  0
XRECORD
  5
3D
102
{ACAD_REACTORS
330
14
102
}
100
AcDbXrecord
  1
15
  1
15-*
  1
*
  1
*
 70
     0
  1
*
  1
*
  0
XRECORD
  5
3E
102
{ACAD_REACTORS
330
14
102
}
100
AcDbXrecord
  1
16-
  1
16-*
  1
*
  1
*
 70
     0
  1
*
  1
*
  0
XRECORD
  5
3F
102
{ACAD_REACTORS
330
14
102
}
100
AcDbXrecord
  1
17-
  1
17-*
  1
*
  1
*
 70
     0
  1
*
  1
*
  0
XRECORD
  5
40
102
{ACAD_REACTORS
330
14
102
}
100
AcDbXrecord
  1
177
  1
*
  1
177
  1
*
 70
     0
  1
*
  1
*
  0
XRECORD
  5
41
102
{ACAD_REACTORS
330
14
102
}
100
AcDbXrecord
  1
2
  1
*
  1
2
  1
*
 70
     0
  1
*
  1
*
  0
XRECORD
  5
42
102
{ACAD_REACTORS
330
14
102
}
100
AcDbXrecord
  1
2_PLAN ESPECIAL
  1
*
  1
VERDE
  1
*
 70
     0
  1
*
  1
*
  0
XRECORD
  5
43
102
{ACAD_REACTORS
330
14
102
}
100
AcDbXrecord
  1
200
  1
*200*
  1
*
  1
*
 70
     0
  1
*
  1
*
  0
XRECORD
  5
44
102
{ACAD_REACTORS
330
14
102
}
100
AcDbXrecord
  1
26
  1
*26*
  1
*
  1
*
 70
     0
  1
*
  1
*
  0
XRECORD
  5
45
102
{ACAD_REACTORS
330
14
102
}
100
AcDbXrecord
  1
28
  1
*28*
  1
*
  1
*
 70
     0
  1
*
  1
*
  0
XRECORD
  5
46
102
{ACAD_REACTORS
330
14
102
}
100
AcDbXrecord
  1
3_CENTRO
  1
*
  1
AZUL
  1
*
 70
     0
  1
*
  1
*
  0
XRECORD
  5
47
102
{ACAD_REACTORS
330
14
102
}
100
AcDbXrecord
  1
3d
  1
3d*
  1
*
  1
*
 70
     0
  1
*
  1
*
  0
XRECORD
  5
48
102
{ACAD_REACTORS
330
14
102
}
100
AcDbXrecord
  1
3D LAYERS
  1
A3D*,0*,a-const*
  1
*
  1
*
 70
     0
  1
*
  1
*
  0
XRECORD
  5
49
102
{ACAD_REACTORS
330
14
102
}
100
AcDbXrecord
  1
4_PARKING
  1
*
  1
BLANCO
  1
*
 70
     0
  1
*
  1
*
  0
XRECORD
  5
4A
102
{ACAD_REACTORS
330
14
102
}
100
AcDbXrecord
  1
40
  1
*
  1
40
  1
*
 70
     0
  1
*
  1
*
  0
XRECORD
  5
4B
102
{ACAD_REACTORS
330
14
102
}
100
AcDbXrecord
  1
50
  1
*50*
  1
*
  1
*
 70
     0
  1
*
  1
*
  0
XRECORD
  5
4C
102
{ACAD_REACTORS
330
14
102
}
100
AcDbXrecord
  1
500
  1
*500*
  1
*
  1
*
 70
     0
  1
*
  1
*
  0
XRECORD
  5
4D
102
{ACAD_REACTORS
330
14
102
}
100
AcDbXrecord
  1
8
  1
*
  1
*8
  1
*
 70
     0
  1
*
  1
*
  0
XRECORD
  5
4E
102
{ACAD_REACTORS
330
14
102
}
100
AcDbXrecord
  1
84
  1
*84*
  1
*
  1
*
 70
     0
  1
*
  1
*
  0
XRECORD
  5
4F
102
{ACAD_REACTORS
330
14
102
}
100
AcDbXrecord
  1
A
  1
A*
  1
*
  1
*
 70
     0
  1
*
  1
*
  0
XRECORD
  5
50
102
{ACAD_REACTORS
330
14
102
}
100
AcDbXrecord
  1
A-Flor
  1
*|A-Flor*
  1
*
  1
*
 70
     0
  1
*
  1
*
  0
XRECORD
  5
51
102
{ACAD_REACTORS
330
14
102
}
100
AcDbXrecord
  1
a_
  1
a_*
  1
*
  1
*
 70
     0
  1
*
  1
*
  0
XRECORD
  5
52
102
{ACAD_REACTORS
330
14
102
}
100
AcDbXrecord
  1
A1
  1
A1*
  1
*
  1
*
 70
     0
  1
*
  1
*
  0
XRECORD
  5
53
102
{ACAD_REACTORS
330
14
102
}
100
AcDbXrecord
  1
A2
  1
A2*
  1
*
  1
*
 70
     0
  1
*
  1
*
  0
XRECORD
  5
54
102
{ACAD_REACTORS
330
14
102
}
100
AcDbXrecord
  1
A3
  1
A3*
  1
*
  1
*
 70
     0
  1
*
  1
*
  0
XRECORD
  5
55
102
{ACAD_REACTORS
330
14
102
}
100
AcDbXrecord
  1
A4
  1
A4*
  1
*
  1
*
 70
     0
  1
*
  1
*
  0
XRECORD
  5
56
102
{ACAD_REACTORS
330
14
102
}
100
AcDbXrecord
  1
AA_
  1
AA_*
  1
*
  1
*
 70
     0
  1
*
  1
*
  0
XRECORD
  5
57
102
{ACAD_REACTORS
330
14
102
}
100
AcDbXrecord
  1
AA_ft
  1
*
  1
*
  1
*
 70
     0
  1
*
  1
*
  0
XRECORD
  5
58
102
{ACAD_REACTORS
330
14
102
}
100
AcDbXrecord
  1
aaa
  1
*
  1
*
  1
*
 70
    12
  1
*
  1
*
  0
XRECORD
  5
59
102
{ACAD_REACTORS
330
14
102
}
100
AcDbXrecord
  1
ACOMETIDA-SERGAS
  1
*_AC
  1
*
  1
*
 70
     0
  1
*
  1
*
  0
XRECORD
  5
5A
102
{ACAD_REACTORS
330
14
102
}
100
AcDbXrecord
  1
act
  1
*
  1
*
  1
*
 70
     1
  1
*
  1
*
  0
XRECORD
  5
5B
102
{ACAD_REACTORS
330
14
102
}
100
AcDbXrecord
  1
ACTI
  1
*
  1
*
  1
*
 70
     1
  1
*
  1
*
  0
XRECORD
  5
5C
102
{ACAD_REACTORS
330
14
102
}
100
AcDbXrecord
  1
Activadas
  1
*
  1
*
  1
*
 70
     1
  1
*
  1
*
  0
XRECORD
  5
5D
102
{ACAD_REACTORS
330
14
102
}
100
AcDbXrecord
  1
ACTIVAS
  1
*
  1
*
  1
*
 70
     1
  1
*
  1
*
  0
XRECORD
  5
5E
102
{ACAD_REACTORS
330
14
102
}
100
AcDbXrecord
  1
ae
  1
*ae*
  1
*
  1
*
 70
     0
  1
*
  1
*
  0
XRECORD
  5
5F
102
{ACAD_REACTORS
330
14
102
}
100
AcDbXrecord
  1
Agua
  1
Agua*
  1
*
  1
*
 70
     0
  1
*
  1
*
  0
XRECORD
  5
60
102
{ACAD_REACTORS
330
14
102
}
100
AcDbXrecord
  1
AIRE
  1
AI*
  1
*
  1
*
 70
     0
  1
*
  1
*
  0
XRECORD
  5
61
102
{ACAD_REACTORS
330
14
102
}
100
AcDbXrecord
  1
ALÇAT
  1
ALÇAT*
  1
*
  1
*
 70
     0
  1
*
  1
*
  0
XRECORD
  5
62
102
{ACAD_REACTORS
330
14
102
}
100
AcDbXrecord
  1
alero
  1
alero*
  1
*
  1
*
 70
     0
  1
*
  1
*
  0
XRECORD
  5
63
102
{ACAD_REACTORS
330
14
102
}
100
AcDbXrecord
  1
ALL
  1
*
  1
*
  1
*
 70
     0
  1
*
  1
*
  0
XRECORD
  5
64
102
{ACAD_REACTORS
330
14
102
}
100
AcDbXrecord
  1
alle-schüco-layer
  1
0s*
  1
*
  1
*
 70
     0
  1
*
  1
*
  0
XRECORD
  5
65
102
{ACAD_REACTORS
330
14
102
}
100
AcDbXrecord
  1
alle-sichtbaren-layer
  1
*
  1
*
  1
*
 70
    13
  1
*
  1
*
  0
XRECORD
  5
66
102
{ACAD_REACTORS
330
14
102
}
100
AcDbXrecord
  1
ALZADOS
  1
A-*
  1
*
  1
*
 70
     0
  1
*
  1
*
  0
XRECORD
  5
67
102
{ACAD_REACTORS
330
14
102
}
100
AcDbXrecord
  1
amarillo
  1
*
  1
2
  1
*
 70
     0
  1
*
  1
*
  0
XRECORD
  5
68
102
{ACAD_REACTORS
330
14
102
}
100
AcDbXrecord
  1
an
  1
*an_*
  1
*
  1
*
 70
     0
  1
*
  1
*
  0
XRECORD
  5
69
102
{ACAD_REACTORS
330
14
102
}
100
AcDbXrecord
  1
ANT-H
  1
ANT-H*
  1
*
  1
*
 70
     0
  1
*
  1
*
  0
XRECORD
  5
6A
102
{ACAD_REACTORS
330
14
102
}
100
AcDbXrecord
  1
aq
  1
aq*
  1
*
  1
*
 70
     0
  1
*
  1
*
  0
XRECORD
  5
6B
102
{ACAD_REACTORS
330
14
102
}
100
AcDbXrecord
  1
aq-
  1
aq-*
  1
*
  1
*
 70
     0
  1
*
  1
*
  0
XRECORD
  5
6C
102
{ACAD_REACTORS
330
14
102
}
100
AcDbXrecord
  1
arbres
  1
*arb*
  1
*
  1
*
 70
     0
  1
*
  1
*
  0
XRECORD
  5
6D
102
{ACAD_REACTORS
330
14
102
}
100
AcDbXrecord
  1
area
  1
*area*
  1
*
  1
*
 70
     0
  1
*
  1
*
  0
XRECORD
  5
6E
102
{ACAD_REACTORS
330
14
102
}
100
AcDbXrecord
  1
AREAS
  1
AREA*.*
  1
*
  1
*
 70
     0
  1
*
  1
*
  0
XRECORD
  5
6F
102
{ACAD_REACTORS
330
14
102
}
100
AcDbXrecord
  1
Arquetas
  1
Arquetas*
  1
*
  1
*
 70
     0
  1
*
  1
*
  0
XRECORD
  5
70
102
{ACAD_REACTORS
330
14
102
}
100
AcDbXrecord
  1
ARQUITECTURA
  1
ARQ*
  1
*
  1
*
 70
     0
  1
*
  1
*
  0
XRECORD
  5
71
102
{ACAD_REACTORS
330
14
102
}
100
AcDbXrecord
  1
b1
  1
b1_*
  1
*
  1
*
 70
     0
  1
*
  1
*
  0
XRECORD
  5
72
102
{ACAD_REACTORS
330
14
102
}
100
AcDbXrecord
  1
B2
  1
B2*
  1
*
  1
*
 70
     0
  1
*
  1
*
  0
XRECORD
  5
73
102
{ACAD_REACTORS
330
14
102
}
100
AcDbXrecord
  1
B3
  1
B3*
  1
*
  1
*
 70
     0
  1
*
  1
*
  0
XRECORD
  5
74
102
{ACAD_REACTORS
330
14
102
}
100
AcDbXrecord
  1
B4
  1
B4*
  1
*
  1
*
 70
     0
  1
*
  1
*
  0
XRECORD
  5
75
102
{ACAD_REACTORS
330
14
102
}
100
AcDbXrecord
  1
barracones
  1
barracones*
  1
*
  1
*
 70
     0
  1
*
  1
*
  0
XRECORD
  5
76
102
{ACAD_REACTORS
330
14
102
}
100
AcDbXrecord
  1
base
  1
357-b|*
  1
*
  1
*
 70
     0
  1
*
  1
*
  0
XRECORD
  5
77
102
{ACAD_REACTORS
330
14
102
}
100
AcDbXrecord
  1
BIND
  1
*$0$*
  1
*
  1
*
 70
     0
  1
*
  1
*
  0
XRECORD
  5
78
102
{ACAD_REACTORS
330
14
102
}
100
AcDbXrecord
  1
bloq
  1
*
  1
*
  1
*
 70
   259
  1
*
  1
*
  0
XRECORD
  5
79
102
{ACAD_REACTORS
330
14
102
}
100
AcDbXrecord
  1
bloqueada
  1
*
  1
*
  1
*
 70
   256
  1
*
  1
*
  0
XRECORD
  5
7A
102
{ACAD_REACTORS
330
14
102
}
100
AcDbXrecord
  1
bloqueadas
  1
*
  1
*
  1
*
 70
   256
  1
*
  1
*
  0
XRECORD
  5
7B
102
{ACAD_REACTORS
330
14
102
}
100
AcDbXrecord
  1
BORDE
  1
*|169104
  1
*
  1
*
 70
     0
  1
*
  1
*
  0
XRECORD
  5
7C
102
{ACAD_REACTORS
330
14
102
}
100
AcDbXrecord
  1
BUS
  1
BU**
  1
*
  1
*
 70
     0
  1
*
  1
*
  0
XRECORD
  5
7D
102
{ACAD_REACTORS
330
14
102
}
100
AcDbXrecord
  1
C
  1
C*
  1
*
  1
*
 70
     0
  1
*
  1
*
  0
XRECORD
  5
7E
102
{ACAD_REACTORS
330
14
102
}
100
AcDbXrecord
  1
c-
  1
c-*
  1
*
  1
*
 70
     0
  1
*
  1
*
  0
XRECORD
  5
7F
102
{ACAD_REACTORS
330
14
102
}
100
AcDbXrecord
  1
C1
  1
C1*
  1
*
  1
*
 70
     0
  1
*
  1
*
  0
XRECORD
  5
80
102
{ACAD_REACTORS
330
14
102
}
100
AcDbXrecord
  1
C2
  1
C2*
  1
*
  1
*
 70
     0
  1
*
  1
*
  0
XRECORD
  5
81
102
{ACAD_REACTORS
330
14
102
}
100
AcDbXrecord
  1
C3
  1
C3*
  1
*
  1
*
 70
     0
  1
*
  1
*
  0
XRECORD
  5
82
102
{ACAD_REACTORS
330
14
102
}
100
AcDbXrecord
  1
C4
  1
C4*
  1
*
  1
*
 70
     0
  1
*
  1
*
  0
XRECORD
  5
83
102
{ACAD_REACTORS
330
14
102
}
100
AcDbXrecord
  1
C5
  1
C5*
  1
*
  1
*
 70
     0
  1
*
  1
*
  0
XRECORD
  5
84
102
{ACAD_REACTORS
330
14
102
}
100
AcDbXrecord
  1
C6
  1
C6*
  1
*
  1
*
 70
     0
  1
*
  1
*
  0
XRECORD
  5
85
102
{ACAD_REACTORS
330
14
102
}
100
AcDbXrecord
  1
CÁMARA
  1
CÁMARAS*
  1
*
  1
*
 70
     0
  1
*
  1
*
  0
XRECORD
  5
86
102
{ACAD_REACTORS
330
14
102
}
100
AcDbXrecord
  1
capa 0
  1
0
  1
*
  1
*
 70
     0
  1
*
  1
*
  0
XRECORD
  5
87
102
{ACAD_REACTORS
330
14
102
}
100
AcDbXrecord
  1
capas activadas
  1
*
  1
*
  1
*
 70
     1
  1
*
  1
*
  0
XRECORD
  5
88
102
{ACAD_REACTORS
330
14
102
}
100
AcDbXrecord
  1
capas desactivadas
  1
*
  1
*
  1
*
 70
     3
  1
*
  1
*
  0
XRECORD
  5
89
102
{ACAD_REACTORS
330
14
102
}
100
AcDbXrecord
  1
capas p1
  1
p1*
  1
*
  1
*
 70
     0
  1
*
  1
*
  0
XRECORD
  5
8A
102
{ACAD_REACTORS
330
14
102
}
100
AcDbXrecord
  1
car
  1
*car*
  1
*
  1
*
 70
     0
  1
*
  1
*
  0
XRECORD
  5
8B
102
{ACAD_REACTORS
330
14
102
}
100
AcDbXrecord
  1
CARCYCLE
  1
*CARCYCLE*
  1
*
  1
*
 70
     0
  1
*
  1
*
  0
XRECORD
  5
8C
102
{ACAD_REACTORS
330
14
102
}
100
AcDbXrecord
  1
CARPINTERIA
  1
CARP*
  1
*
  1
*
 70
     0
  1
*
  1
*
  0
XRECORD
  5
8D
102
{ACAD_REACTORS
330
14
102
}
100
AcDbXrecord
  1
CARRITALYBASE
  1
*
  1
*
  1
*
 70
     0
  1
*
  1
*
  0
XRECORD
  5
8E
102
{ACAD_REACTORS
330
14
102
}
100
AcDbXrecord
  1
CARRIZOS3FINAL
  1
*
  1
*
  1
*
 70
     0
  1
*
  1
*
  0
XRECORD
  5
8F
102
{ACAD_REACTORS
330
14
102
}
100
AcDbXrecord
  1
CARTO
  1
CART*
  1
*
  1
*
 70
     0
  1
*
  1
*
  0
XRECORD
  5
90
102
{ACAD_REACTORS
330
14
102
}
100
AcDbXrecord
  1
cartografia
  1
*
  1
8,9
  1
*
 70
     0
  1
*
  1
*
  0
XRECORD
  5
91
102
{ACAD_REACTORS
330
14
102
}
100
AcDbXrecord
  1
CEILING
  1
*CEIL*
  1
*
  1
*
 70
     0
  1
*
  1
*
  0
XRECORD
  5
92
102
{ACAD_REACTORS
330
14
102
}
100
AcDbXrecord
  1
cel
  1
cel*
  1
*
  1
*
 70
     0
  1
*
  1
*
  0
XRECORD
  5
93
102
{ACAD_REACTORS
330
14
102
}
100
AcDbXrecord
  1
cel-ras
  1
cel*
  1
*
  1
*
 70
     0
  1
*
  1
*
  0
XRECORD
  5
94
102
{ACAD_REACTORS
330
14
102
}
100
AcDbXrecord
  1
cian
  1
*
  1
4
  1
*
 70
    12
  1
*
  1
*
  0
XRECORD
  5
95
102
{ACAD_REACTORS
330
14
102
}
100
AcDbXrecord
  1
CLAD
  1
*CLAD*
  1
*
  1
*
 70
     0
  1
*
  1
*
  0
XRECORD
  5
96
102
{ACAD_REACTORS
330
14
102
}
100
AcDbXrecord
  1
clg
  1
*clg*
  1
*
  1
*
 70
     0
  1
*
  1
*
  0
XRECORD
  5
97
102
{ACAD_REACTORS
330
14
102
}
100
AcDbXrecord
  1
color
  1
*
  1
2
  1
*
 70
     0
  1
*
  1
*
  0
XRECORD
  5
98
102
{ACAD_REACTORS
330
14
102
}
100
AcDbXrecord
  1
color-8
  1
*
  1
8
  1
*
 70
     0
  1
*
  1
*
  0
XRECORD
  5
99
102
{ACAD_REACTORS
330
14
102
}
100
AcDbXrecord
  1
COLOR 8
  1
*
  1
8
  1
*
 70
     0
  1
*
  1
*
  0
XRECORD
  5
9A
102
{ACAD_REACTORS
330
14
102
}
100
AcDbXrecord
  1
color 9
  1
*
  1
9
  1
*
 70
     0
  1
*
  1
*
  0
XRECORD
  5
9B
102
{ACAD_REACTORS
330
14
102
}
100
AcDbXrecord
  1
com
  1
*com*
  1
*
  1
*
 70
     0
  1
*
  1
*
  0
XRECORD
  5
9C
102
{ACAD_REACTORS
330
14
102
}
100
AcDbXrecord
  1
COMUNES
  1
PBP1P2P3P4PaPqS1S2_G*
  1
*
  1
*
 70
     0
  1
*
  1
*
  0
XRECORD
  5
9D
102
{ACAD_REACTORS
330
14
102
}
100
AcDbXrecord
  1
contours1
  1
*con*
  1
*
  1
*
 70
     0
  1
*
  1
*
  0
XRECORD
  5
9E
102
{ACAD_REACTORS
330
14
102
}
100
AcDbXrecord
  1
Cota
  1
*189703*
  1
*
  1
*
 70
     0
  1
*
  1
*
  0
XRECORD
  5
9F
102
{ACAD_REACTORS
330
14
102
}
100
AcDbXrecord
  1
COTAINT
  1
*COTAINT,*TERRAINT
  1
*
  1
*
 70
     0
  1
*
  1
*
  0
XRECORD
  5
A0
102
{ACAD_REACTORS
330
14
102
}
100
AcDbXrecord
  1
COTAS
  1
*
  1
*
  1
*
 70
     0
  1
*
  1
*
  0
XRECORD
  5
A1
102
{ACAD_REACTORS
330
14
102
}
100
AcDbXrecord
  1
COTAS-ACABADOS
  1
*_CA
  1
*
  1
*
 70
     0
  1
*
  1
*
  0
XRECORD
  5
A2
102
{ACAD_REACTORS
330
14
102
}
100
AcDbXrecord
  1
COTAS_ACABADOS
  1
*_CA
  1
*
  1
*
 70
     0
  1
*
  1
*
  0
XRECORD
  5
A3
102
{ACAD_REACTORS
330
14
102
}
100
AcDbXrecord
  1
COTES
  1
*COT*
  1
*
  1
*
 70
     0
  1
*
  1
*
  0
XRECORD
  5
A4
102
{ACAD_REACTORS
330
14
102
}
100
AcDbXrecord
  1
couleur
  1
couleur*
  1
*
  1
*
 70
     0
  1
*
  1
*
  0
XRECORD
  5
A5
102
{ACAD_REACTORS
330
14
102
}
100
AcDbXrecord
  1
CPI
  1
CPI*
  1
*
  1
*
 70
     0
  1
*
  1
*
  0
XRECORD
  5
A6
102
{ACAD_REACTORS
330
14
102
}
100
AcDbXrecord
  1
CUBICAL
  1
*CUB*
  1
*
  1
*
 70
     0
  1
*
  1
*
  0
XRECORD
  5
A7
102
{ACAD_REACTORS
330
14
102
}
100
AcDbXrecord
  1
CUBIERTA
  1
*P03
  1
*
  1
*
 70
     0
  1
*
  1
*
  0
XRECORD
  5
A8
102
{ACAD_REACTORS
330
14
102
}
100
AcDbXrecord
  1
curva
  1
*cur*
  1
*
  1
*
 70
     0
  1
*
  1
*
  0
XRECORD
  5
A9
102
{ACAD_REACTORS
330
14
102
}
100
AcDbXrecord
  1
CYAN
  1
*
  1
*CYAN
  1
*
 70
     0
  1
*
  1
*
  0
XRECORD
  5
AA
102
{ACAD_REACTORS
330
14
102
}
100
AcDbXrecord
  1
cycl
  1
*cycl*
  1
*
  1
*
 70
     0
  1
*
  1
*
  0
XRECORD
  5
AB
102
{ACAD_REACTORS
330
14
102
}
100
AcDbXrecord
  1
CYCLE
  1
*CYCL*
  1
*
  1
*
 70
     0
  1
*
  1
*
  0
XRECORD
  5
AC
102
{ACAD_REACTORS
330
14
102
}
100
AcDbXrecord
  1
D1
  1
D1*
  1
*
  1
*
 70
     0
  1
*
  1
*
  0
XRECORD
  5
AD
102
{ACAD_REACTORS
330
14
102
}
100
AcDbXrecord
  1
D2
  1
D2*
  1
*
  1
*
 70
     0
  1
*
  1
*
  0
XRECORD
  5
AE
102
{ACAD_REACTORS
330
14
102
}
100
AcDbXrecord
  1
D3
  1
D3*
  1
*
  1
*
 70
     0
  1
*
  1
*
  0
XRECORD
  5
AF
102
{ACAD_REACTORS
330
14
102
}
100
AcDbXrecord
  1
D4
  1
D4*
  1
*
  1
*
 70
     0
  1
*
  1
*
  0
XRECORD
  5
B0
102
{ACAD_REACTORS
330
14
102
}
100
AcDbXrecord
  1
D5
  1
D5*
  1
*
  1
*
 70
     0
  1
*
  1
*
  0
XRECORD
  5
B1
102
{ACAD_REACTORS
330
14
102
}
100
AcDbXrecord
  1
Del dibujo
  1
*
  1
*
  1
*
 70
   768
  1
*
  1
*
  0
XRECORD
  5
B2
102
{ACAD_REACTORS
330
14
102
}
100
AcDbXrecord
  1
demo
  1
*-demo-*
  1
*
  1
*
 70
  3415
  1
*
  1
*
  0
XRECORD
  5
B3
102
{ACAD_REACTORS
330
14
102
}
100
AcDbXrecord
  1
des
  1
*
  1
*
  1
*
 70
     4
  1
*
  1
*
  0
XRECORD
  5
B4
102
{ACAD_REACTORS
330
14
102
}
100
AcDbXrecord
  1
DESACTIVAS
  1
*
  1
*
  1
*
 70
     3
  1
*
  1
*
  0
XRECORD
  5
B5
102
{ACAD_REACTORS
330
14
102
}
100
AcDbXrecord
  1
DETAIL
  1
D-*
  1
*
  1
*
 70
     0
  1
*
  1
*
  0
XRECORD
  5
B6
102
{ACAD_REACTORS
330
14
102
}
100
AcDbXrecord
  1
DETAILS
  1
D-*
  1
*
  1
*
 70
     0
  1
*
  1
*
  0
XRECORD
  5
B7
102
{ACAD_REACTORS
330
14
102
}
100
AcDbXrecord
  1
detalle
  1
d-*
  1
*
  1
*
 70
     0
  1
*
  1
*
  0
XRECORD
  5
B8
102
{ACAD_REACTORS
330
14
102
}
100
AcDbXrecord
  1
detalles
  1
det*
  1
*
  1
*
 70
     0
  1
*
  1
*
  0
XRECORD
  5
B9
102
{ACAD_REACTORS
330
14
102
}
100
AcDbXrecord
  1
DIB
  1
*DIB*
  1
*
  1
*
 70
     0
  1
*
  1
*
  0
XRECORD
  5
BA
102
{ACAD_REACTORS
330
14
102
}
100
AcDbXrecord
  1
DIM
  1
*DIM*
  1
*
  1
*
 70
     0
  1
*
  1
*
  0
XRECORD
  5
BB
102
{ACAD_REACTORS
330
14
102
}
100
AcDbXrecord
  1
dims
  1
*dim*
  1
*
  1
*
 70
     0
  1
*
  1
*
  0
XRECORD
  5
BC
102
{ACAD_REACTORS
330
14
102
}
100
AcDbXrecord
  1
DOOR
  1
*D*R*
  1
*
  1
*
 70
     0
  1
*
  1
*
  0
XRECORD
  5
BD
102
{ACAD_REACTORS
330
14
102
}
100
AcDbXrecord
  1
doors
  1
*door*
  1
*
  1
*
 70
     0
  1
*
  1
*
  0
XRECORD
  5
BE
102
{ACAD_REACTORS
330
14
102
}
100
AcDbXrecord
  1
DREN
  1
DREN*
  1
*
  1
*
 70
     0
  1
*
  1
*
  0
XRECORD
  5
BF
102
{ACAD_REACTORS
330
14
102
}
100
AcDbXrecord
  1
drenagem
  1
-d-*,-DRENAGEM
  1
*
  1
*
 70
     0
  1
*
  1
*
  0
XRECORD
  5
C0
102
{ACAD_REACTORS
330
14
102
}
100
AcDbXrecord
  1
E
  1
E*
  1
*
  1
*
 70
     0
  1
*
  1
*
  0
XRECORD
  5
C1
102
{ACAD_REACTORS
330
14
102
}
100
AcDbXrecord
  1
E1
  1
E1*
  1
*
  1
*
 70
     0
  1
*
  1
*
  0
XRECORD
  5
C2
102
{ACAD_REACTORS
330
14
102
}
100
AcDbXrecord
  1
E3
  1
E3*
  1
*
  1
*
 70
     1
  1
*
  1
*
  0
XRECORD
  5
C3
102
{ACAD_REACTORS
330
14
102
}
100
AcDbXrecord
  1
eixos
  1
*eix*
  1
*
  1
*
 70
     0
  1
*
  1
*
  0
XRECORD
  5
C4
102
{ACAD_REACTORS
330
14
102
}
100
AcDbXrecord
  1
eje
  1
e*
  1
*
  1
*
 70
     0
  1
*
  1
*
  0
XRECORD
  5
C5
102
{ACAD_REACTORS
330
14
102
}
100
AcDbXrecord
  1
elect
  1
*electrical*
  1
*
  1
*
 70
     0
  1
*
  1
*
  0
XRECORD
  5
C6
102
{ACAD_REACTORS
330
14
102
}
100
AcDbXrecord
  1
ellipse
  1
*ellip*
  1
*
  1
*
 70
     0
  1
*
  1
*
  0
XRECORD
  5
C7
102
{ACAD_REACTORS
330
14
102
}
100
AcDbXrecord
  1
ENSE
  1
*
  1
*
  1
*
 70
     1
  1
*
  1
*
  0
XRECORD
  5
C8
102
{ACAD_REACTORS
330
14
102
}
100
AcDbXrecord
  1
entorn
  1
entorn*
  1
*
  1
*
 70
     0
  1
*
  1
*
  0
XRECORD
  5
C9
102
{ACAD_REACTORS
330
14
102
}
100
AcDbXrecord
  1
ENTRADA
  1
*_EE
  1
*
  1
*
 70
     0
  1
*
  1
*
  0
XRECORD
  5
CA
102
{ACAD_REACTORS
330
14
102
}
100
AcDbXrecord
  1
Entramado-Fachadas
  1
e-per*
  1
*
  1
*
 70
     0
  1
*
  1
*
  0
XRECORD
  5
CB
102
{ACAD_REACTORS
330
14
102
}
100
AcDbXrecord
  1
eq
  1
*eq*
  1
*
  1
*
 70
     0
  1
*
  1
*
  0
XRECORD
  5
CC
102
{ACAD_REACTORS
330
14
102
}
100
AcDbXrecord
  1
EQU
  1
*EQ*
  1
*
  1
*
 70
     0
  1
*
  1
*
  0
XRECORD
  5
CD
102
{ACAD_REACTORS
330
14
102
}
100
AcDbXrecord
  1
escala 1-50
  1
*050-*
  1
*
  1
*
 70
     0
  1
*
  1
*
  0
XRECORD
  5
CE
102
{ACAD_REACTORS
330
14
102
}
100
AcDbXrecord
  1
escalator
  1
*esc*
  1
*
  1
*
 70
     0
  1
*
  1
*
  0
XRECORD
  5
CF
102
{ACAD_REACTORS
330
14
102
}
100
AcDbXrecord
  1
ESCALERA
  1
ESCAL*
  1
*
  1
*
 70
     0
  1
*
  1
*
  0
XRECORD
  5
D0
102
{ACAD_REACTORS
330
14
102
}
100
AcDbXrecord
  1
ESPAI VERD
  1
*P2*
  1
*
  1
*
 70
     0
  1
*
  1
*
  0
XRECORD
  5
D1
102
{ACAD_REACTORS
330
14
102
}
100
AcDbXrecord
  1
ESQUEMAS
  1
ESQUEMA*
  1
*
  1
*
 70
     0
  1
*
  1
*
  0
XRECORD
  5
D2
102
{ACAD_REACTORS
330
14
102
}
100
AcDbXrecord
  1
estru00
  1
estru*00
  1
*
  1
*
 70
     0
  1
*
  1
*
  0
XRECORD
  5
D3
102
{ACAD_REACTORS
330
14
102
}
100
AcDbXrecord
  1
ESTRUCTURA
  1
EST*
  1
*
  1
*
 70
     0
  1
*
  1
*
  0
XRECORD
  5
D4
102
{ACAD_REACTORS
330
14
102
}
100
AcDbXrecord
  1
estructuras
  1
e-*
  1
*
  1
*
 70
     0
  1
*
  1
*
  0
XRECORD
  5
D5
102
{ACAD_REACTORS
330
14
102
}
100
AcDbXrecord
  1
EXIS
  1
EXIS*
  1
*
  1
*
 70
     0
  1
*
  1
*
  0
XRECORD
  5
D6
102
{ACAD_REACTORS
330
14
102
}
100
AcDbXrecord
  1
exterior
  1
exterior*
  1
*
  1
*
 70
     0
  1
*
  1
*
  0
XRECORD
  5
D7
102
{ACAD_REACTORS
330
14
102
}
100
AcDbXrecord
  1
F1
  1
*F1
  1
*
  1
*
 70
     0
  1
*
  1
*
  0
XRECORD
  5
D8
102
{ACAD_REACTORS
330
14
102
}
100
AcDbXrecord
  1
F2
  1
*F2
  1
*
  1
*
 70
     0
  1
*
  1
*
  0
XRECORD
  5
D9
102
{ACAD_REACTORS
330
14
102
}
100
AcDbXrecord
  1
FACHADA
  1
*_FA
  1
*
  1
*
 70
     0
  1
*
  1
*
  0
XRECORD
  5
DA
102
{ACAD_REACTORS
330
14
102
}
100
AcDbXrecord
  1
FACHADAS
  1
FACHADA,CARPIN,EJES,TEJADO,PROFORJA,ESCALERA
  1
*
  1
*
 70
     0
  1
*
  1
*
  0
XRECORD
  5
DB
102
{ACAD_REACTORS
330
14
102
}
100
AcDbXrecord
  1
fall
  1
*fall*
  1
*
  1
*
 70
     0
  1
*
  1
*
  0
XRECORD
  5
DC
102
{ACAD_REACTORS
330
14
102
}
100
AcDbXrecord
  1
FALLOS
  1
FALLOS*
  1
*
  1
*
 70
     0
  1
*
  1
*
  0
XRECORD
  5
DD
102
{ACAD_REACTORS
330
14
102
}
100
AcDbXrecord
  1
fancoil
  1
f-*
  1
*
  1
*
 70
     0
  1
*
  1
*
  0
XRECORD
  5
DE
102
{ACAD_REACTORS
330
14
102
}
100
AcDbXrecord
  1
Fecales
  1
Fecales*
  1
*
  1
*
 70
     0
  1
*
  1
*
  0
XRECORD
  5
DF
102
{ACAD_REACTORS
330
14
102
}
100
AcDbXrecord
  1
ff200m
  1
*050-*,*020-*,*d0-*
  1
*
  1
*
 70
     0
  1
*
  1
*
  0
XRECORD
  5
E0
102
{ACAD_REACTORS
330
14
102
}
100
AcDbXrecord
  1
FIN
  1
*FIN*
  1
*
  1
*
 70
     0
  1
*
  1
*
  0
XRECORD
  5
E1
102
{ACAD_REACTORS
330
14
102
}
100
AcDbXrecord
  1
fire
  1
*fire*
  1
*
  1
*
 70
     0
  1
*
  1
*
  0
XRECORD
  5
E2
102
{ACAD_REACTORS
330
14
102
}
100
AcDbXrecord
  1
FIX
  1
*FIX*
  1
*
  1
*
 70
     0
  1
*
  1
*
  0
XRECORD
  5
E3
102
{ACAD_REACTORS
330
14
102
}
100
AcDbXrecord
  1
Floor
  1
A-Flor*
  1
*
  1
*
 70
     0
  1
*
  1
*
  0
XRECORD
  5
E4
102
{ACAD_REACTORS
330
14
102
}
100
AcDbXrecord
  1
freeze
  1
*
  1
*
  1
*
 70
     4
  1
*
  1
*
  0
XRECORD
  5
E5
102
{ACAD_REACTORS
330
14
102
}
100
AcDbXrecord
  1
Frozen
  1
*
  1
*
  1
*
 70
     4
  1
*
  1
*
  0
XRECORD
  5
E6
102
{ACAD_REACTORS
330
14
102
}
100
AcDbXrecord
  1
furn
  1
*furn*
  1
*
  1
*
 70
     0
  1
*
  1
*
  0
XRECORD
  5
E7
102
{ACAD_REACTORS
330
14
102
}
100
AcDbXrecord
  1
FURNITURE
  1
*FUR*
  1
*
  1
*
 70
     0
  1
*
  1
*
  0
XRECORD
  5
E8
102
{ACAD_REACTORS
330
14
102
}
100
AcDbXrecord
  1
fus
  1
*fus*
  1
*
  1
*
 70
     1
  1
*
  1
*
  0
XRECORD
  5
E9
102
{ACAD_REACTORS
330
14
102
}
100
AcDbXrecord
  1
Gas
  1
Gas*
  1
*
  1
*
 70
     0
  1
*
  1
*
  0
XRECORD
  5
EA
102
{ACAD_REACTORS
330
14
102
}
100
AcDbXrecord
  1
gel
  1
*
  1
*
  1
*
 70
    12
  1
*
  1
*
  0
XRECORD
  5
EB
102
{ACAD_REACTORS
330
14
102
}
100
AcDbXrecord
  1
gilltemp
  1
*
  1
*
  1
*
 70
     0
  1
*
  1
*
  0
XRECORD
  5
EC
102
{ACAD_REACTORS
330
14
102
}
100
AcDbXrecord
  1
green
  1
*
  1
3
  1
*
 70
    12
  1
*
  1
*
  0
XRECORD
  5
ED
102
{ACAD_REACTORS
330
14
102
}
100
AcDbXrecord
  1
grid
  1
*grid*
  1
*
  1
*
 70
     0
  1
*
  1
*
  0
XRECORD
  5
EE
102
{ACAD_REACTORS
330
14
102
}
100
AcDbXrecord
  1
gris8
  1
*
  1
8
  1
*
 70
    12
  1
*
  1
*
  0
XRECORD
  5
EF
102
{ACAD_REACTORS
330
14
102
}
100
AcDbXrecord
  1
gris9
  1
*
  1
9
  1
*
 70
     0
  1
*
  1
*
  0
XRECORD
  5
F0
102
{ACAD_REACTORS
330
14
102
}
100
AcDbXrecord
  1
grises
  1
h*
  1
*
  1
*
 70
     0
  1
*
  1
*
  0
XRECORD
  5
F1
102
{ACAD_REACTORS
330
14
102
}
100
AcDbXrecord
  1
gro
  1
*gro*
  1
*
  1
*
 70
     0
  1
*
  1
*
  0
XRECORD
  5
F2
102
{ACAD_REACTORS
330
14
102
}
100
AcDbXrecord
  1
h-
  1
h-*
  1
*
  1
*
 70
     0
  1
*
  1
*
  0
XRECORD
  5
F3
102
{ACAD_REACTORS
330
14
102
}
100
AcDbXrecord
  1
HA
  1
*HA*
  1
*
  1
*
 70
     0
  1
*
  1
*
  0
XRECORD
  5
F4
102
{ACAD_REACTORS
330
14
102
}
100
AcDbXrecord
  1
HA-GENE-AR
  1
*HA-GENE-AR
  1
*
  1
*
 70
     0
  1
*
  1
*
  0
XRECORD
  5
F5
102
{ACAD_REACTORS
330
14
102
}
100
AcDbXrecord
  1
HAOU
  1
HA*,OU-AREA*
  1
*
  1
*
 70
     0
  1
*
  1
*
  0
XRECORD
  5
F6
102
{ACAD_REACTORS
330
14
102
}
100
AcDbXrecord
  1
hojas
  1
*hojas
  1
*
  1
*
 70
     0
  1
*
  1
*
  0
XRECORD
  5
F7
102
{ACAD_REACTORS
330
14
102
}
100
AcDbXrecord
  1
I
  1
I*
  1
*
  1
*
 70
     0
  1
*
  1
*
  0
XRECORD
  5
F8
102
{ACAD_REACTORS
330
14
102
}
100
AcDbXrecord
  1
il
  1
*
  1
*
  1
*
 70
    48
  1
*
  1
*
  0
XRECORD
  5
F9
102
{ACAD_REACTORS
330
14
102
}
100
AcDbXrecord
  1
ilum
  1
i-*
  1
*
  1
*
 70
     0
  1
*
  1
*
  0
XRECORD
  5
FA
102
{ACAD_REACTORS
330
14
102
}
100
AcDbXrecord
  1
img
  1
*img*
  1
*
  1
*
 70
     0
  1
*
  1
*
  0
XRECORD
  5
FB
102
{ACAD_REACTORS
330
14
102
}
100
AcDbXrecord
  1
inac
  1
*
  1
*
  1
*
 70
     4
  1
*
  1
*
  0
XRECORD
  5
FC
102
{ACAD_REACTORS
330
14
102
}
100
AcDbXrecord
  1
INS
  1
*INS*
  1
*
  1
*
 70
     0
  1
*
  1
*
  0
XRECORD
  5
FD
102
{ACAD_REACTORS
330
14
102
}
100
AcDbXrecord
  1
INST_TECHO
  1
*TECHO
  1
*
  1
*
 70
     0
  1
*
  1
*
  0
XRECORD
  5
FE
102
{ACAD_REACTORS
330
14
102
}
100
AcDbXrecord
  1
INSTALACION_TECHO
  1
*TECHO
  1
*
  1
*
 70
     0
  1
*
  1
*
  0
XRECORD
  5
FF
102
{ACAD_REACTORS
330
14
102
}
100
AcDbXrecord
  1
INSTALACIONES_TECHO
  1
*_T
  1
*
  1
*
 70
     0
  1
*
  1
*
  0
XRECORD
  5
100
102
{ACAD_REACTORS
330
14
102
}
100
AcDbXrecord
  1
INU
  1
*
  1
*
  1
*
 70
     4
  1
*
  1
*
  0
XRECORD
  5
101
102
{ACAD_REACTORS
330
14
102
}
100
AcDbXrecord
  1
INUTIIL
  1
*
  1
*
  1
*
 70
     1
  1
*
  1
*
  0
XRECORD
  5
102
102
{ACAD_REACTORS
330
14
102
}
100
AcDbXrecord
  1
jalonamiento
  1
*iento
  1
*
  1
*
 70
     0
  1
*
  1
*
  0
XRECORD
  5
103
102
{ACAD_REACTORS
330
14
102
}
100
AcDbXrecord
  1
k52
  1
*
  1
*
  1
*
 70
     0
  1
*
  1
*
  0
XRECORD
  5
104
102
{ACAD_REACTORS
330
14
102
}
100
AcDbXrecord
  1
KAYDIRAKLAR
  1
KAY-*
  1
*
  1
*
 70
     0
  1
*
  1
*
  0
XRECORD
  5
105
102
{ACAD_REACTORS
330
14
102
}
100
AcDbXrecord
  1
KEY
  1
*KEY*
  1
*
  1
*
 70
     0
  1
*
  1
*
  0
XRECORD
  5
106
102
{ACAD_REACTORS
330
14
102
}
100
AcDbXrecord
  1
KONSOLLAR
  1
KONSOL*
  1
*
  1
*
 70
     0
  1
*
  1
*
  0
XRECORD
  5
107
102
{ACAD_REACTORS
330
14
102
}
100
AcDbXrecord
  1
LABEL
  1
*
  1
C*
  1
*
 70
     3
  1
*
  1
*
  0
XRECORD
  5
108
102
{ACAD_REACTORS
330
14
102
}
100
AcDbXrecord
  1
LAS-UTILES
  1
*
  1
*
  1
*
 70
    12
  1
*
  1
*
  0
XRECORD
  5
109
102
{ACAD_REACTORS
330
14
102
}
100
AcDbXrecord
  1
LAURA
  1
L*
  1
*
  1
*
 70
     0
  1
*
  1
*
  0
XRECORD
  5
10A
102
{ACAD_REACTORS
330
14
102
}
100
AcDbXrecord
  1
LAZY
  1
*LAZY*
  1
*
  1
*
 70
     0
  1
*
  1
*
  0
XRECORD
  5
10B
102
{ACAD_REACTORS
330
14
102
}
100
AcDbXrecord
  1
LGA
  1
1,2,3,4,R
  1
*
  1
*
 70
     0
  1
*
  1
*
  0
XRECORD
  5
10C
102
{ACAD_REACTORS
330
14
102
}
100
AcDbXrecord
  1
lim
  1
lim*
  1
*
  1
*
 70
     0
  1
*
  1
*
  0
XRECORD
  5
10D
102
{ACAD_REACTORS
330
14
102
}
100
AcDbXrecord
  1
LIMPIO
  1
*|020400,*|169104,*|168116,*|189703,*|168154,*|028112,*|168153,*|168114,*|167458,*|167458,*|145502,*|060370,*|021154,*|160302,*|110308,*|140102,*|160305,*|168123
  1
*
  1
*
 70
     0
  1
*
  1
*
  0
XRECORD
  5
10E
102
{ACAD_REACTORS
330
14
102
}
100
AcDbXrecord
  1
linea fina
  1
*20200
  1
*
  1
*
 70
     0
  1
*
  1
*
  0
XRECORD
  5
10F
102
{ACAD_REACTORS
330
14
102
}
100
AcDbXrecord
  1
LINEA GRUESA
  1
*20400
  1
*
  1
*
 70
     0
  1
*
  1
*
  0
XRECORD
  5
110
102
{ACAD_REACTORS
330
14
102
}
100
AcDbXrecord
  1
LINEAS_REFERENCIA
  1
LINEAS_REF*
  1
*
  1
*
 70
     0
  1
*
  1
*
  0
XRECORD
  5
111
102
{ACAD_REACTORS
330
14
102
}
100
AcDbXrecord
  1
LINES
  1
* LINE
  1
*
  1
*
 70
     0
  1
*
  1
*
  0
XRECORD
  5
112
102
{ACAD_REACTORS
330
14
102
}
100
AcDbXrecord
  1
llums
  1
i-*
  1
*
  1
*
 70
     0
  1
*
  1
*
  0
XRECORD
  5
113
102
{ACAD_REACTORS
330
14
102
}
100
AcDbXrecord
  1
LOCKER
  1
*LOCKER*
  1
*
  1
*
 70
     0
  1
*
  1
*
  0
XRECORD
  5
114
102
{ACAD_REACTORS
330
14
102
}
100
AcDbXrecord
  1
lot
  1
p*lot*
  1
*
  1
*
 70
     0
  1
*
  1
*
  0
XRECORD
  5
115
102
{ACAD_REACTORS
330
14
102
}
100
AcDbXrecord
  1
LUNAR
  1
*
  1
*
  1
*
 70
    48
  1
*
  1
*
  0
XRECORD
  5
116
102
{ACAD_REACTORS
330
14
102
}
100
AcDbXrecord
  1
LUNAR2
  1
*
  1
*
  1
*
 70
    12
  1
*
  1
*
  0
XRECORD
  5
117
102
{ACAD_REACTORS
330
14
102
}
100
AcDbXrecord
  1
lvl
  1
*lvl*
  1
*
  1
*
 70
     0
  1
*
  1
*
  0
XRECORD
  5
118
102
{ACAD_REACTORS
330
14
102
}
100
AcDbXrecord
  1
Magenta
  1
*
  1
6
  1
Hidden
 70
    12
  1
*
  1
*
  0
XRECORD
  5
119
102
{ACAD_REACTORS
330
14
102
}
100
AcDbXrecord
  1
MARCOS
  1
MARCO*
  1
*
  1
*
 70
     0
  1
*
  1
*
  0
XRECORD
  5
11A
102
{ACAD_REACTORS
330
14
102
}
100
AcDbXrecord
  1
MATAS
  1
*matas
  1
*
  1
*
 70
     0
  1
*
  1
*
  0
XRECORD
  5
11B
102
{ACAD_REACTORS
330
14
102
}
100
AcDbXrecord
  1
MATERIALS
  1
M-*
  1
*
  1
*
 70
     0
  1
*
  1
*
  0
XRECORD
  5
11C
102
{ACAD_REACTORS
330
14
102
}
100
AcDbXrecord
  1
Media Tension
  1
Media*
  1
*
  1
*
 70
     0
  1
*
  1
*
  0
XRECORD
  5
11D
102
{ACAD_REACTORS
330
14
102
}
100
AcDbXrecord
  1
MEUS
  1
G-*
  1
*
  1
*
 70
     0
  1
*
  1
*
  0
XRECORD
  5
11E
102
{ACAD_REACTORS
330
14
102
}
100
AcDbXrecord
  1
MEXT
  1
*M_EXT*
  1
*
  1
*
 70
     0
  1
*
  1
*
  0
XRECORD
  5
11F
102
{ACAD_REACTORS
330
14
102
}
100
AcDbXrecord
  1
mezz
  1
*mezz*
  1
*
  1
*
 70
     0
  1
*
  1
*
  0
XRECORD
  5
120
102
{ACAD_REACTORS
330
14
102
}
100
AcDbXrecord
  1
mill
  1
*mill*
  1
*
  1
*
 70
     0
  1
*
  1
*
  0
XRECORD
  5
121
102
{ACAD_REACTORS
330
14
102
}
100
AcDbXrecord
  1
MOBILIARIO
  1
MOB*
  1
*
  1
*
 70
     0
  1
*
  1
*
  0
XRECORD
  5
122
102
{ACAD_REACTORS
330
14
102
}
100
AcDbXrecord
  1
MUEBLEPERIMETRAL
  1
*_MU
  1
*
  1
*
 70
     0
  1
*
  1
*
  0
XRECORD
  5
123
102
{ACAD_REACTORS
330
14
102
}
100
AcDbXrecord
  1
MUEBLES
  1
*MUEBLES
  1
*
  1
*
 70
     0
  1
*
  1
*
  0
XRECORD
  5
124
102
{ACAD_REACTORS
330
14
102
}
100
AcDbXrecord
  1
mz
  1
*mz
  1
*
  1
*
 70
     0
  1
*
  1
*
  0
XRECORD
  5
125
102
{ACAD_REACTORS
330
14
102
}
100
AcDbXrecord
  1
N
  1
n*
  1
*
  1
*
 70
     0
  1
*
  1
*
  0
XRECORD
  5
126
102
{ACAD_REACTORS
330
14
102
}
100
AcDbXrecord
  1
n-clav
  1
*n-clav*
  1
*
  1
*
 70
     0
  1
*
  1
*
  0
XRECORD
  5
127
102
{ACAD_REACTORS
330
14
102
}
100
AcDbXrecord
  1
NAME
  1
*RM*
  1
*
  1
*
 70
     0
  1
*
  1
*
  0
XRECORD
  5
128
102
{ACAD_REACTORS
330
14
102
}
100
AcDbXrecord
  1
neal
  1
neal*|*
  1
*
  1
*
 70
     0
  1
*
  1
*
  0
XRECORD
  5
129
102
{ACAD_REACTORS
330
14
102
}
100
AcDbXrecord
  1
nelf
  1
*nelf*
  1
*
  1
*
 70
     0
  1
*
  1
*
  0
XRECORD
  5
12A
102
{ACAD_REACTORS
330
14
102
}
100
AcDbXrecord
  1
NEW
  1
NEW-*
  1
*
  1
*
 70
     0
  1
*
  1
*
  0
XRECORD
  5
12B
102
{ACAD_REACTORS
330
14
102
}
100
AcDbXrecord
  1
no xref
  1
~*|*
  1
*
  1
*
 70
     0
  1
*
  1
*
  0
XRECORD
  5
12C
102
{ACAD_REACTORS
330
14
102
}
100
AcDbXrecord
  1
NORMAL
  1
*
  1
*
  1
*
 70
     0
  1
*
  1
Normal
  0
XRECORD
  5
12D
102
{ACAD_REACTORS
330
14
102
}
100
AcDbXrecord
  1
NOTE
  1
*NOTE*
  1
*
  1
*
 70
     0
  1
*
  1
*
  0
XRECORD
  5
12E
102
{ACAD_REACTORS
330
14
102
}
100
AcDbXrecord
  1
NUEVA
  1
N-*
  1
*
  1
*
 70
     0
  1
*
  1
*
  0
XRECORD
  5
12F
102
{ACAD_REACTORS
330
14
102
}
100
AcDbXrecord
  1
NUEVA_IMPLANTACIÓN
  1
PBN*
  1
*
  1
*
 70
     0
  1
*
  1
*
  0
XRECORD
  5
130
102
{ACAD_REACTORS
330
14
102
}
100
AcDbXrecord
  1
NUEVAS
  1
N-*
  1
*
  1
*
 70
     0
  1
*
  1
*
  0
XRECORD
  5
131
102
{ACAD_REACTORS
330
14
102
}
100
AcDbXrecord
  1
NUEVOS-SERVICIOS
  1
NEW*
  1
*
  1
*
 70
     0
  1
*
  1
*
  0
XRECORD
  5
132
102
{ACAD_REACTORS
330
14
102
}
100
AcDbXrecord
  1
NUM
  1
0*,1*,2*,3*,4*,5*
  1
*
  1
*
 70
     0
  1
*
  1
*
  0
XRECORD
  5
133
102
{ACAD_REACTORS
330
14
102
}
100
AcDbXrecord
  1
OCULT
  1
*OCULT*
  1
*
  1
*
 70
     0
  1
*
  1
*
  0
XRECORD
  5
134
102
{ACAD_REACTORS
330
14
102
}
100
AcDbXrecord
  1
OFF
  1
*
  1
*
  1
*
 70
     3
  1
*
  1
*
  0
XRECORD
  5
135
102
{ACAD_REACTORS
330
14
102
}
100
AcDbXrecord
  1
OFICINES
  1
*P1P2P3P4P5*
  1
*
  1
*
 70
     0
  1
*
  1
*
  0
XRECORD
  5
136
102
{ACAD_REACTORS
330
14
102
}
100
AcDbXrecord
  1
oi
  1
*stai*
  1
*
  1
*
 70
     0
  1
*
  1
*
  0
XRECORD
  5
137
102
{ACAD_REACTORS
330
14
102
}
100
AcDbXrecord
  1
ON
  1
*
  1
*
  1
*
 70
     1
  1
*
  1
*
  0
XRECORD
  5
138
102
{ACAD_REACTORS
330
14
102
}
100
AcDbXrecord
  1
OU
  1
OU-AREA*,*grid*
  1
*
  1
*
 70
     0
  1
*
  1
*
  0
XRECORD
  5
139
102
{ACAD_REACTORS
330
14
102
}
100
AcDbXrecord
  1
ou-area
  1
ou-area*
  1
*
  1
*
 70
     0
  1
*
  1
*
  0
XRECORD
  5
13A
102
{ACAD_REACTORS
330
14
102
}
100
AcDbXrecord
  1
OUTY
  1
*
  1
*
  1
*
 70
     7
  1
*
  1
*
  0
XRECORD
  5
13B
102
{ACAD_REACTORS
330
14
102
}
100
AcDbXrecord
  1
p
  1
p*
  1
*
  1
*
 70
     0
  1
*
  1
*
  0
XRECORD
  5
13C
102
{ACAD_REACTORS
330
14
102
}
100
AcDbXrecord
  1
P-1
  1
*P-1
  1
*
  1
*
 70
     0
  1
*
  1
*
  0
XRECORD
  5
13D
102
{ACAD_REACTORS
330
14
102
}
100
AcDbXrecord
  1
p-2
  1
*-2
  1
*
  1
*
 70
     0
  1
*
  1
*
  0
XRECORD
  5
13E
102
{ACAD_REACTORS
330
14
102
}
100
AcDbXrecord
  1
p00
  1
*_p00
  1
*
  1
*
 70
     0
  1
*
  1
*
  0
XRECORD
  5
13F
102
{ACAD_REACTORS
330
14
102
}
100
AcDbXrecord
  1
p01
  1
*_p01
  1
*
  1
*
 70
     0
  1
*
  1
*
  0
XRECORD
  5
140
102
{ACAD_REACTORS
330
14
102
}
100
AcDbXrecord
  1
p02
  1
*_p02
  1
*
  1
*
 70
     0
  1
*
  1
*
  0
XRECORD
  5
141
102
{ACAD_REACTORS
330
14
102
}
100
AcDbXrecord
  1
p03
  1
*_p03
  1
*
  1
*
 70
     0
  1
*
  1
*
  0
XRECORD
  5
142
102
{ACAD_REACTORS
330
14
102
}
100
AcDbXrecord
  1
P05
  1
*P05
  1
*
  1
*
 70
     0
  1
*
  1
*
  0
XRECORD
  5
143
102
{ACAD_REACTORS
330
14
102
}
100
AcDbXrecord
  1
P1
  1
*P1*
  1
*
  1
*
 70
     0
  1
*
  1
*
  0
XRECORD
  5
144
102
{ACAD_REACTORS
330
14
102
}
100
AcDbXrecord
  1
p1401
  1
p14*p01
  1
*
  1
*
 70
     0
  1
*
  1
*
  0
XRECORD
  5
145
102
{ACAD_REACTORS
330
14
102
}
100
AcDbXrecord
  1
p14p-2
  1
p14*p-2
  1
*
  1
*
 70
     0
  1
*
  1
*
  0
XRECORD
  5
146
102
{ACAD_REACTORS
330
14
102
}
100
AcDbXrecord
  1
p14p00
  1
p14*p00
  1
*
  1
*
 70
     0
  1
*
  1
*
  0
XRECORD
  5
147
102
{ACAD_REACTORS
330
14
102
}
100
AcDbXrecord
  1
P2
  1
*P2*
  1
*
  1
*
 70
     0
  1
*
  1
*
  0
XRECORD
  5
148
102
{ACAD_REACTORS
330
14
102
}
100
AcDbXrecord
  1
P3
  1
*P3*
  1
*
  1
*
 70
     0
  1
*
  1
*
  0
XRECORD
  5
149
102
{ACAD_REACTORS
330
14
102
}
100
AcDbXrecord
  1
p4
  1
*p4*
  1
*
  1
*
 70
     0
  1
*
  1
*
  0
XRECORD
  5
14A
102
{ACAD_REACTORS
330
14
102
}
100
AcDbXrecord
  1
P5
  1
P5*
  1
*
  1
*
 70
     0
  1
*
  1
*
  0
XRECORD
  5
14B
102
{ACAD_REACTORS
330
14
102
}
100
AcDbXrecord
  1
Pa
  1
*Pa*
  1
*
  1
*
 70
     0
  1
*
  1
*
  0
XRECORD
  5
14C
102
{ACAD_REACTORS
330
14
102
}
100
AcDbXrecord
  1
Parcela
  1
Parcela*
  1
*
  1
*
 70
     0
  1
*
  1
*
  0
XRECORD
  5
14D
102
{ACAD_REACTORS
330
14
102
}
100
AcDbXrecord
  1
PARKING
  1
PARK*
  1
*
  1
*
 70
     0
  1
*
  1
*
  0
XRECORD
  5
14E
102
{ACAD_REACTORS
330
14
102
}
100
AcDbXrecord
  1
PARTITIONS
  1
*PART
  1
*
  1
*
 70
     0
  1
*
  1
*
  0
XRECORD
  5
14F
102
{ACAD_REACTORS
330
14
102
}
100
AcDbXrecord
  1
pasillo
  1
p*
  1
*
  1
*
 70
     0
  1
*
  1
*
  0
XRECORD
  5
150
102
{ACAD_REACTORS
330
14
102
}
100
AcDbXrecord
  1
patt
  1
*patt*
  1
*
  1
*
 70
     0
  1
*
  1
*
  0
XRECORD
  5
151
102
{ACAD_REACTORS
330
14
102
}
100
AcDbXrecord
  1
PAU
  1
*
  1
*
  1
*
 70
     1
  1
*
  1
*
  0
XRECORD
  5
152
102
{ACAD_REACTORS
330
14
102
}
100
AcDbXrecord
  1
pb
  1
*pb*
  1
*
  1
*
 70
     0
  1
*
  1
*
  0
XRECORD
  5
153
102
{ACAD_REACTORS
330
14
102
}
100
AcDbXrecord
  1
PEPE
  1
0,CARPIN,FACHADA,SOLERIA,SECCION,MOBIL
  1
*
  1
*
 70
     0
  1
*
  1
*
  0
XRECORD
  5
154
102
{ACAD_REACTORS
330
14
102
}
100
AcDbXrecord
  1
PIANOS
  1
*PIANO
  1
*
  1
*
 70
     0
  1
*
  1
*
  0
XRECORD
  5
155
102
{ACAD_REACTORS
330
14
102
}
100
AcDbXrecord
  1
pieza de cristal
  1
k*
  1
*
  1
*
 70
     0
  1
*
  1
*
  0
XRECORD
  5
156
102
{ACAD_REACTORS
330
14
102
}
100
AcDbXrecord
  1
pilares
  1
p*
  1
*
  1
*
 70
     0
  1
*
  1
*
  0
XRECORD
  5
157
102
{ACAD_REACTORS
330
14
102
}
100
AcDbXrecord
  1
PILARESZ2
  1
PIL-Z2*,PICU-Z2*
  1
*
  1
*
 70
     0
  1
*
  1
*
  0
XRECORD
  5
158
102
{ACAD_REACTORS
330
14
102
}
100
AcDbXrecord
  1
pipes
  1
pipe*
  1
*
  1
*
 70
     0
  1
*
  1
*
  0
XRECORD
  5
159
102
{ACAD_REACTORS
330
14
102
}
100
AcDbXrecord
  1
Pipes1
  1
pipes1*
  1
*
  1
*
 70
     0
  1
*
  1
*
  0
XRECORD
  5
15A
102
{ACAD_REACTORS
330
14
102
}
100
AcDbXrecord
  1
PIPING PLAN2
  1
DECKDRAIN FEED,DECKDRAIN,PIPING,SKIMMER,XBASE$0$MAINDRAIN,XBASE$0$RETURN
  1
*
  1
*
 70
     0
  1
*
  1
*
  0
XRECORD
  5
15B
102
{ACAD_REACTORS
330
14
102
}
100
AcDbXrecord
  1
pl
  1
pl*
  1
*
  1
*
 70
     0
  1
*
  1
*
  0
XRECORD
  5
15C
102
{ACAD_REACTORS
330
14
102
}
100
AcDbXrecord
  1
PLAKALAR
  1
PLAKA*
  1
*
  1
*
 70
     0
  1
*
  1
*
  0
XRECORD
  5
15D
102
{ACAD_REACTORS
330
14
102
}
100
AcDbXrecord
  1
PLAN
  1
*
  1
*
  1
*
 70
    12
  1
*
  1
*
  0
XRECORD
  5
15E
102
{ACAD_REACTORS
330
14
102
}
100
AcDbXrecord
  1
PLAN-PARCIAL
  1
PP*
  1
*
  1
*
 70
     0
  1
*
  1
*
  0
XRECORD
  5
15F
102
{ACAD_REACTORS
330
14
102
}
100
AcDbXrecord
  1
Planta baja
  1
Pbn_*
  1
*
  1
*
 70
     0
  1
*
  1
*
  0
XRECORD
  5
160
102
{ACAD_REACTORS
330
14
102
}
100
AcDbXrecord
  1
Planta baja ACT
  1
Pb_*
  1
*
  1
*
 70
     0
  1
*
  1
*
  0
XRECORD
  5
161
102
{ACAD_REACTORS
330
14
102
}
100
AcDbXrecord
  1
Planta Subsuelo
  1
Psn_*
  1
*
  1
*
 70
     0
  1
*
  1
*
  0
XRECORD
  5
162
102
{ACAD_REACTORS
330
14
102
}
100
AcDbXrecord
  1
Planta técnica
  1
Ptn_*
  1
*
  1
*
 70
     0
  1
*
  1
*
  0
XRECORD
  5
163
102
{ACAD_REACTORS
330
14
102
}
100
AcDbXrecord
  1
PLANTAS
  1
Z*
  1
*
  1
*
 70
     0
  1
*
  1
*
  0
XRECORD
  5
164
102
{ACAD_REACTORS
330
14
102
}
100
AcDbXrecord
  1
PLOT
  1
UNIT*COL*
  1
*
  1
*
 70
     0
  1
*
  1
*
  0
XRECORD
  5
165
102
{ACAD_REACTORS
330
14
102
}
100
AcDbXrecord
  1
ploteo
  1
*
  1
*
  1
*
 70
    12
  1
*
  1
*
  0
XRECORD
  5
166
102
{ACAD_REACTORS
330
14
102
}
100
AcDbXrecord
  1
Pluviales
  1
Pluviales*
  1
*
  1
*
 70
     0
  1
*
  1
*
  0
XRECORD
  5
167
102
{ACAD_REACTORS
330
14
102
}
100
AcDbXrecord
  1
POLILINEAS
  1
POL*
  1
*
  1
*
 70
     0
  1
*
  1
*
  0
XRECORD
  5
168
102
{ACAD_REACTORS
330
14
102
}
100
AcDbXrecord
  1
PONT
  1
PONT*
  1
*
  1
*
 70
     0
  1
*
  1
*
  0
XRECORD
  5
169
102
{ACAD_REACTORS
330
14
102
}
100
AcDbXrecord
  1
POOL
  1
A-POOL*
  1
*
  1
*
 70
     0
  1
*
  1
*
  0
XRECORD
  5
16A
102
{ACAD_REACTORS
330
14
102
}
100
AcDbXrecord
  1
Popopo
  1
*
  1
*
  1
*
 70
     0
  1
*
  1
*
  0
XRECORD
  5
16B
102
{ACAD_REACTORS
330
14
102
}
100
AcDbXrecord
  1
Pozos_Agua
  1
Pozos_A*
  1
*
  1
*
 70
     0
  1
*
  1
*
  0
XRECORD
  5
16C
102
{ACAD_REACTORS
330
14
102
}
100
AcDbXrecord
  1
Pozos_Fecales
  1
Pozos_Fe*
  1
*
  1
*
 70
     0
  1
*
  1
*
  0
XRECORD
  5
16D
102
{ACAD_REACTORS
330
14
102
}
100
AcDbXrecord
  1
Pozos_pluviales
  1
Pozos_Pl*
  1
*
  1
*
 70
     0
  1
*
  1
*
  0
XRECORD
  5
16E
102
{ACAD_REACTORS
330
14
102
}
100
AcDbXrecord
  1
Pq
  1
*Pq*
  1
*
  1
*
 70
     0
  1
*
  1
*
  0
XRECORD
  5
16F
102
{ACAD_REACTORS
330
14
102
}
100
AcDbXrecord
  1
PR
  1
X-NIVEL1*
  1
10
  1
*
 70
    13
  1
*
  1
*
  0
XRECORD
  5
170
102
{ACAD_REACTORS
330
14
102
}
100
AcDbXrecord
  1
PROGEST
  1
PRO-*
  1
*
  1
*
 70
     0
  1
*
  1
*
  0
XRECORD
  5
171
102
{ACAD_REACTORS
330
14
102
}
100
AcDbXrecord
  1
PROJ-URBANITZACIO
  1
PU*
  1
*
  1
*
 70
     0
  1
*
  1
*
  0
XRECORD
  5
172
102
{ACAD_REACTORS
330
14
102
}
100
AcDbXrecord
  1
PROYECCCIONES
  1
PROY_*
  1
*
  1
*
 70
     0
  1
*
  1
*
  0
XRECORD
  5
173
102
{ACAD_REACTORS
330
14
102
}
100
AcDbXrecord
  1
PRUEBA
  1
*|020400
  1
*
  1
*
 70
     0
  1
*
  1
*
  0
XRECORD
  5
174
102
{ACAD_REACTORS
330
14
102
}
100
AcDbXrecord
  1
PRUEBA3
  1
*|020400,*|169104
  1
*
  1
*
 70
     0
  1
*
  1
*
  0
XRECORD
  5
175
102
{ACAD_REACTORS
330
14
102
}
100
AcDbXrecord
  1
PUERTAS
  1
PUERTAS
  1
*
  1
*
 70
     0
  1
*
  1
*
  0
XRECORD
  5
176
102
{ACAD_REACTORS
330
14
102
}
100
AcDbXrecord
  1
RAIL
  1
*RAIL*
  1
*
  1
*
 70
     0
  1
*
  1
*
  0
XRECORD
  5
177
102
{ACAD_REACTORS
330
14
102
}
100
AcDbXrecord
  1
RCP
  1
*
  1
*
  1
*
 70
     0
  1
*
  1
*
  0
XRECORD
  5
178
102
{ACAD_REACTORS
330
14
102
}
100
AcDbXrecord
  1
red
  1
*
  1
1
  1
*
 70
    12
  1
*
  1
*
  0
XRECORD
  5
179
102
{ACAD_REACTORS
330
14
102
}
100
AcDbXrecord
  1
REFERENCIA
  1
*_46
  1
*
  1
*
 70
     0
  1
*
  1
*
  0
XRECORD
  5
17A
102
{ACAD_REACTORS
330
14
102
}
100
AcDbXrecord
  1
RELLENO
  1
RELLENO_*
  1
*
  1
*
 70
     0
  1
*
  1
*
  0
XRECORD
  5
17B
102
{ACAD_REACTORS
330
14
102
}
100
AcDbXrecord
  1
RELLENOS
  1
RELL*
  1
*
  1
*
 70
     0
  1
*
  1
*
  0
XRECORD
  5
17C
102
{ACAD_REACTORS
330
14
102
}
100
AcDbXrecord
  1
REPLANTEO
  1
REP*
  1
*
  1
*
 70
     0
  1
*
  1
*
  0
XRECORD
  5
17D
102
{ACAD_REACTORS
330
14
102
}
100
AcDbXrecord
  1
Riego
  1
Riego*
  1
*
  1
*
 70
     0
  1
*
  1
*
  0
XRECORD
  5
17E
102
{ACAD_REACTORS
330
14
102
}
100
AcDbXrecord
  1
RMTAGS
  1
R*
  1
*
  1
*
 70
     0
  1
*
  1
*
  0
XRECORD
  5
17F
102
{ACAD_REACTORS
330
14
102
}
100
AcDbXrecord
  1
room
  1
*room*
  1
*
  1
*
 70
     0
  1
*
  1
*
  0
XRECORD
  5
180
102
{ACAD_REACTORS
330
14
102
}
100
AcDbXrecord
  1
ROTULACION
  1
ROT*
  1
*
  1
*
 70
     0
  1
*
  1
*
  0
XRECORD
  5
181
102
{ACAD_REACTORS
330
14
102
}
100
AcDbXrecord
  1
S
  1
S*
  1
*
  1
*
 70
     0
  1
*
  1
*
  0
XRECORD
  5
182
102
{ACAD_REACTORS
330
14
102
}
100
AcDbXrecord
  1
S1
  1
*S1*
  1
*
  1
*
 70
     0
  1
*
  1
*
  0
XRECORD
  5
183
102
{ACAD_REACTORS
330
14
102
}
100
AcDbXrecord
  1
S2
  1
*S2*
  1
*
  1
*
 70
     0
  1
*
  1
*
  0
XRECORD
  5
184
102
{ACAD_REACTORS
330
14
102
}
100
AcDbXrecord
  1
SAA
  1
*SAA*
  1
*
  1
*
 70
     0
  1
*
  1
*
  0
XRECORD
  5
185
102
{ACAD_REACTORS
330
14
102
}
100
AcDbXrecord
  1
SANEAMIENTO
  1
SAN*
  1
*
  1
*
 70
     0
  1
*
  1
*
  0
XRECORD
  5
186
102
{ACAD_REACTORS
330
14
102
}
100
AcDbXrecord
  1
SAU
  1
SAU*
  1
*
  1
*
 70
     0
  1
*
  1
*
  0
XRECORD
  5
187
102
{ACAD_REACTORS
330
14
102
}
100
AcDbXrecord
  1
SAU3
  1
SAU3*
  1
*
  1
*
 70
     0
  1
*
  1
*
  0
XRECORD
  5
188
102
{ACAD_REACTORS
330
14
102
}
100
AcDbXrecord
  1
SAU5
  1
SAU5*
  1
*
  1
*
 70
     0
  1
*
  1
*
  0
XRECORD
  5
189
102
{ACAD_REACTORS
330
14
102
}
100
AcDbXrecord
  1
scale200
  1
*wind*,*clad*,*stone*,*stee*
  1
*
  1
*
 70
     0
  1
*
  1
*
  0
XRECORD
  5
18A
102
{ACAD_REACTORS
330
14
102
}
100
AcDbXrecord
  1
se
  1
s*
  1
*
  1
*
 70
     0
  1
*
  1
*
  0
XRECORD
  5
18B
102
{ACAD_REACTORS
330
14
102
}
100
AcDbXrecord
  1
SE100
  1
SE-100*
  1
*
  1
*
 70
     0
  1
*
  1
*
  0
XRECORD
  5
18C
102
{ACAD_REACTORS
330
14
102
}
100
AcDbXrecord
  1
secc
  1
stran*
  1
*
  1
*
 70
     0
  1
*
  1
*
  0
XRECORD
  5
18D
102
{ACAD_REACTORS
330
14
102
}
100
AcDbXrecord
  1
SECCIO
  1
*s0*
  1
*
  1
*
 70
     0
  1
*
  1
*
  0
XRECORD
  5
18E
102
{ACAD_REACTORS
330
14
102
}
100
AcDbXrecord
  1
SECCION
  1
SEC*
  1
*
  1
*
 70
     0
  1
*
  1
*
  0
XRECORD
  5
18F
102
{ACAD_REACTORS
330
14
102
}
100
AcDbXrecord
  1
segunda
  1
*
  1
*
  1
*
 70
     0
  1
*
  1
*
  0
XRECORD
  5
190
102
{ACAD_REACTORS
330
14
102
}
100
AcDbXrecord
  1
segundabis
  1
*
  1
*
  1
*
 70
     0
  1
*
  1
*
  0
XRECORD
  5
191
102
{ACAD_REACTORS
330
14
102
}
100
AcDbXrecord
  1
seny_horit
  1
*|529
  1
*
  1
*
 70
     0
  1
*
  1
*
  0
XRECORD
  5
192
102
{ACAD_REACTORS
330
14
102
}
100
AcDbXrecord
  1
SERVI
  1
EXIS-*
  1
*
  1
*
 70
     0
  1
*
  1
*
  0
XRECORD
  5
193
102
{ACAD_REACTORS
330
14
102
}
100
AcDbXrecord
  1
SILLAS
  1
*SILLAS
  1
*
  1
*
 70
     0
  1
*
  1
*
  0
XRECORD
  5
194
102
{ACAD_REACTORS
330
14
102
}
100
AcDbXrecord
  1
site
  1
*site*
  1
*
  1
*
 70
     0
  1
*
  1
*
  0
XRECORD
  5
195
102
{ACAD_REACTORS
330
14
102
}
100
AcDbXrecord
  1
SOLADOS
  1
SOL*
  1
*
  1
*
 70
     0
  1
*
  1
*
  0
XRECORD
  5
196
102
{ACAD_REACTORS
330
14
102
}
100
AcDbXrecord
  1
SOLO CAPA
  1
*
  1
*
  1
*
 70
     3
  1
*
  1
*
  0
XRECORD
  5
197
102
{ACAD_REACTORS
330
14
102
}
100
AcDbXrecord
  1
space planning
  1
*sp*
  1
*
  1
*
 70
     0
  1
*
  1
*
  0
XRECORD
  5
198
102
{ACAD_REACTORS
330
14
102
}
100
AcDbXrecord
  1
STR
  1
STR*
  1
*
  1
*
 70
     0
  1
*
  1
*
  0
XRECORD
  5
199
102
{ACAD_REACTORS
330
14
102
}
100
AcDbXrecord
  1
structural
  1
str*
  1
*
  1
*
 70
     0
  1
*
  1
*
  0
XRECORD
  5
19A
102
{ACAD_REACTORS
330
14
102
}
100
AcDbXrecord
  1
STRUCTURE
  1
??STR???????*
  1
*
  1
*
 70
     0
  1
*
  1
*
  0
XRECORD
  5
19B
102
{ACAD_REACTORS
330
14
102
}
100
AcDbXrecord
  1
SU
  1
*
  1
*
  1
*
 70
     0
  1
*
  1
*
  0
XRECORD
  5
19C
102
{ACAD_REACTORS
330
14
102
}
100
AcDbXrecord
  1
SUELO
  1
SUEL*
  1
*
  1
*
 70
     0
  1
*
  1
*
  0
XRECORD
  5
19D
102
{ACAD_REACTORS
330
14
102
}
100
AcDbXrecord
  1
sup01
  1
001_*
  1
*
  1
*
 70
     0
  1
*
  1
*
  0
XRECORD
  5
19E
102
{ACAD_REACTORS
330
14
102
}
100
AcDbXrecord
  1
sup02
  1
002_*
  1
*
  1
*
 70
     0
  1
*
  1
*
  0
XRECORD
  5
19F
102
{ACAD_REACTORS
330
14
102
}
100
AcDbXrecord
  1
sup03
  1
003_*
  1
*
  1
*
 70
     0
  1
*
  1
*
  0
XRECORD
  5
1A0
102
{ACAD_REACTORS
330
14
102
}
100
AcDbXrecord
  1
sup04
  1
004_*
  1
*
  1
*
 70
     0
  1
*
  1
*
  0
XRECORD
  5
1A1
102
{ACAD_REACTORS
330
14
102
}
100
AcDbXrecord
  1
superficies
  1
sup*
  1
*
  1
*
 70
     0
  1
*
  1
*
  0
XRECORD
  5
1A2
102
{ACAD_REACTORS
330
14
102
}
100
AcDbXrecord
  1
T
  1
T*
  1
*
  1
*
 70
     0
  1
*
  1
*
  0
XRECORD
  5
1A3
102
{ACAD_REACTORS
330
14
102
}
100
AcDbXrecord
  1
T_A
  1
T_A*
  1
*
  1
*
 70
     0
  1
*
  1
*
  0
XRECORD
  5
1A4
102
{ACAD_REACTORS
330
14
102
}
100
AcDbXrecord
  1
T_C
  1
T_C*
  1
*
  1
*
 70
     0
  1
*
  1
*
  0
XRECORD
  5
1A5
102
{ACAD_REACTORS
330
14
102
}
100
AcDbXrecord
  1
TAJEAS
  1
TAJEA*
  1
*
  1
*
 70
     0
  1
*
  1
*
  0
XRECORD
  5
1A6
102
{ACAD_REACTORS
330
14
102
}
100
AcDbXrecord
  1
talleres
  1
t*
  1
*
  1
*
 70
     0
  1
*
  1
*
  0
XRECORD
  5
1A7
102
{ACAD_REACTORS
330
14
102
}
100
AcDbXrecord
  1
TAQUIMETRICO
  1
TAQ*
  1
*
  1
*
 70
     0
  1
*
  1
*
  0
XRECORD
  5
1A8
102
{ACAD_REACTORS
330
14
102
}
100
AcDbXrecord
  1
TECHOS
  1
*_T
  1
*
  1
*
 70
     0
  1
*
  1
*
  0
XRECORD
  5
1A9
102
{ACAD_REACTORS
330
14
102
}
100
AcDbXrecord
  1
TELE
  1
TELE*
  1
*
  1
*
 70
     0
  1
*
  1
*
  0
XRECORD
  5
1AA
102
{ACAD_REACTORS
330
14
102
}
100
AcDbXrecord
  1
temp
  1
*
  1
253,252
  1
*
 70
     0
  1
*
  1
*
  0
XRECORD
  5
1AB
102
{ACAD_REACTORS
330
14
102
}
100
AcDbXrecord
  1
text
  1
*text*
  1
*
  1
*
 70
     0
  1
*
  1
*
  0
XRECORD
  5
1AC
102
{ACAD_REACTORS
330
14
102
}
100
AcDbXrecord
  1
TEXTO
  1
*TEXTO
  1
80
  1
*
 70
    13
  1
*
  1
*
  0
XRECORD
  5
1AD
102
{ACAD_REACTORS
330
14
102
}
100
AcDbXrecord
  1
Thawed
  1
*
  1
*
  1
*
 70
    12
  1
*
  1
*
  0
XRECORD
  5
1AE
102
{ACAD_REACTORS
330
14
102
}
100
AcDbXrecord
  1
tmp
  1
*tmp*
  1
*
  1
*
 70
     0
  1
*
  1
*
  0
XRECORD
  5
1AF
102
{ACAD_REACTORS
330
14
102
}
100
AcDbXrecord
  1
topo
  1
topo*
  1
*
  1
*
 70
     0
  1
*
  1
*
  0
XRECORD
  5
1B0
102
{ACAD_REACTORS
330
14
102
}
100
AcDbXrecord
  1
TOPOGRAFIA
  1
TOP*
  1
*
  1
*
 70
     0
  1
*
  1
*
  0
XRECORD
  5
1B1
102
{ACAD_REACTORS
330
14
102
}
100
AcDbXrecord
  1
trabajo
  1
*
  1
*
  1
*
 70
     0
  1
*
  1
*
  0
XRECORD
  5
1B2
102
{ACAD_REACTORS
330
14
102
}
100
AcDbXrecord
  1
tram
  1
*tram*
  1
*
  1
*
 70
     0
  1
*
  1
*
  0
XRECORD
  5
1B3
102
{ACAD_REACTORS
330
14
102
}
100
AcDbXrecord
  1
trama
  1
*trama*
  1
*
  1
*
 70
     0
  1
*
  1
*
  0
XRECORD
  5
1B4
102
{ACAD_REACTORS
330
14
102
}
100
AcDbXrecord
  1
TRAMA-FAÇANA
  1
*
  1
*
  1
*
 70
     0
  1
*
  1
*
  0
XRECORD
  5
1B5
102
{ACAD_REACTORS
330
14
102
}
100
AcDbXrecord
  1
tramas
  1
*tramas*
  1
*
  1
*
 70
     0
  1
*
  1
*
  0
XRECORD
  5
1B6
102
{ACAD_REACTORS
330
14
102
}
100
AcDbXrecord
  1
TRAMES
  1
*tra*
  1
*
  1
*
 70
     0
  1
*
  1
*
  0
XRECORD
  5
1B7
102
{ACAD_REACTORS
330
14
102
}
100
AcDbXrecord
  1
TREAD
  1
*TREAD*
  1
*
  1
*
 70
     0
  1
*
  1
*
  0
XRECORD
  5
1B8
102
{ACAD_REACTORS
330
14
102
}
100
AcDbXrecord
  1
TUB
  1
TUB*
  1
*
  1
*
 70
     0
  1
*
  1
*
  0
XRECORD
  5
1B9
102
{ACAD_REACTORS
330
14
102
}
100
AcDbXrecord
  1
uiskas
  1
*
  1
*
  1
*
 70
     1
  1
*
  1
*
  0
XRECORD
  5
1BA
102
{ACAD_REACTORS
330
14
102
}
100
AcDbXrecord
  1
uni
  1
*unit*
  1
*
  1
*
 70
     0
  1
*
  1
*
  0
XRECORD
  5
1BB
102
{ACAD_REACTORS
330
14
102
}
100
AcDbXrecord
  1
URB
  1
*P2*
  1
*
  1
*
 70
     0
  1
*
  1
*
  0
XRECORD
  5
1BC
102
{ACAD_REACTORS
330
14
102
}
100
AcDbXrecord
  1
urban
  1
1*
  1
*
  1
*
 70
     0
  1
*
  1
*
  0
XRECORD
  5
1BD
102
{ACAD_REACTORS
330
14
102
}
100
AcDbXrecord
  1
URBANIZACION
  1
URB*
  1
*
  1
*
 70
     0
  1
*
  1
*
  0
XRECORD
  5
1BE
102
{ACAD_REACTORS
330
14
102
}
100
AcDbXrecord
  1
USOS_MUEBLES
  1
*_UM
  1
*
  1
*
 70
     0
  1
*
  1
*
  0
XRECORD
  5
1BF
102
{ACAD_REACTORS
330
14
102
}
100
AcDbXrecord
  1
Utilizadas
  1
*
  1
*
  1
*
 70
    12
  1
*
  1
*
  0
XRECORD
  5
1C0
102
{ACAD_REACTORS
330
14
102
}
100
AcDbXrecord
  1
VESTUARIOS_ENTRADA
  1
*_VT
  1
*
  1
*
 70
     0
  1
*
  1
*
  0
XRECORD
  5
1C1
102
{ACAD_REACTORS
330
14
102
}
100
AcDbXrecord
  1
vistas
  1
*
  1
*
  1
*
 70
     4
  1
*
  1
*
  0
XRECORD
  5
1C2
102
{ACAD_REACTORS
330
14
102
}
100
AcDbXrecord
  1
VMULT
  1
*VMU*
  1
*
  1
*
 70
     0
  1
*
  1
*
  0
XRECORD
  5
1C3
102
{ACAD_REACTORS
330
14
102
}
100
AcDbXrecord
  1
VP
  1
V*
  1
*
  1
*
 70
     0
  1
*
  1
*
  0
XRECORD
  5
1C4
102
{ACAD_REACTORS
330
14
102
}
100
AcDbXrecord
  1
WALL
  1
*WALL*
  1
*
  1
*
 70
     0
  1
*
  1
*
  0
XRECORD
  5
1C5
102
{ACAD_REACTORS
330
14
102
}
100
AcDbXrecord
  1
WDW
  1
*WDW*
  1
*
  1
*
 70
     0
  1
*
  1
*
  0
XRECORD
  5
1C6
102
{ACAD_REACTORS
330
14
102
}
100
AcDbXrecord
  1
we
  1
*sym*
  1
*
  1
*
 70
     0
  1
*
  1
*
  0
XRECORD
  5
1C7
102
{ACAD_REACTORS
330
14
102
}
100
AcDbXrecord
  1
white
  1
*
  1
7
  1
*
 70
    12
  1
*
  1
*
  0
XRECORD
  5
1C8
102
{ACAD_REACTORS
330
14
102
}
100
AcDbXrecord
  1
window
  1
*wdw*
  1
*
  1
*
 70
     0
  1
*
  1
*
  0
XRECORD
  5
1C9
102
{ACAD_REACTORS
330
14
102
}
100
AcDbXrecord
  1
X
  1
*_*X*
  1
*
  1
*
 70
     0
  1
*
  1
*
  0
XRECORD
  5
1CA
102
{ACAD_REACTORS
330
14
102
}
100
AcDbXrecord
  1
XREF
  1
XREF*
  1
*
  1
*
 70
     0
  1
*
  1
*
  0
XRECORD
  5
1CB
102
{ACAD_REACTORS
330
14
102
}
100
AcDbXrecord
  1
YARDIMLAR
  1
*YARDIM
  1
*
  1
*
 70
     0
  1
*
  1
*
  0
XRECORD
  5
1CC
102
{ACAD_REACTORS
330
14
102
}
100
AcDbXrecord
  1
yo
  1
*somb*
  1
*
  1
*
 70
     0
  1
*
  1
*
  0
XRECORD
  5
1CD
102
{ACAD_REACTORS
330
14
102
}
100
AcDbXrecord
  1
yuzeyler
  1
*-yuzey*
  1
*
  1
*
 70
     0
  1
*
  1
*
  0
XRECORD
  5
1CE
102
{ACAD_REACTORS
330
14
102
}
100
AcDbXrecord
  1
YÜZEYLER
  1
*YUZ*
  1
*
  1
*
 70
     0
  1
*
  1
*
  0
XRECORD
  5
1E5
102
{ACAD_REACTORS
330
1E4
102
}
100
AcDbXrecord
102
EXTNAMES
  1
STANDARD
  2
Standard
  0
XRECORD
  5
16
102
{ACAD_REACTORS
330
15
102
}
100
AcDbXrecord
102
EXTNAMES
  1
-DETALLES
  2
-detalles
  1
_P00
  2
_p00
  1
__
  2
++
  1
00TRF
  2
00trf
  1
04CUBIERTAS
  2
04cubiertas
  1
2_PLAN_ESPECIAL
  2
2_PLAN ESPECIAL
  1
3D
  2
3d
  1
3D_LAYERS
  2
3D LAYERS
  1
A-FLOR
  2
A-Flor
  1
A_
  2
a_
  1
AA_FT
  2
AA_ft
  1
AAA
  2
aaa
  1
ACT
  2
act
  1
ACTIVADAS
  2
Activadas
  1
AE
  2
ae
  1
AGUA
  2
Agua
  1
ALERO
  2
alero
  1
ALLE-SCHÜCO-LAYER
  2
alle-schüco-layer
  1
ALLE-SICHTBAREN-LAYER
  2
alle-sichtbaren-layer
  1
AMARILLO
  2
amarillo
  1
AN
  2
an
  1
AQ
  2
aq
  1
AQ-
  2
aq-
  1
ARBRES
  2
arbres
  1
AREA
  2
area
  1
ARQUETAS
  2
Arquetas
  1
B1
  2
b1
  1
BARRACONES
  2
barracones
  1
BASE
  2
base
  1
BLOQ
  2
bloq
  1
BLOQUEADA
  2
bloqueada
  1
BLOQUEADAS
  2
bloqueadas
  1
C-
  2
c-
  1
CAPA_0
  2
capa 0
  1
CAPAS_ACTIVADAS
  2
capas activadas
  1
CAPAS_DESACTIVADAS
  2
capas desactivadas
  1
CAPAS_P1
  2
capas p1
  1
CAR
  2
car
  1
CARTOGRAFIA
  2
cartografia
  1
CEL
  2
cel
  1
CEL-RAS
  2
cel-ras
  1
CIAN
  2
cian
  1
CLG
  2
clg
  1
COLOR
  2
color
  1
COLOR-8
  2
color-8
  1
COLOR_8
  2
COLOR 8
  1
COLOR_9
  2
color 9
  1
COM
  2
com
  1
CONTOURS1
  2
contours1
  1
COTA
  2
Cota
  1
COULEUR
  2
couleur
  1
CURVA
  2
curva
  1
CYCL
  2
cycl
  1
DEL_DIBUJO
  2
Del dibujo
  1
DEMO
  2
demo
  1
DES
  2
des
  1
DETALLE
  2
detalle
  1
DETALLES
  2
detalles
  1
DIMS
  2
dims
  1
DOORS
  2
doors
  1
DRENAGEM
  2
drenagem
  1
EIXOS
  2
eixos
  1
EJE
  2
eje
  1
ELECT
  2
elect
  1
ELLIPSE
  2
ellipse
  1
ENTORN
  2
entorn
  1
ENTRAMADO-FACHADAS
  2
Entramado-Fachadas
  1
EQ
  2
eq
  1
ESCALA_1-50
  2
escala 1-50
  1
ESCALATOR
  2
escalator
  1
ESPAI_VERD
  2
ESPAI VERD
  1
ESTRU00
  2
estru00
  1
ESTRUCTURAS
  2
estructuras
  1
EXTERIOR
  2
exterior
  1
FALL
  2
fall
  1
FANCOIL
  2
fancoil
  1
FECALES
  2
Fecales
  1
FF200M
  2
ff200m
  1
FIRE
  2
fire
  1
FLOOR
  2
Floor
  1
FREEZE
  2
freeze
  1
FROZEN
  2
Frozen
  1
FURN
  2
furn
  1
FUS
  2
fus
  1
GAS
  2
Gas
  1
GEL
  2
gel
  1
GILLTEMP
  2
gilltemp
  1
GREEN
  2
green
  1
GRID
  2
grid
  1
GRIS8
  2
gris8
  1
GRIS9
  2
gris9
  1
GRISES
  2
grises
  1
GRO
  2
gro
  1
H-
  2
h-
  1
HOJAS
  2
hojas
  1
IL
  2
il
  1
ILUM
  2
ilum
  1
IMG
  2
img
  1
INAC
  2
inac
  1
JALONAMIENTO
  2
jalonamiento
  1
K52
  2
k52
  1
LIM
  2
lim
  1
LINEA_FINA
  2
linea fina
  1
LINEA_GRUESA
  2
LINEA GRUESA
  1
LLUMS
  2
llums
  1
LOT
  2
lot
  1
LVL
  2
lvl
  1
MAGENTA
  2
Magenta
  1
MEDIA_TENSION
  2
Media Tension
  1
MEZZ
  2
mezz
  1
MILL
  2
mill
  1
MZ
  2
mz
  1
N-CLAV
  2
n-clav
  1
NEAL
  2
neal
  1
NELF
  2
nelf
  1
NO_XREF
  2
no xref
  1
OI
  2
oi
  1
OU-AREA
  2
ou-area
  1
P
  2
p
  1
P-2
  2
p-2
  1
P00
  2
p00
  1
P01
  2
p01
  1
P02
  2
p02
  1
P03
  2
p03
  1
P1401
  2
p1401
  1
P14P-2
  2
p14p-2
  1
P14P00
  2
p14p00
  1
P4
  2
p4
  1
PA
  2
Pa
  1
PARCELA
  2
Parcela
  1
PASILLO
  2
pasillo
  1
PATT
  2
patt
  1
PB
  2
pb
  1
PIEZA_DE_CRISTAL
  2
pieza de cristal
  1
PILARES
  2
pilares
  1
PIPES
  2
pipes
  1
PIPES1
  2
Pipes1
  1
PIPING_PLAN2
  2
PIPING PLAN2
  1
PL
  2
pl
  1
PLANTA_BAJA
  2
Planta baja
  1
PLANTA_BAJA_ACT
  2
Planta baja ACT
  1
PLANTA_SUBSUELO
  2
Planta Subsuelo
  1
PLANTA_TÉCNICA
  2
Planta técnica
  1
PLOTEO
  2
ploteo
  1
PLUVIALES
  2
Pluviales
  1
POPOPO
  2
Popopo
  1
POZOS_AGUA
  2
Pozos_Agua
  1
POZOS_FECALES
  2
Pozos_Fecales
  1
POZOS_PLUVIALES
  2
Pozos_pluviales
  1
PQ
  2
Pq
  1
RED
  2
red
  1
RIEGO
  2
Riego
  1
ROOM
  2
room
  1
SCALE200
  2
scale200
  1
SE
  2
se
  1
SECC
  2
secc
  1
SEGUNDA
  2
segunda
  1
SEGUNDABIS
  2
segundabis
  1
SENY_HORIT
  2
seny_horit
  1
SITE
  2
site
  1
SOLO_CAPA
  2
SOLO CAPA
  1
SPACE_PLANNING
  2
space planning
  1
STRUCTURAL
  2
structural
  1
SUP01
  2
sup01
  1
SUP02
  2
sup02
  1
SUP03
  2
sup03
  1
SUP04
  2
sup04
  1
SUPERFICIES
  2
superficies
  1
TALLERES
  2
talleres
  1
TEMP
  2
temp
  1
TEXT
  2
text
  1
THAWED
  2
Thawed
  1
TMP
  2
tmp
  1
TOPO
  2
topo
  1
TRABAJO
  2
trabajo
  1
TRAM
  2
tram
  1
TRAMA
  2
trama
  1
TRAMAS
  2
tramas
  1
UISKAS
  2
uiskas
  1
UNI
  2
uni
  1
URBAN
  2
urban
  1
UTILIZADAS
  2
Utilizadas
  1
VISTAS
  2
vistas
  1
WE
  2
we
  1
WHITE
  2
white
  1
WINDOW
  2
window
  1
YO
  2
yo
  1
YUZEYLER
  2
yuzeyler
  0
ENDSEC
  0
EOF
