  0
SECTION
  2
HEADER
  9
$ACADVER
  1
AC1014
  9
$ACADMAINTVER
 70
     0
  9
$DWGCODEPAGE
  3
ANSI_1252
  9
$INSBASE
 10
0.0
 20
0.0
 30
0.0
  9
$EXTMIN
 10
-762.694652
 20
-77.879433
 30
-0.002157
  9
$EXTMAX
 10
5164.516636
 20
1864.931017
 30
0.00006
  9
$LIMMIN
 10
0.0
 20
0.0
  9
$LIMMAX
 10
0.0
 20
0.0
  9
$ORTHOMODE
 70
     0
  9
$REGENMODE
 70
     1
  9
$FILLMODE
 70
     1
  9
$QTEXTMODE
 70
     0
  9
$MIRRTEXT
 70
     1
  9
$DRAGMODE
 70
     2
  9
$LTSCALE
 40
100.0
  9
$OSMODE
 70
    35
  9
$ATTMODE
 70
     1
  9
$TEXTSIZE
 40
0.2
  9
$TRACEWID
 40
0.05
  9
$TEXTSTYLE
  7
G500-TXT
  9
$CLAYER
  8
EP
  9
$CELTYPE
  6
BYLAYER
  9
$CECOLOR
 62
   256
  9
$CELTSCALE
 40
1.0
  9
$DELOBJ
 70
     1
  9
$DISPSILH
 70
     0
  9
$DIMSCALE
 40
1.0
  9
$DIMASZ
 40
8.5
  9
$DIMEXO
 40
40.0
  9
$DIMDLI
 40
0.16
  9
$DIMRND
 40
0.0
  9
$DIMDLE
 40
0.0
  9
$DIMEXE
 40
40.0
  9
$DIMTP
 40
0.0
  9
$DIMTM
 40
0.0
  9
$DIMTXT
 40
18.0
  9
$DIMCEN
 40
0.18
  9
$DIMTSZ
 40
0.0
  9
$DIMTOL
 70
     0
  9
$DIMLIM
 70
     0
  9
$DIMTIH
 70
     0
  9
$DIMTOH
 70
     0
  9
$DIMSE1
 70
     0
  9
$DIMSE2
 70
     0
  9
$DIMTAD
 70
     1
  9
$DIMZIN
 70
     0
  9
$DIMBLK
  1
$0$_DOT
  9
$DIMASO
 70
     1
  9
$DIMSHO
 70
     1
  9
$DIMPOST
  1
m
  9
$DIMAPOST
  1

  9
$DIMALT
 70
     0
  9
$DIMALTD
 70
     2
  9
$DIMALTF
 40
25.4
  9
$DIMLFAC
 40
0.01
  9
$DIMTOFL
 70
     0
  9
$DIMTVP
 40
0.0
  9
$DIMTIX
 70
     0
  9
$DIMSOXD
 70
     0
  9
$DIMSAH
 70
     0
  9
$DIMBLK1
  1

  9
$DIMBLK2
  1

  9
$DIMSTYLE
  2
COPIA_DE_DIM-100
  9
$DIMCLRD
 70
     1
  9
$DIMCLRE
 70
     1
  9
$DIMCLRT
 70
     0
  9
$DIMTFAC
 40
1.0
  9
$DIMGAP
 40
20.0
  9
$DIMJUST
 70
     0
  9
$DIMSD1
 70
     0
  9
$DIMSD2
 70
     0
  9
$DIMTOLJ
 70
     1
  9
$DIMTZIN
 70
     0
  9
$DIMALTZ
 70
     0
  9
$DIMALTTZ
 70
     0
  9
$DIMFIT
 70
     3
  9
$DIMUPT
 70
     0
  9
$DIMUNIT
 70
     2
  9
$DIMDEC
 70
     2
  9
$DIMTDEC
 70
     2
  9
$DIMALTU
 70
     2
  9
$DIMALTTD
 70
     2
  9
$DIMTXSTY
  7
ROMANS
  9
$DIMAUNIT
 70
     0
  9
$LUNITS
 70
     2
  9
$LUPREC
 70
     4
  9
$SKETCHINC
 40
0.1
  9
$FILLETRAD
 40
0.0
  9
$AUNITS
 70
     0
  9
$AUPREC
 70
     0
  9
$MENU
  1
acad
  9
$ELEVATION
 40
0.0
  9
$PELEVATION
 40
0.0
  9
$THICKNESS
 40
0.0
  9
$LIMCHECK
 70
     0
  9
$BLIPMODE
 70
     0
  9
$CHAMFERA
 40
0.0
  9
$CHAMFERB
 40
0.0
  9
$CHAMFERC
 40
0.0
  9
$CHAMFERD
 40
0.0
  9
$SKPOLY
 70
     0
  9
$TDCREATE
 40
2452794.580567129
  9
$TDUPDATE
 40
2452905.611287476
  9
$TDINDWG
 40
7.2875042824
  9
$TDUSRTIMER
 40
7.2875042824
  9
$USRTIMER
 70
     1
  9
$ANGBASE
 50
0.0
  9
$ANGDIR
 70
     0
  9
$PDMODE
 70
     3
  9
$PDSIZE
 40
0.0
  9
$PLINEWID
 40
0.0
  9
$COORDS
 70
     1
  9
$SPLFRAME
 70
     0
  9
$SPLINETYPE
 70
     6
  9
$SPLINESEGS
 70
     8
  9
$ATTDIA
 70
     0
  9
$ATTREQ
 70
     1
  9
$HANDLING
 70
     1
  9
$HANDSEED
  5
915
  9
$SURFTAB1
 70
     6
  9
$SURFTAB2
 70
     6
  9
$SURFTYPE
 70
     6
  9
$SURFU
 70
     6
  9
$SURFV
 70
     6
  9
$UCSNAME
  2

  9
$UCSORG
 10
0.0
 20
0.0
 30
0.0
  9
$UCSXDIR
 10
1.0
 20
0.0
 30
0.0
  9
$UCSYDIR
 10
0.0
 20
1.0
 30
0.0
  9
$PUCSNAME
  2

  9
$PUCSORG
 10
0.0
 20
0.0
 30
0.0
  9
$PUCSXDIR
 10
1.0
 20
0.0
 30
0.0
  9
$PUCSYDIR
 10
0.0
 20
1.0
 30
0.0
  9
$USERI1
 70
     0
  9
$USERI2
 70
     0
  9
$USERI3
 70
     0
  9
$USERI4
 70
     0
  9
$USERI5
 70
     0
  9
$USERR1
 40
0.0
  9
$USERR2
 40
0.0
  9
$USERR3
 40
0.0
  9
$USERR4
 40
0.0
  9
$USERR5
 40
0.0
  9
$WORLDVIEW
 70
     1
  9
$SHADEDGE
 70
     3
  9
$SHADEDIF
 70
    70
  9
$TILEMODE
 70
     1
  9
$MAXACTVP
 70
    16
  9
$PINSBASE
 10
0.0
 20
0.0
 30
0.0
  9
$PLIMCHECK
 70
     0
  9
$PEXTMIN
 10
1025.766475
 20
-86.109117
 30
0.0
  9
$PEXTMAX
 10
2867.254382
 20
2052.189219
 30
0.0
  9
$PLIMMIN
 10
0.0
 20
0.0
  9
$PLIMMAX
 10
12.0
 20
9.0
  9
$UNITMODE
 70
     0
  9
$VISRETAIN
 70
     0
  9
$PLINEGEN
 70
     1
  9
$PSLTSCALE
 70
     0
  9
$TREEDEPTH
 70
  3020
  9
$PICKSTYLE
 70
     1
  9
$CMLSTYLE
  2
STANDARD
  9
$CMLJUST
 70
     0
  9
$CMLSCALE
 40
1.0
  9
$PROXYGRAPHICS
 70
     0
  9
$MEASUREMENT
 70
     0
  0
ENDSEC
  0
SECTION
  2
CLASSES
  0
CLASS
  1
LWPOLYLINE
  2
AcDbPolyline
  3
"AutoCAD"
 90
        0
280
     0
281
     1
  0
CLASS
  1
IMAGE
  2
AcDbRasterImage
  3
ISM
 90
      127
280
     1
281
     1
  0
CLASS
  1
OLE2FRAME
  2
AcDbOle2Frame
  3
""
 90
        0
280
     0
281
     1
  0
CLASS
  1
HATCH
  2
AcDbHatch
  3
"ACAD_SEDONA"
 90
        0
280
     0
281
     1
  0
CLASS
  1
DICTIONARYVAR
  2
AcDbDictionaryVar
  3
"AutoCAD"
 90
        0
280
     0
281
     0
  0
CLASS
  1
RASTERVARIABLES
  2
AcDbRasterVariables
  3
ISM
 90
        0
280
     1
281
     0
  0
CLASS
  1
IMAGEDEF
  2
AcDbRasterImageDef
  3
ISM
 90
        0
280
     1
281
     0
  0
CLASS
  1
IMAGEDEF_REACTOR
  2
AcDbRasterImageDefReactor
  3
ISM
 90
        1
280
     1
281
     0
  0
CLASS
  1
IDBUFFER
  2
AcDbIdBuffer
  3
"Acad"
 90
        0
280
     0
281
     0
  0
CLASS
  1
SPATIAL_FILTER
  2
AcDbSpatialFilter
  3
"Acad"
 90
        0
280
     0
281
     0
  0
CLASS
  1
XRECORD
  2
AcDbXrecord
  3
"<Built In>"
 90
        0
280
     0
281
     0
  0
CLASS
  1
SORTENTSTABLE
  2
AcDbSortentsTable
  3
"AutoCAD"
 90
        0
280
     0
281
     0
  0
CLASS
  1
LAYER_INDEX
  2
AcDbLayerIndex
  3
"Acad"
 90
        0
280
     0
281
     0
  0
CLASS
  1
SPATIAL_INDEX
  2
AcDbSpatialIndex
  3
"Acad"
 90
        0
280
     0
281
     0
  0
CLASS
  1
OBJECT_PTR
  2
CAseDLPNTableRecord
  3
ASE-LPNTableRecord
 90
        1
280
     1
281
     0
  0
CLASS
  1
LAYOUT
  2
AcDbLayout
  3
AutoCAD 2000
 90
        0
280
     1
281
     0
  0
CLASS
  1
PLOTSETTINGS
  2
AcDbPlotSettings
  3
AutoCAD 2000
 90
        0
280
     1
281
     0
  0
CLASS
  1
ACDBDICTIONARYWDFLT
  2
AcDbDictionaryWithDefault
  3
AutoCAD 2000
 90
        0
280
     1
281
     0
  0
CLASS
  1
ACDBPLACEHOLDER
  2
AcDbPlaceHolder
  3
AutoCAD 2000
 90
        0
280
     1
281
     0
  0
CLASS
  1
LONG_TRANSACTION
  2
AcDbLongTransaction
  3
AutoCAD 2000
 90
        0
280
     1
281
     0
  0
CLASS
  1
LWPOLYLINE
  2
AcDbPolyline
  3
"AutoCAD"
 90
        0
280
     0
281
     1
  0
CLASS
  1
HATCH
  2
AcDbHatch
  3
"ACAD_SEDONA"
 90
        0
280
     0
281
     1
  0
CLASS
  1
XRECORD
  2
AcDbXrecord
  3
"<Built In>"
 90
        0
280
     0
281
     0
  0
ENDSEC
  0
SECTION
  2
TABLES
  0
TABLE
  2
VPORT
  5
252
100
AcDbSymbolTable
 70
     2
  0
VPORT
  5
914
100
AcDbSymbolTableRecord
100
AcDbViewportTableRecord
  2
*ACTIVE
 70
     0
 10
0.0
 20
0.0
 11
1.0
 21
1.0
 12
-110.012102
 22
992.216635
 13
0.0
 23
0.0
 14
1.0
 24
1.0
 15
0.0
 25
0.0
 16
0.0
 26
0.0
 36
1.0
 17
0.0
 27
0.0
 37
0.0
 40
1.994789
 41
1.519126
 42
50.0
 43
0.0
 44
0.0
 50
0.0
 51
0.0
 71
     0
 72
   100
 73
     1
 74
     1
 75
     0
 76
     0
 77
     0
 78
     0
  0
ENDTAB
  0
TABLE
  2
LTYPE
  5
249
100
AcDbSymbolTable
 70
     3
  0
LTYPE
  5
24A
102
{ACAD_XDICTIONARY
360
24B
102
}
100
AcDbSymbolTableRecord
100
AcDbLinetypeTableRecord
  2
BYBLOCK
 70
     0
  3

 72
    65
 73
     0
 40
0.0
  0
LTYPE
  5
24D
102
{ACAD_XDICTIONARY
360
24E
102
}
100
AcDbSymbolTableRecord
100
AcDbLinetypeTableRecord
  2
BYLAYER
 70
     0
  3

 72
    65
 73
     0
 40
0.0
  0
LTYPE
  5
8
102
{ACAD_XDICTIONARY
360
9
102
}
100
AcDbSymbolTableRecord
100
AcDbLinetypeTableRecord
  2
CONTINUOUS
 70
     0
  3
Solid line
 72
    65
 73
     0
 40
0.0
  0
LTYPE
  5
430
100
AcDbSymbolTableRecord
100
AcDbLinetypeTableRecord
  2
DOT2
 70
     0
  3
Dot (.5x) .....................................
 72
    65
 73
     2
 40
3.175
 49
0.0
 74
     0
 49
-3.175
 74
     0
  0
LTYPE
  5
5D0
100
AcDbSymbolTableRecord
100
AcDbLinetypeTableRecord
  2
DASHDOT
 70
     0
  3
Dash dot __ . __ . __ . __ . __ . __ . __ . __
 72
    65
 73
     4
 40
1.0
 49
0.5
 74
     0
 49
-0.25
 74
     0
 49
0.0
 74
     0
 49
-0.25
 74
     0
  0
ENDTAB
  0
TABLE
  2
LAYER
  5
12
102
{ACAD_XDICTIONARY
360
13
102
}
100
AcDbSymbolTable
 70
    21
  0
LAYER
  5
7
100
AcDbSymbolTableRecord
100
AcDbLayerTableRecord
  2
0
 70
     0
 62
     7
  6
CONTINUOUS
  0
LAYER
  5
27B
100
AcDbSymbolTableRecord
100
AcDbLayerTableRecord
  2
_AA_PERFIL_AL
 70
     0
 62
   -52
  6
CONTINUOUS
  0
LAYER
  5
36B
100
AcDbSymbolTableRecord
100
AcDbLayerTableRecord
  2
_AA_ESTRUCTURA_HR
 70
     0
 62
    -3
  6
CONTINUOUS
  0
LAYER
  5
285
100
AcDbSymbolTableRecord
100
AcDbLayerTableRecord
  2
_AA_PIEDRA
 70
     0
 62
   -45
  6
CONTINUOUS
  0
LAYER
  5
2DC
100
AcDbSymbolTableRecord
100
AcDbLayerTableRecord
  2
_AA_PERFIL_AC
 70
     0
 62
    -2
  6
CONTINUOUS
  0
LAYER
  5
287
100
AcDbSymbolTableRecord
100
AcDbLayerTableRecord
  2
_AA_CARTONYESO
 70
     0
 62
  -140
  6
CONTINUOUS
  0
LAYER
  5
289
100
AcDbSymbolTableRecord
100
AcDbLayerTableRecord
  2
_AA_VIDRIO
 70
     0
 62
  -130
  6
CONTINUOUS
  0
LAYER
  5
26B
100
AcDbSymbolTableRecord
100
AcDbLayerTableRecord
  2
_AA_PROYECCION2
 70
     0
 62
  -251
  6
CONTINUOUS
  0
LAYER
  5
25E
100
AcDbSymbolTableRecord
100
AcDbLayerTableRecord
  2
_AA_AUXILIAR
 70
     0
 62
  -185
  6
CONTINUOUS
  0
LAYER
  5
42F
100
AcDbSymbolTableRecord
100
AcDbLayerTableRecord
  2
_AA_PROYECCION4
 70
     0
 62
  -181
  6
CONTINUOUS
  0
LAYER
  5
5D1
100
AcDbSymbolTableRecord
100
AcDbLayerTableRecord
  2
_AA_TEXTOS
 70
     0
 62
   240
  6
CONTINUOUS
  0
LAYER
  5
5D2
100
AcDbSymbolTableRecord
100
AcDbLayerTableRecord
  2
_AA_EJES
 70
     0
 62
  -183
  6
CONTINUOUS
  0
LAYER
  5
5D3
100
AcDbSymbolTableRecord
100
AcDbLayerTableRecord
  2
EP
 70
     0
 62
     1
  6
CONTINUOUS
  0
LAYER
  5
5D4
100
AcDbSymbolTableRecord
100
AcDbLayerTableRecord
  2
ESI
 70
     0
 62
     7
  6
CONTINUOUS
  0
LAYER
  5
5D5
100
AcDbSymbolTableRecord
100
AcDbLayerTableRecord
  2
ESE
 70
     0
 62
     7
  6
CONTINUOUS
  0
LAYER
  5
5D6
100
AcDbSymbolTableRecord
100
AcDbLayerTableRecord
  2
ESM
 70
     0
 62
     7
  6
CONTINUOUS
  0
LAYER
  5
5D7
100
AcDbSymbolTableRecord
100
AcDbLayerTableRecord
  2
VR
 70
     0
 62
     7
  6
CONTINUOUS
  0
LAYER
  5
5D8
100
AcDbSymbolTableRecord
100
AcDbLayerTableRecord
  2
MVB
 70
     0
 62
     7
  6
CONTINUOUS
  0
LAYER
  5
5D9
100
AcDbSymbolTableRecord
100
AcDbLayerTableRecord
  2
PEP
 70
     0
 62
     7
  6
CONTINUOUS
  0
LAYER
  5
5DA
100
AcDbSymbolTableRecord
100
AcDbLayerTableRecord
  2
MEP
 70
     0
 62
     1
  6
CONTINUOUS
  0
LAYER
  5
5DB
100
AcDbSymbolTableRecord
100
AcDbLayerTableRecord
  2
SEC-FS-VIGAS_CAJON
 70
     0
 62
    -7
  6
CONTINUOUS
  0
ENDTAB
  0
TABLE
  2
STYLE
  5
245
100
AcDbSymbolTable
 70
     3
  0
STYLE
  5
246
102
{ACAD_XDICTIONARY
360
247
102
}
100
AcDbSymbolTableRecord
100
AcDbTextStyleTableRecord
  2
STANDARD
 70
     0
 40
0.0
 41
1.0
 50
0.0
 71
     0
 42
0.0
  3
txt
  4

  0
STYLE
  5
25F
100
AcDbSymbolTableRecord
100
AcDbTextStyleTableRecord
  2
ROMANS
 70
     0
 40
0.0
 41
1.0
 50
0.0
 71
     0
 42
40.0
  3
romans.shx
  4

  0
STYLE
  5
260
100
AcDbSymbolTableRecord
100
AcDbTextStyleTableRecord
  2
G500-TXT
 70
     0
 40
0.0
 41
1.0
 50
0.0
 71
     0
 42
1.0
  3

  4

1001
ACAD
1000
Arial
1071
       34
  0
ENDTAB
  0
TABLE
  2
VIEW
  5
250
100
AcDbSymbolTable
 70
     0
  0
ENDTAB
  0
TABLE
  2
UCS
  5
251
100
AcDbSymbolTable
 70
     0
  0
ENDTAB
  0
TABLE
  2
APPID
  5
254
100
AcDbSymbolTable
 70
     2
  0
APPID
  5
B
100
AcDbSymbolTableRecord
100
AcDbRegAppTableRecord
  2
ACAD
 70
     0
  0
APPID
  5
283
100
AcDbSymbolTableRecord
100
AcDbRegAppTableRecord
  2
CONTENTBLOCKICON
 70
     0
  0
ENDTAB
  0
TABLE
  2
DIMSTYLE
  5
255
100
AcDbSymbolTable
 70
     2
  0
DIMSTYLE
105
262
102
{ACAD_XDICTIONARY
360
263
102
}
100
AcDbSymbolTableRecord
100
AcDbDimStyleTableRecord
  2
COPIA_DE_DIM-100
 70
     0
  3
m
  4

  5
$0$_DOT
  6

  7

 40
1.0
 41
8.5
 42
40.0
 43
0.16
 44
40.0
 45
0.0
 46
0.0
 47
0.0
 48
0.0
140
18.0
141
0.18
142
0.0
143
25.4
144
0.01
145
0.0
146
1.0
147
20.0
 71
     0
 72
     0
 73
     0
 74
     0
 75
     0
 76
     0
 77
     1
 78
     0
170
     0
171
     2
172
     0
173
     0
174
     0
175
     0
176
     1
177
     1
178
     0
270
     2
271
     2
272
     2
273
     2
274
     2
340
25F
275
     0
280
     0
281
     0
282
     0
283
     1
284
     0
285
     0
286
     0
287
     3
288
     0
  0
DIMSTYLE
105
5DC
102
{ACAD_XDICTIONARY
360
5DD
102
}
100
AcDbSymbolTableRecord
100
AcDbDimStyleTableRecord
  2
DIM-50
 70
     0
  3
m
  4

  5
$0$_DOT
  6

  7

 40
1.0
 41
4.25
 42
20.0
 43
0.08
 44
20.0
 45
0.0
 46
0.0
 47
0.0
 48
0.0
140
10.0
141
0.09
142
0.0
143
25.4
144
0.01
145
0.0
146
1.0
147
10.0
 71
     0
 72
     0
 73
     0
 74
     0
 75
     0
 76
     0
 77
     1
 78
     0
170
     0
171
     2
172
     0
173
     0
174
     0
175
     0
176
     1
177
     1
178
     0
270
     2
271
     2
272
     2
273
     2
274
     2
340
25F
275
     0
280
     0
281
     0
282
     0
283
     1
284
     0
285
     0
286
     0
287
     3
288
     0
  0
ENDTAB
  0
TABLE
  2
BLOCK_RECORD
  5
1
100
AcDbSymbolTable
 70
    16
  0
BLOCK_RECORD
  5
2
102
{ACAD_XDICTIONARY
360
3
102
}
100
AcDbSymbolTableRecord
100
AcDbBlockTableRecord
  2
*MODEL_SPACE
  0
BLOCK_RECORD
  5
D
102
{ACAD_XDICTIONARY
360
E
102
}
100
AcDbSymbolTableRecord
100
AcDbBlockTableRecord
  2
*PAPER_SPACE
  0
BLOCK_RECORD
  5
265
100
AcDbSymbolTableRecord
100
AcDbBlockTableRecord
  2
$0$_DOT
  0
BLOCK_RECORD
  5
332
102
{ACAD_XDICTIONARY
360
334
102
}
100
AcDbSymbolTableRecord
100
AcDbBlockTableRecord
  2
MALU90OPACO
1001
CONTENTBLOCKICON
1071
        0
1004
2800000020000000200000000100080000000000000400000000000000000000000000000000000000000000000080000080000000808000800000008000800080800000C0C0C000C0DCC000F0CAA6000020400000206000002080000020A0000020C0000020E00000400000004020000040400000406000004080000040A0
1004
000040C0000040E00000600000006020000060400000606000006080000060A0000060C0000060E00000800000008020000080400000806000008080000080A0000080C0000080E00000A0000000A0200000A0400000A0600000A0800000A0A00000A0C00000A0E00000C0000000C0200000C0400000C0600000C0800000C0
1004
A00000C0C00000C0E00000E0000000E0200000E0400000E0600000E0800000E0A00000E0C00000E0E00040000000400020004000400040006000400080004000A0004000C0004000E00040200000402020004020400040206000402080004020A0004020C0004020E000404000004040200040404000404060004040800040
1004
40A0004040C0004040E00040600000406020004060400040606000406080004060A0004060C0004060E00040800000408020004080400040806000408080004080A0004080C0004080E00040A0000040A0200040A0400040A0600040A0800040A0A00040A0C00040A0E00040C0000040C0200040C0400040C0600040C08000
1004
40C0A00040C0C00040C0E00040E0000040E0200040E0400040E0600040E0800040E0A00040E0C00040E0E00080000000800020008000400080006000800080008000A0008000C0008000E00080200000802020008020400080206000802080008020A0008020C0008020E00080400000804020008040400080406000804080
1004
008040A0008040C0008040E00080600000806020008060400080606000806080008060A0008060C0008060E00080800000808020008080400080806000808080008080A0008080C0008080E00080A0000080A0200080A0400080A0600080A0800080A0A00080A0C00080A0E00080C0000080C0200080C0400080C0600080C0
1004
800080C0A00080C0C00080C0E00080E0000080E0200080E0400080E0600080E0800080E0A00080E0C00080E0E000C0000000C0002000C0004000C0006000C0008000C000A000C000C000C000E000C0200000C0202000C0204000C0206000C0208000C020A000C020C000C020E000C0400000C0402000C0404000C0406000C0
1004
408000C040A000C040C000C040E000C0600000C0602000C0604000C0606000C0608000C060A000C060C000C060E000C0800000C0802000C0804000C0806000C0808000C080A000C080C000C080E000C0A00000C0A02000C0A04000C0A06000C0A08000C0A0A000C0A0C000C0A0E000C0C00000C0C02000C0C04000C0C06000
1004
C0C08000C0C0A000F0FBFF00A4A0A000808080000000FF0000FF000000FFFF00FF000000FF00FF00FFFF0000FFFFFF0000000000000000000000000000000000000000000000000000000000000000000000000000000000363636363636363636363636363636360000000000000000000000000000000036000000000000
1004
00000000000000003600000000000000000000000000000000360000000000000000000000000000360000000000000000000000000000000036000000000000000000000000000036000000000000000000000000000000003600000000000000000000000000003600000000000000000000000000000000360000000000
1004
00000000000000000036000000000000000000000000000000003600000000000000000000000000003600000000000000000000000000000000360000000000000000000000000000360000000000000000000000000000000036000000000000000000000000000036000000000000000000000000000000003600000000
1004
00000000000000000000360000000000000000000000000000000036000000000000000000000000000036000000000000000000000000000000003600000000000000000000000000003600000000000000000000000000000000360000000000000000000000000000360000000000000000000000000000000036000000
1004
00000000000000000000003600000000000000000000000000000000360000000000000000000000000000360000000000000000000000000000000036000000000000000000000000000036000000000000000000000000000000003600000000000000000000000000003600000000000000000000000000000000360000
1004
00000000000000000000000036000000000000000000000000000000003600000000000000000000000000003600000000000000000000000000000000360000000000000000000000000000360000000000000000000000000000000036000000000000000000000000000036000000000000000000000000000000003600
1004
00000000000000000000000000360000000000000000000000000000000036000000000000000000000000000036000000000000000000000000000000003600000000000000000000000000003600000000000000000000000000000000360000000000000000000000000000360000000000000000000000000000000036
1004
00000000000000000000000000003600000000000000000000000000000000360000000000000000000000000000360000000000000000000000000000000036000000000000000000000000000036000000000000000000000000000000003600000000000000000000000000003600000000000000000000000000000000
1004
3636363636363636363636363636363600000000000000000000000000000000000000000000000000000000000000000000000000000000
  0
BLOCK_RECORD
  5
33E
102
{ACAD_XDICTIONARY
360
341
102
}
100
AcDbSymbolTableRecord
100
AcDbBlockTableRecord
  2
MALU90SEMITRP
1001
CONTENTBLOCKICON
1071
        0
1004
2800000020000000200000000100080000000000000400000000000000000000000000000000000000000000000080000080000000808000800000008000800080800000C0C0C000C0DCC000F0CAA6000020400000206000002080000020A0000020C0000020E00000400000004020000040400000406000004080000040A0
1004
000040C0000040E00000600000006020000060400000606000006080000060A0000060C0000060E00000800000008020000080400000806000008080000080A0000080C0000080E00000A0000000A0200000A0400000A0600000A0800000A0A00000A0C00000A0E00000C0000000C0200000C0400000C0600000C0800000C0
1004
A00000C0C00000C0E00000E0000000E0200000E0400000E0600000E0800000E0A00000E0C00000E0E00040000000400020004000400040006000400080004000A0004000C0004000E00040200000402020004020400040206000402080004020A0004020C0004020E000404000004040200040404000404060004040800040
1004
40A0004040C0004040E00040600000406020004060400040606000406080004060A0004060C0004060E00040800000408020004080400040806000408080004080A0004080C0004080E00040A0000040A0200040A0400040A0600040A0800040A0A00040A0C00040A0E00040C0000040C0200040C0400040C0600040C08000
1004
40C0A00040C0C00040C0E00040E0000040E0200040E0400040E0600040E0800040E0A00040E0C00040E0E00080000000800020008000400080006000800080008000A0008000C0008000E00080200000802020008020400080206000802080008020A0008020C0008020E00080400000804020008040400080406000804080
1004
008040A0008040C0008040E00080600000806020008060400080606000806080008060A0008060C0008060E00080800000808020008080400080806000808080008080A0008080C0008080E00080A0000080A0200080A0400080A0600080A0800080A0A00080A0C00080A0E00080C0000080C0200080C0400080C0600080C0
1004
800080C0A00080C0C00080C0E00080E0000080E0200080E0400080E0600080E0800080E0A00080E0C00080E0E000C0000000C0002000C0004000C0006000C0008000C000A000C000C000C000E000C0200000C0202000C0204000C0206000C0208000C020A000C020C000C020E000C0400000C0402000C0404000C0406000C0
1004
408000C040A000C040C000C040E000C0600000C0602000C0604000C0606000C0608000C060A000C060C000C060E000C0800000C0802000C0804000C0806000C0808000C080A000C080C000C080E000C0A00000C0A02000C0A04000C0A06000C0A08000C0A0A000C0A0C000C0A0E000C0C00000C0C02000C0C04000C0C06000
1004
C0C08000C0C0A000F0FBFF00A4A0A000808080000000FF0000FF000000FFFF00FF000000FF00FF00FFFF0000FFFFFF0000000000000000000000000000000000000000000000000000000000000000000000000000000000000036363636363636363636363600000000000000000000000000000000000000003600000000
1004
00000000000036000000000000000000000000000000000000000036000000000000000000003600000000000000000000000000000000000000003600000000000000000000360000000000000000000000000000000000000000360000000000000000000036000000000000000000000000000000000000000036000000
1004
00000000000000360000000000000000000000000000000000000000360000000000000000000036000000000000000000000000000000000000000036000000000000000000003600000000000000000000000000000000000000003600000000000000000000360000000000000000000000000000000000000000360000
1004
00000000000000003600000000000000000000000000000000000000003600000000000000000000360000000000000000000000000000000000000000360000000000000000000036000000000000000000000000000000000000000036000000000000000000003600000000000000000000000000000000000000003600
1004
00000000000000000036000000000000000000000000000000000000000036000000000000000000003600000000000000000000000000000000000000003600000000000000000000360000000000000000000000000000000000000000360000000000000000000036000000000000000000000000000000000000000036
1004
00000000000000000000360000000000000000000000000000000000000000360000000000000000000036000000000000000000000000000000000000000036000000000000000000003600000000000000000000000000000000000000003600000000000000000000360000000000000000000000000000000000000000
1004
36363636363636363636363600000000000000000000000000000000000000000000000000000000000000000000000000000000000000000000000000000000000000000000000000000000000000000000000000000000000000000000000000000000000000000000000000000000000000000000000000000000000000
1004
00000000363636363636000000000000000000000000000000000000000000000000000036363636363600000000000000000000000000000000000000000000000000003636000036360000000000000000000000000000000000000000000000363636363600003636363636000000000000000000000000000000000000
1004
0000363636363600003636363636000000000000000000000000000000000000000000000000000000000000000000000000000000000000
  0
BLOCK_RECORD
  5
35C
100
AcDbSymbolTableRecord
100
AcDbBlockTableRecord
  2
MALU90B
1001
CONTENTBLOCKICON
1071
        0
1004
2800000020000000200000000100080000000000000400000000000000000000000000000000000000000000000080000080000000808000800000008000800080800000C0C0C000C0DCC000F0CAA6000020400000206000002080000020A0000020C0000020E00000400000004020000040400000406000004080000040A0
1004
000040C0000040E00000600000006020000060400000606000006080000060A0000060C0000060E00000800000008020000080400000806000008080000080A0000080C0000080E00000A0000000A0200000A0400000A0600000A0800000A0A00000A0C00000A0E00000C0000000C0200000C0400000C0600000C0800000C0
1004
A00000C0C00000C0E00000E0000000E0200000E0400000E0600000E0800000E0A00000E0C00000E0E00040000000400020004000400040006000400080004000A0004000C0004000E00040200000402020004020400040206000402080004020A0004020C0004020E000404000004040200040404000404060004040800040
1004
40A0004040C0004040E00040600000406020004060400040606000406080004060A0004060C0004060E00040800000408020004080400040806000408080004080A0004080C0004080E00040A0000040A0200040A0400040A0600040A0800040A0A00040A0C00040A0E00040C0000040C0200040C0400040C0600040C08000
1004
40C0A00040C0C00040C0E00040E0000040E0200040E0400040E0600040E0800040E0A00040E0C00040E0E00080000000800020008000400080006000800080008000A0008000C0008000E00080200000802020008020400080206000802080008020A0008020C0008020E00080400000804020008040400080406000804080
1004
008040A0008040C0008040E00080600000806020008060400080606000806080008060A0008060C0008060E00080800000808020008080400080806000808080008080A0008080C0008080E00080A0000080A0200080A0400080A0600080A0800080A0A00080A0C00080A0E00080C0000080C0200080C0400080C0600080C0
1004
800080C0A00080C0C00080C0E00080E0000080E0200080E0400080E0600080E0800080E0A00080E0C00080E0E000C0000000C0002000C0004000C0006000C0008000C000A000C000C000C000E000C0200000C0202000C0204000C0206000C0208000C020A000C020C000C020E000C0400000C0402000C0404000C0406000C0
1004
408000C040A000C040C000C040E000C0600000C0602000C0604000C0606000C0608000C060A000C060C000C060E000C0800000C0802000C0804000C0806000C0808000C080A000C080C000C080E000C0A00000C0A02000C0A04000C0A06000C0A08000C0A0A000C0A0C000C0A0E000C0C00000C0C02000C0C04000C0C06000
1004
C0C08000C0C0A000F0FBFF00A4A0A000808080000000FF0000FF000000FFFF00FF000000FF00FF00FFFF0000FFFFFF0000000000000000000000000000000000000000000000000000000000000000000000000000000000000000363636363636363636360000000000000000000000000000000000000000000036000000
1004
00000000003600000000000000000000000000000000000000000000360000000000000000360000000000000000000000000000000000000000000036000000000000000036000000000000000000000000000000000000000000003600000000000000003600000000000000000000000000000000000000000000360000
1004
00000000000036000000000000000000000000000000000000000000003600000000000000003600000000000000000000000000000000000000000000360000000000000000360000000000000000000000000000000000000000000036000000000000000036000000000000000000000000000000000000000000003600
1004
00000000000000360000000000000000000000000000000000000000000036000000000000000036000000000000000000000000000000000000000000003600000000000000003600000000000000000000000000000000000000000000360000000000000000360000000000000000000000000000000000000000000036
1004
00000000000000003600000000000000000000000000000000000000000000360000000000000000360000000000000000000000000000000000000000000036000000000000000036000000000000000000000000000000000000000000003600000000000000003600000000000000000000000000000000000000000000
1004
36000000000000000036000000000000000000000000000000000000000000003636363636363636363600000000000000000000000000000000000000000000000000000036000000360000000000000000000000000000000000000000000000000000003600000036000000000000000000000000000000000000000000
1004
00000000000036000000360000000000000000000000000000000000000000000000000000003636363636000000000000000000000000000000000000000000003636363636363600000000000000000000000000000000000000000000000000360000000000360000000000000000000000000000000000000000000000
1004
00003600000000003600000000000000000000000000000000000000000000000000363636363636360000000000000000000000000000000000000000000000000000000000000036000000000000000000000000000000000000000000000000000000000000003636363600000000000000000000000000000000000000
1004
0000000000000000003636363600000000000000000000000000000000000000000000000000000000000000000000000000000000000000
  0
BLOCK_RECORD
  5
34A
100
AcDbSymbolTableRecord
100
AcDbBlockTableRecord
  2
MALU90
1001
CONTENTBLOCKICON
1071
        0
1004
2800000020000000200000000100080000000000000400000000000000000000000000000000000000000000000080000080000000808000800000008000800080800000C0C0C000C0DCC000F0CAA6000020400000206000002080000020A0000020C0000020E00000400000004020000040400000406000004080000040A0
1004
000040C0000040E00000600000006020000060400000606000006080000060A0000060C0000060E00000800000008020000080400000806000008080000080A0000080C0000080E00000A0000000A0200000A0400000A0600000A0800000A0A00000A0C00000A0E00000C0000000C0200000C0400000C0600000C0800000C0
1004
A00000C0C00000C0E00000E0000000E0200000E0400000E0600000E0800000E0A00000E0C00000E0E00040000000400020004000400040006000400080004000A0004000C0004000E00040200000402020004020400040206000402080004020A0004020C0004020E000404000004040200040404000404060004040800040
1004
40A0004040C0004040E00040600000406020004060400040606000406080004060A0004060C0004060E00040800000408020004080400040806000408080004080A0004080C0004080E00040A0000040A0200040A0400040A0600040A0800040A0A00040A0C00040A0E00040C0000040C0200040C0400040C0600040C08000
1004
40C0A00040C0C00040C0E00040E0000040E0200040E0400040E0600040E0800040E0A00040E0C00040E0E00080000000800020008000400080006000800080008000A0008000C0008000E00080200000802020008020400080206000802080008020A0008020C0008020E00080400000804020008040400080406000804080
1004
008040A0008040C0008040E00080600000806020008060400080606000806080008060A0008060C0008060E00080800000808020008080400080806000808080008080A0008080C0008080E00080A0000080A0200080A0400080A0600080A0800080A0A00080A0C00080A0E00080C0000080C0200080C0400080C0600080C0
1004
800080C0A00080C0C00080C0E00080E0000080E0200080E0400080E0600080E0800080E0A00080E0C00080E0E000C0000000C0002000C0004000C0006000C0008000C000A000C000C000C000E000C0200000C0202000C0204000C0206000C0208000C020A000C020C000C020E000C0400000C0402000C0404000C0406000C0
1004
408000C040A000C040C000C040E000C0600000C0602000C0604000C0606000C0608000C060A000C060C000C060E000C0800000C0802000C0804000C0806000C0808000C080A000C080C000C080E000C0A00000C0A02000C0A04000C0A06000C0A08000C0A0A000C0A0C000C0A0E000C0C00000C0C02000C0C04000C0C06000
1004
C0C08000C0C0A000F0FBFF00A4A0A000808080000000FF0000FF000000FFFF00FF000000FF00FF00FFFF0000FFFFFF0000000000000000000000000000000000000000000000000000000000000000000000000000000000000036363636363636363636363600000000000000000000000000000000000000003600000000
1004
00000000000036000000000000000000000000000000000000000036000000000000000000003600000000000000000000000000000000000000003600000000000000000000360000000000000000000000000000000000000000360000000000000000000036000000000000000000000000000000000000000036000000
1004
00000000000000360000000000000000000000000000000000000000360000000000000000000036000000000000000000000000000000000000000036000000000000000000003600000000000000000000000000000000000000003600000000000000000000360000000000000000000000000000000000000000360000
1004
00000000000000003600000000000000000000000000000000000000003600000000000000000000360000000000000000000000000000000000000000360000000000000000000036000000000000000000000000000000000000000036000000000000000000003600000000000000000000000000000000000000003600
1004
00000000000000000036000000000000000000000000000000000000000036000000000000000000003600000000000000000000000000000000000000003600000000000000000000360000000000000000000000000000000000000000360000000000000000000036000000000000000000000000000000000000000036
1004
00000000000000000000360000000000000000000000000000000000000000360000000000000000000036000000000000000000000000000000000000000036363636363636363636363600000000000000000000000000000000000000000000000000000000000000000000000000000000000000000000000000000000
1004
00000000000000000000000000000000000000000000000000000000000000000000000000000000000000000000000000000000000000000000000000000000000000000000000000000000000000000000000000000000000000000000000000000000000000000000000000000000000000000000000000000000000000
1004
00363636363636363636363636000000000000000000000000000000000000000036000000000000000000003600000000000000000000000000000000000000003600000000000000000000360000000000000000000000000000000000000000360000000000000000000036000000000000000000000000000000000000
1004
0000363636363636363636363636000000000000000000000000000000000000000000000000000000000000000000000000000000000000
  0
BLOCK_RECORD
  5
27C
102
{ACAD_XDICTIONARY
360
27F
102
}
100
AcDbSymbolTableRecord
100
AcDbBlockTableRecord
  2
MALU90SEMITRP_OP
1001
CONTENTBLOCKICON
1071
        0
1004
2800000020000000200000000100080000000000000400000000000000000000000000000000000000000000000080000080000000808000800000008000800080800000C0C0C000C0DCC000F0CAA6000020400000206000002080000020A0000020C0000020E00000400000004020000040400000406000004080000040A0
1004
000040C0000040E00000600000006020000060400000606000006080000060A0000060C0000060E00000800000008020000080400000806000008080000080A0000080C0000080E00000A0000000A0200000A0400000A0600000A0800000A0A00000A0C00000A0E00000C0000000C0200000C0400000C0600000C0800000C0
1004
A00000C0C00000C0E00000E0000000E0200000E0400000E0600000E0800000E0A00000E0C00000E0E00040000000400020004000400040006000400080004000A0004000C0004000E00040200000402020004020400040206000402080004020A0004020C0004020E000404000004040200040404000404060004040800040
1004
40A0004040C0004040E00040600000406020004060400040606000406080004060A0004060C0004060E00040800000408020004080400040806000408080004080A0004080C0004080E00040A0000040A0200040A0400040A0600040A0800040A0A00040A0C00040A0E00040C0000040C0200040C0400040C0600040C08000
1004
40C0A00040C0C00040C0E00040E0000040E0200040E0400040E0600040E0800040E0A00040E0C00040E0E00080000000800020008000400080006000800080008000A0008000C0008000E00080200000802020008020400080206000802080008020A0008020C0008020E00080400000804020008040400080406000804080
1004
008040A0008040C0008040E00080600000806020008060400080606000806080008060A0008060C0008060E00080800000808020008080400080806000808080008080A0008080C0008080E00080A0000080A0200080A0400080A0600080A0800080A0A00080A0C00080A0E00080C0000080C0200080C0400080C0600080C0
1004
800080C0A00080C0C00080C0E00080E0000080E0200080E0400080E0600080E0800080E0A00080E0C00080E0E000C0000000C0002000C0004000C0006000C0008000C000A000C000C000C000E000C0200000C0202000C0204000C0206000C0208000C020A000C020C000C020E000C0400000C0402000C0404000C0406000C0
1004
408000C040A000C040C000C040E000C0600000C0602000C0604000C0606000C0608000C060A000C060C000C060E000C0800000C0802000C0804000C0806000C0808000C080A000C080C000C080E000C0A00000C0A02000C0A04000C0A06000C0A08000C0A0A000C0A0C000C0A0E000C0C00000C0C02000C0C04000C0C06000
1004
C0C08000C0C0A000F0FBFF00A4A0A000808080000000FF0000FF000000FFFF00FF000000FF00FF00FFFF0000FFFFFF0000000000000000000000000000000000000000000000000000000000000000000000000000000000000000000000000000000000000000000000000000000000000000000000000000000000000000
1004
00000000000000000000000000000000000000000000000000000000000000000000000000000000000000000000000000000000000000000000000000000000000000000000000000000000000000000000000036000000000000000000000000000000000000000000000000000000000000003600000000000000000000
1004
00000000000000000000000000000000000000003636000000000000000000000000000000000000000000000000000000000000360000000000000036360000000000000000000000000000000000000000003636360000000000003600363636000000000000000000000000000000000000000036363600000036000000
1004
00003636360000000000000000000000000000000000003636000000360000000000000000363636000000000000000000000000000000360000000036000000000000000000000036360000000000000000000000000000000000360000000000000000000000000000363636000000000000000000000000000036000000
1004
00000000000000000000000000003636360000000000000000000036000000000000000000000000000000000000000000363600000000000000003600000000000000000000000000000000000000000000360000000000000000360000000000000000000000000000000000000000003600000000000000003600000000
1004
00000000000000000000000000000000000036000000000000000036360000000000000000000000000000000000000000003600000000000000000000363636000000000000000000000000000000000036000000000000000000000000000036363600000000000000000000000000003600000000000000000000000000
1004
00000000363600000000000000000000003600000000000000000000000000000000000000003636360000000000000000360000000000000000000000000000000000000000000000363636000000000036000000000000000000000000000000000000000000000000000036363600360000000000000000000000000000
1004
00000000000000000000000000000000363600000000000000000000000000000000000000000000000000000000000000000000000000000000000000000000000000000000000000000000000000000000000000000000000000000000000000000000000000000000000000000000000000000000000000000000000000
1004
0000000000000000000000000000000000000000000000000000000000000000000000000000000000000000000000000000000000000000
  0
BLOCK_RECORD
  5
444
100
AcDbSymbolTableRecord
100
AcDbBlockTableRecord
  2
APOYOINFERIOR
  0
BLOCK_RECORD
  5
449
100
AcDbSymbolTableRecord
100
AcDbBlockTableRecord
  2
APOYOVB
  0
BLOCK_RECORD
  5
44E
100
AcDbSymbolTableRecord
100
AcDbBlockTableRecord
  2
VIGATSECUN
  0
BLOCK_RECORD
  5
453
100
AcDbSymbolTableRecord
100
AcDbBlockTableRecord
  2
VIGATPRIM
  0
BLOCK_RECORD
  5
458
100
AcDbSymbolTableRecord
100
AcDbBlockTableRecord
  2
M12
  0
BLOCK_RECORD
  5
4DC
100
AcDbSymbolTableRecord
100
AcDbBlockTableRecord
  2
VB
  0
BLOCK_RECORD
  5
4E1
100
AcDbSymbolTableRecord
100
AcDbBlockTableRecord
  2
VB2
  0
BLOCK_RECORD
  5
4E6
100
AcDbSymbolTableRecord
100
AcDbBlockTableRecord
  2
APOYOPRINCIPAL
  0
BLOCK_RECORD
  5
4EB
100
AcDbSymbolTableRecord
100
AcDbBlockTableRecord
  2
M2
  0
BLOCK_RECORD
  5
5DF
100
AcDbSymbolTableRecord
100
AcDbBlockTableRecord
  2
PRUEBA
  0
ENDTAB
  0
ENDSEC
  0
SECTION
  2
BLOCKS
  0
BLOCK
  5
6
100
AcDbEntity
  8
0
100
AcDbBlockBegin
  2
*MODEL_SPACE
 70
     0
 10
0.0
 20
0.0
 30
0.0
  3
*MODEL_SPACE
  1

1001
ACAD
1000
RTLwPs
1070
   159
  0
ENDBLK
  5
C
100
AcDbEntity
  8
0
100
AcDbBlockEnd
1001
ACAD
1000
RTLwPs
1070
   159
  0
BLOCK
  5
10
100
AcDbEntity
 67
     1
  8
0
100
AcDbBlockBegin
  2
*PAPER_SPACE
 70
     0
 10
0.0
 20
0.0
 30
0.0
  3
*PAPER_SPACE
  1

1001
ACAD
1000
RTLwPs
1070
   159
  0
ENDBLK
  5
11
100
AcDbEntity
 67
     1
  8
0
100
AcDbBlockEnd
1001
ACAD
1000
RTLwPs
1070
   159
  0
BLOCK
  5
268
100
AcDbEntity
  8
0
100
AcDbBlockBegin
  2
$0$_DOT
 70
     0
 10
0.0
 20
0.0
 30
0.0
  3
$0$_DOT
  1

  0
LWPOLYLINE
  5
266
100
AcDbEntity
  8
0
  6
BYBLOCK
 62
     0
100
AcDbPolyline
 90
        2
 70
     1
 43
0.5
 10
-0.25
 20
0.0
 42
1.0
 10
0.25
 20
0.0
 42
1.0
  0
LINE
  5
267
100
AcDbEntity
  8
0
  6
BYBLOCK
 62
     0
100
AcDbLine
 10
-0.5
 20
0.0
 30
0.0
 11
-1.0
 21
0.0
 31
0.0
  0
ENDBLK
  5
269
100
AcDbEntity
  8
0
100
AcDbBlockEnd
  0
BLOCK
  5
336
100
AcDbEntity
  8
0
100
AcDbBlockBegin
  2
MALU90OPACO
 70
     0
 10
0.0
 20
0.0
 30
0.0
  3
MALU90OPACO
  1

  0
LWPOLYLINE
  5
333
100
AcDbEntity
  8
_AA_PERFIL_AL
100
AcDbPolyline
 90
        4
 70
     1
 43
0.0
 10
-5.000006
 20
-5.8
 10
4.999995
 20
-5.8
 10
4.999994
 20
-23.8
 10
-5.000006
 20
-23.8
  0
ENDBLK
  5
337
100
AcDbEntity
  8
0
100
AcDbBlockEnd
  0
BLOCK
  5
343
100
AcDbEntity
  8
0
100
AcDbBlockBegin
  2
MALU90SEMITRP
 70
     0
 10
0.0
 20
0.0
 30
0.0
  3
MALU90SEMITRP
  1

  0
LWPOLYLINE
  5
33F
100
AcDbEntity
  8
_AA_PERFIL_AL
100
AcDbPolyline
 90
       12
 70
   129
 43
0.0
 10
-4.853379
 20
0.95554
 10
-1.649923
 20
0.95554
 10
-1.649923
 20
-1.661917
 10
1.649923
 20
-1.661917
 10
1.649923
 20
0.95554
 10
4.853379
 20
0.95554
 10
4.853379
 20
0.35554
 10
1.949923
 20
0.35554
 10
1.949923
 20
-2.261917
 10
-1.949923
 20
-2.261917
 10
-1.949923
 20
0.35554
 10
-4.853379
 20
0.35554
  0
LWPOLYLINE
  5
340
100
AcDbEntity
  8
_AA_PERFIL_AL
100
AcDbPolyline
 90
        4
 70
     1
 43
0.0
 10
-5.000006
 20
-5.600001
 10
4.999995
 20
-5.600001
 10
4.999994
 20
-23.600001
 10
-5.000006
 20
-23.600001
  0
ENDBLK
  5
344
100
AcDbEntity
  8
0
100
AcDbBlockEnd
  0
BLOCK
  5
361
100
AcDbEntity
  8
0
100
AcDbBlockBegin
  2
MALU90B
 70
     0
 10
0.0
 20
0.0
 30
0.0
  3
MALU90B
  1

1001
ACAD
1000
RTLwPs
1070
   128
  0
LWPOLYLINE
  5
35D
100
AcDbEntity
  8
_AA_PERFIL_AL
100
AcDbPolyline
 90
        4
 70
     1
 43
0.0
 10
-5.0
 20
3.750152
 10
1.673683
 20
3.75005
 10
1.67364
 20
0.45005
 10
-5.0
 20
0.449999
  0
LWPOLYLINE
  5
35E
100
AcDbEntity
  8
_AA_PERFIL_AL
100
AcDbPolyline
 90
        6
 70
   129
 43
0.0
 10
1.67367
 20
2.738082
 10
1.673683
 20
5.955539
 10
4.877139
 20
5.955539
 10
4.877139
 20
5.355539
 10
1.973683
 20
5.355539
 10
1.973683
 20
2.738082
1001
ACAD
1000
RTLwPs
1070
   128
  0
LWPOLYLINE
  5
35F
100
AcDbEntity
  8
_AA_PERFIL_AL
100
AcDbPolyline
 90
        4
 70
     1
 43
0.0
 10
-5.0
 20
-5.600001
 10
5.0
 20
-5.600001
 10
4.999999
 20
-23.600001
 10
-5.000001
 20
-23.600001
  0
LWPOLYLINE
  5
360
100
AcDbEntity
  8
_AA_PERFIL_AL
100
AcDbPolyline
 90
        6
 70
   129
 43
0.0
 10
0.061355
 20
-1.075308
 10
4.957999
 20
-1.075308
 10
4.957999
 20
-4.789786
 10
0.061355
 20
-4.789786
 10
0.061355
 20
-4.789786
 10
0.061355
 20
-4.789786
1001
ACAD
1000
RTLwPs
1070
   128
  0
ENDBLK
  5
362
100
AcDbEntity
  8
0
100
AcDbBlockEnd
1001
ACAD
1000
RTLwPs
1070
   128
  0
BLOCK
  5
34D
100
AcDbEntity
  8
0
100
AcDbBlockBegin
  2
MALU90
 70
     0
 10
0.0
 20
0.0
 30
0.0
  3
MALU90
  1

1001
ACAD
1000
RTLwPs
1070
   128
  0
LWPOLYLINE
  5
34B
100
AcDbEntity
  8
_AA_PERFIL_AL
100
AcDbPolyline
 90
        4
 70
     1
 43
0.0
 10
-5.0
 20
3.650153
 10
5.0
 20
3.65
 10
4.999957
 20
0.35
 10
-5.0
 20
0.35
  0
LWPOLYLINE
  5
34C
100
AcDbEntity
  8
_AA_PERFIL_AL
100
AcDbPolyline
 90
        4
 70
     1
 43
0.0
 10
-5.0
 20
-5.7
 10
5.000001
 20
-5.7
 10
4.999999
 20
-23.7
 10
-5.000001
 20
-23.7
  0
ENDBLK
  5
34E
100
AcDbEntity
  8
0
100
AcDbBlockEnd
1001
ACAD
1000
RTLwPs
1070
   128
  0
BLOCK
  5
281
100
AcDbEntity
  8
0
100
AcDbBlockBegin
  2
MALU90SEMITRP_OP
 70
     0
 10
0.0
 20
0.0
 30
0.0
  3
MALU90SEMITRP_OP
  1

1001
ACAD
1000
RTLwPs
1070
   128
  0
LWPOLYLINE
  5
27D
100
AcDbEntity
  8
_AA_PERFIL_AL
100
AcDbPolyline
 90
        9
 70
   129
 43
0.0
 10
0.000005
 20
-2.261917
 10
-1.949918
 20
-2.261917
 10
-1.949918
 20
0.35554
 10
-4.853374
 20
0.35554
 10
-4.853374
 20
0.95554
 10
-1.649918
 20
0.95554
 10
-1.649918
 20
-1.661917
 10
0.000005
 20
-1.661917
 10
0.000005
 20
-2.261917
  0
LWPOLYLINE
  5
27E
100
AcDbEntity
  8
_AA_PERFIL_AL
100
AcDbPolyline
 90
        4
 70
     1
 43
0.0
 10
-5.0
 20
-5.600001
 10
5.0
 20
-5.600001
 10
4.999999
 20
-23.600001
 10
-5.000001
 20
-23.600001
  0
ENDBLK
  5
282
100
AcDbEntity
  8
0
100
AcDbBlockEnd
1001
ACAD
1000
RTLwPs
1070
   128
  0
BLOCK
  5
447
100
AcDbEntity
  8
0
100
AcDbBlockBegin
  2
APOYOINFERIOR
 70
     0
 10
0.0
 20
0.0
 30
0.0
  3
APOYOINFERIOR
  1

  0
LINE
  5
445
100
AcDbEntity
  8
_AA_TEXTOS
100
AcDbLine
 10
0.0
 20
0.0
 30
0.0
 11
-30.264833
 21
-33.393755
 31
0.0
  0
LINE
  5
446
100
AcDbEntity
  8
_AA_TEXTOS
100
AcDbLine
 10
0.0
 20
0.0
 30
0.0
 11
42.228585
 21
-33.393755
 31
0.0
  0
ENDBLK
  5
448
100
AcDbEntity
  8
0
100
AcDbBlockEnd
  0
BLOCK
  5
44C
100
AcDbEntity
  8
0
100
AcDbBlockBegin
  2
APOYOVB
 70
     0
 10
0.0
 20
0.0
 30
0.0
  3
APOYOVB
  1

  0
LINE
  5
44A
100
AcDbEntity
  8
_AA_TEXTOS
 62
     4
100
AcDbLine
 10
0.0
 20
0.0
 30
0.0
 11
33.393755
 21
-30.264833
 31
0.0
  0
LINE
  5
44B
100
AcDbEntity
  8
_AA_TEXTOS
 62
     4
100
AcDbLine
 10
0.0
 20
0.0
 30
0.0
 11
33.393755
 21
42.228585
 31
0.0
  0
ENDBLK
  5
44D
100
AcDbEntity
  8
0
100
AcDbBlockEnd
  0
BLOCK
  5
451
100
AcDbEntity
  8
0
100
AcDbBlockBegin
  2
VIGATSECUN
 70
     0
 10
0.0
 20
0.0
 30
0.0
  3
VIGATSECUN
  1

  0
LINE
  5
44F
100
AcDbEntity
  8
_AA_TEXTOS
 62
     6
100
AcDbLine
 10
0.0
 20
0.0
 30
0.0
 11
33.393755
 21
-30.264833
 31
0.0
  0
LINE
  5
450
100
AcDbEntity
  8
_AA_TEXTOS
 62
     6
100
AcDbLine
 10
0.0
 20
0.0
 30
0.0
 11
33.393755
 21
42.228585
 31
0.0
  0
ENDBLK
  5
452
100
AcDbEntity
  8
0
100
AcDbBlockEnd
  0
BLOCK
  5
456
100
AcDbEntity
  8
0
100
AcDbBlockBegin
  2
VIGATPRIM
 70
     0
 10
0.0
 20
0.0
 30
0.0
  3
VIGATPRIM
  1

  0
LINE
  5
454
100
AcDbEntity
  8
_AA_TEXTOS
 62
     2
100
AcDbLine
 10
0.0
 20
0.0
 30
0.0
 11
33.393755
 21
-30.264833
 31
0.0
  0
LINE
  5
455
100
AcDbEntity
  8
_AA_TEXTOS
 62
     2
100
AcDbLine
 10
0.0
 20
0.0
 30
0.0
 11
33.393755
 21
42.228585
 31
0.0
  0
ENDBLK
  5
457
100
AcDbEntity
  8
0
100
AcDbBlockEnd
  0
BLOCK
  5
4DA
100
AcDbEntity
  8
0
100
AcDbBlockBegin
  2
M12
 70
     0
 10
0.0
 20
0.0
 30
0.0
  3
M12
  1

  0
POLYLINE
  5
459
100
AcDbEntity
  8
_AA_PIEDRA
100
AcDb2dPolyline
 66
     1
 10
0.0
 20
0.0
 30
-0.000061
210
0.0000000032286934
220
0.0
230
-1.0
  0
VERTEX
  5
45A
100
AcDbEntity
  8
_AA_PIEDRA
100
AcDbVertex
100
AcDb2dVertex
 10
154.97119
 20
1060.515339
 30
-0.000061
  0
VERTEX
  5
45B
100
AcDbEntity
  8
_AA_PIEDRA
100
AcDbVertex
100
AcDb2dVertex
 10
144.573053
 20
1065.629565
 30
-0.000061
  0
VERTEX
  5
45C
100
AcDbEntity
  8
_AA_PIEDRA
100
AcDbVertex
100
AcDb2dVertex
 10
136.234254
 20
1070.020055
 30
-0.000061
  0
VERTEX
  5
45D
100
AcDbEntity
  8
_AA_PIEDRA
100
AcDbVertex
100
AcDb2dVertex
 10
128.022053
 20
1074.64234
 30
-0.000061
  0
VERTEX
  5
45E
100
AcDbEntity
  8
_AA_PIEDRA
100
AcDbVertex
100
AcDb2dVertex
 10
119.956744
 20
1079.515792
 30
-0.000061
  0
VERTEX
  5
45F
100
AcDbEntity
  8
_AA_PIEDRA
100
AcDbVertex
100
AcDb2dVertex
 10
112.056348
 20
1084.651934
 30
-0.000061
  0
VERTEX
  5
460
100
AcDbEntity
  8
_AA_PIEDRA
100
AcDbVertex
100
AcDb2dVertex
 10
104.978552
 20
1089.591875
 30
-0.000061
  0
SEQEND
  5
461
100
AcDbEntity
  8
_AA_PIEDRA
  0
LINE
  5
462
100
AcDbEntity
  8
_AA_PIEDRA
100
AcDbLine
 10
-104.978552
 20
1059.591878
 30
0.0
 11
-104.978552
 21
1089.591878
 31
0.0
210
-0.000000000000004
220
1.0
230
0.0
  0
LINE
  5
463
100
AcDbEntity
  8
_AA_CARTONYESO
100
AcDbLine
 10
9.964712
 20
920.345578
 30
0.0
 11
-89.806903
 21
920.351845
 31
0.0
210
-0.000000000000004
220
1.0
230
0.0
  0
ARC
  5
464
100
AcDbEntity
  8
_AA_CARTONYESO
100
AcDbCircle
 10
260129.429183
 20
148700.837127
 30
0.0
 40
299167.428631
210
-0.0000000022136266
220
0.0
230
1.0
100
AcDbArc
 50
209.602023
 51
209.62255
  0
LINE
  5
465
100
AcDbEntity
  8
_AA_ESTRUCTURA_HR
100
AcDbLine
 10
-22.156208
 20
0.0
 30
0.0
 11
-22.156208
 21
-40.0
 31
0.0
210
-0.0000000000015927
220
0.0
230
-1.0
  0
LINE
  5
466
100
AcDbEntity
  8
_AA_PERFIL_AC
100
AcDbLine
 10
45.6959
 20
0.0
 30
0.0
 11
45.6959
 21
867.571361
 31
0.0
  0
POLYLINE
  5
467
100
AcDbEntity
  8
_AA_PERFIL_AC
100
AcDb2dPolyline
 66
     1
 10
0.0
 20
0.0
 30
0.0
 70
     1
210
0.0000000000015465
220
0.0
230
-1.0
1001
ACAD
1000
RTLwPs
1070
   128
  0
VERTEX
  5
468
100
AcDbEntity
  8
_AA_PERFIL_AC
100
AcDbVertex
100
AcDb2dVertex
 10
-65.693296
 20
785.0
 30
0.0
  0
VERTEX
  5
469
100
AcDbEntity
  8
_AA_PERFIL_AC
100
AcDbVertex
100
AcDb2dVertex
 10
-65.693296
 20
765.0
 30
0.0
  0
VERTEX
  5
46A
100
AcDbEntity
  8
_AA_PERFIL_AC
100
AcDbVertex
100
AcDb2dVertex
 10
-45.70941
 20
765.0
 30
0.0
  0
VERTEX
  5
46B
100
AcDbEntity
  8
_AA_PERFIL_AC
100
AcDbVertex
100
AcDb2dVertex
 10
-45.70941
 20
785.0
 30
0.0
  0
VERTEX
  5
46C
100
AcDbEntity
  8
_AA_PERFIL_AC
100
AcDbVertex
100
AcDb2dVertex
 10
-65.693296
 20
785.0
 30
0.0
  0
SEQEND
  5
46D
100
AcDbEntity
  8
_AA_PERFIL_AC
  0
LWPOLYLINE
  5
46E
100
AcDbEntity
  8
_AA_PERFIL_AC
100
AcDbPolyline
 90
        4
 70
     1
 43
0.0
 38
0.0
 10
65.693296
 20
760.0
 10
95.693296
 20
760.0
 10
95.693296
 20
790.0
 10
65.693296
 20
790.0
1001
ACAD
1000
RTLwPs
1070
   128
  0
LWPOLYLINE
  5
46F
100
AcDbEntity
  8
_AA_PERFIL_AC
100
AcDbPolyline
 90
        4
 70
   129
 43
0.0
 10
95.693296
 20
1036.089655
 10
95.693296
 20
863.013367
 10
65.693296
 20
863.013367
 10
65.693296
 20
999.013367
  0
LINE
  5
470
100
AcDbEntity
  8
_AA_PERFIL_AC
100
AcDbLine
 10
65.679786
 20
0.0
 30
0.0
 11
65.679786
 21
867.571361
 31
0.0
  0
POLYLINE
  5
471
100
AcDbEntity
  8
_AA_PERFIL_AC
100
AcDb2dPolyline
 66
     1
 10
0.0
 20
0.0
 30
0.0
 70
     1
210
0.0000000000015465
220
0.0
230
-1.0
1001
ACAD
1000
RTLwPs
1070
   128
  0
VERTEX
  5
472
100
AcDbEntity
  8
_AA_PERFIL_AC
100
AcDbVertex
100
AcDb2dVertex
 10
-65.693296
 20
385.0
 30
0.0
  0
VERTEX
  5
473
100
AcDbEntity
  8
_AA_PERFIL_AC
100
AcDbVertex
100
AcDb2dVertex
 10
-65.693296
 20
365.0
 30
0.0
  0
VERTEX
  5
474
100
AcDbEntity
  8
_AA_PERFIL_AC
100
AcDbVertex
100
AcDb2dVertex
 10
-45.70941
 20
365.0
 30
0.0
  0
VERTEX
  5
475
100
AcDbEntity
  8
_AA_PERFIL_AC
100
AcDbVertex
100
AcDb2dVertex
 10
-45.70941
 20
385.0
 30
0.0
  0
VERTEX
  5
476
100
AcDbEntity
  8
_AA_PERFIL_AC
100
AcDbVertex
100
AcDb2dVertex
 10
-65.693296
 20
385.0
 30
0.0
  0
SEQEND
  5
477
100
AcDbEntity
  8
_AA_PERFIL_AC
  0
LINE
  5
478
100
AcDbEntity
  8
_AA_PERFIL_AC
100
AcDbLine
 10
-67.056833
 20
785.0
 30
0.0
 11
-20.035847
 21
0.0
 31
0.0
210
-0.000000000000004
220
1.0
230
0.0
  0
LINE
  5
479
100
AcDbEntity
  8
_AA_PERFIL_AC
100
AcDbLine
 10
-94.539405
 20
526.50598
 30
0.0
 11
-112.094617
 21
785.0
 31
0.0
210
-0.000000000000004
220
1.0
230
0.0
  0
LINE
  5
47A
100
AcDbEntity
  8
_AA_PERFIL_AC
100
AcDbLine
 10
-112.248749
 20
867.571361
 30
0.0
 11
-117.53301
 21
667.770084
 31
0.0
210
-0.000000000000004
220
1.0
230
0.0
  0
LINE
  5
47B
100
AcDbEntity
  8
_AA_PERFIL_AC
100
AcDbLine
 10
-138.062351
 20
876.389225
 30
0.0
 11
-132.027788
 21
1040.60165
 31
0.0
210
-0.000000000000004
220
1.0
230
0.0
  0
LINE
  5
47C
100
AcDbEntity
  8
_AA_PERFIL_AC
100
AcDbLine
 10
-47.020985
 20
785.0
 30
0.0
 11
0.0
 21
0.0
 31
0.0
210
-0.000000000000004
220
1.0
230
0.0
  0
LINE
  5
47D
100
AcDbEntity
  8
_AA_PERFIL_AC
100
AcDbLine
 10
-75.262942
 20
537.838145
 30
0.0
 11
-92.048548
 21
785.0
 31
0.0
210
-0.000000000000004
220
1.0
230
0.0
  0
LINE
  5
47E
100
AcDbEntity
  8
_AA_PERFIL_AC
100
AcDbLine
 10
-92.241755
 20
867.571361
 30
0.0
 11
-94.425569
 21
785.0
 31
0.0
210
-0.000000000000004
220
1.0
230
0.0
1001
ACAD
1000
RTLwPs
1070
   128
  0
LINE
  5
47F
100
AcDbEntity
  8
_AA_PERFIL_AC
100
AcDbLine
 10
-118.075842
 20
875.654751
 30
0.0
 11
-112.014288
 21
1040.60165
 31
0.0
210
-0.000000000000004
220
1.0
230
0.0
  0
LINE
  5
480
100
AcDbEntity
  8
_AA_PERFIL_AC
100
AcDbLine
 10
45.70941
 20
385.0
 30
0.0
 11
-43.097095
 21
385.0
 31
0.0
  0
LINE
  5
481
100
AcDbEntity
  8
_AA_PERFIL_AC
100
AcDbLine
 10
45.70941
 20
365.0
 30
0.0
 11
-41.899108
 21
365.0
 31
0.0
  0
LWPOLYLINE
  5
482
100
AcDbEntity
  8
_AA_PERFIL_AC
100
AcDbPolyline
 90
        4
 70
   129
 43
0.0
 10
-43.097095
 20
385.0
 10
-23.061248
 20
385.0
 10
-21.863261
 20
365.0
 10
-41.899108
 20
365.0
1001
ACAD
1000
RTLwPs
1070
   128
  0
LINE
  5
483
100
AcDbEntity
  8
_AA_PERFIL_AC
100
AcDbLine
 10
45.70941
 20
785.0
 30
0.0
 11
-114.432562
 21
785.0
 31
0.0
1001
ACAD
1000
RTLwPs
1070
   128
  0
LINE
  5
484
100
AcDbEntity
  8
_AA_PERFIL_AC
100
AcDbLine
 10
45.70941
 20
765.0
 30
0.0
 11
-114.961514
 21
765.0
 31
0.0
1001
ACAD
1000
RTLwPs
1070
   128
  0
INSERT
  5
485
100
AcDbEntity
  8
_AA_PERFIL_AL
100
AcDbBlockReference
  2
MALU90OPACO
 10
-155.995352
 20
1036.479054
 30
0.0
 50
87.895412
1001
ACAD
1000
RTLwPs
1070
   128
  0
LINE
  5
486
100
AcDbEntity
  8
_AA_VIDRIO
100
AcDbLine
 10
-156.069516
 20
1034.460907
 30
0.00006
 11
-151.272754
 21
1034.284633
 31
0.00006
  0
LINE
  5
487
100
AcDbEntity
  8
_AA_VIDRIO
100
AcDbLine
 10
-161.955752
 20
874.284766
 30
0.00006
 11
-158.32878
 21
972.981853
 31
0.00006
  0
LINE
  5
488
100
AcDbEntity
  8
_AA_VIDRIO
100
AcDbLine
 10
-151.272754
 20
1034.284633
 30
0.00006
 11
-153.383691
 21
976.841863
 31
0.00006
  0
POLYLINE
  5
489
100
AcDbEntity
  8
_AA_PIEDRA
100
AcDb2dPolyline
 66
     1
 10
0.0
 20
0.0
 30
-0.000061
210
0.0000000032286934
220
0.0
230
-1.0
  0
VERTEX
  5
48A
100
AcDbEntity
  8
_AA_PIEDRA
100
AcDbVertex
100
AcDb2dVertex
 10
150.227708
 20
1057.276331
 30
-0.000061
  0
VERTEX
  5
48B
100
AcDbEntity
  8
_AA_PIEDRA
100
AcDbVertex
100
AcDb2dVertex
 10
142.304548
 20
1061.173263
 30
-0.000061
  0
VERTEX
  5
48C
100
AcDbEntity
  8
_AA_PIEDRA
100
AcDbVertex
100
AcDb2dVertex
 10
133.842834
 20
1065.628469
 30
-0.000061
  0
VERTEX
  5
48D
100
AcDbEntity
  8
_AA_PIEDRA
100
AcDbVertex
100
AcDb2dVertex
 10
125.502293
 20
1070.322991
 30
-0.000061
  0
VERTEX
  5
48E
100
AcDbEntity
  8
_AA_PIEDRA
100
AcDbVertex
100
AcDb2dVertex
 10
117.300471
 20
1075.278932
 30
-0.000061
  0
VERTEX
  5
48F
100
AcDbEntity
  8
_AA_PIEDRA
100
AcDbVertex
100
AcDb2dVertex
 10
109.978552
 20
1080.038998
 30
-0.000061
  0
SEQEND
  5
490
100
AcDbEntity
  8
_AA_PIEDRA
  0
LINE
  5
491
100
AcDbEntity
  8
_AA_PIEDRA
100
AcDbLine
 10
-155.921189
 20
1038.497191
 30
0.00006
 11
-151.0413
 21
1038.317862
 31
0.00006
  0
LINE
  5
492
100
AcDbEntity
  8
_AA_VIDRIO
100
AcDbLine
 10
-161.955752
 20
874.284766
 30
0.0
 11
-157.15899
 21
874.108492
 31
0.0
  0
LINE
  5
493
100
AcDbEntity
  8
_AA_VIDRIO
100
AcDbLine
 10
-162.104079
 20
870.248482
 30
0.0
 11
-157.307317
 21
870.072208
 31
0.0
  0
INSERT
  5
494
100
AcDbEntity
  8
_AA_PERFIL_AL
100
AcDbBlockReference
  2
MALU90SEMITRP_OP
 10
-162.029915
 20
872.266624
 30
0.0
 50
87.895412
1001
ACAD
1000
RTLwPs
1070
   128
  0
INSERT
  5
495
100
AcDbEntity
  8
_AA_PERFIL_AL
100
AcDbBlockReference
  2
MALU90OPACO
 10
-158.254616
 20
975.0
 30
0.00006
 50
87.895412
1001
ACAD
1000
RTLwPs
1070
   128
  0
LINE
  5
496
100
AcDbEntity
  8
_AA_VIDRIO
100
AcDbLine
 10
-158.32878
 20
972.981853
 30
0.00006
 11
-153.532018
 21
972.805579
 31
0.00006
  0
LINE
  5
497
100
AcDbEntity
  8
_AA_VIDRIO
100
AcDbLine
 10
-158.180452
 20
977.018137
 30
0.00006
 11
-153.38369
 21
976.841863
 31
0.00006
  0
LINE
  5
498
100
AcDbEntity
  8
_AA_VIDRIO
100
AcDbLine
 10
-153.532018
 20
972.805579
 30
0.00006
 11
-157.15899
 21
874.108492
 31
0.00006
  0
LINE
  5
499
100
AcDbEntity
  8
_AA_VIDRIO
100
AcDbLine
 10
-158.180453
 20
977.018137
 30
0.00006
 11
-156.069516
 21
1034.460907
 31
0.00006
  0
LINE
  5
49A
100
AcDbEntity
  8
_AA_PIEDRA
100
AcDbLine
 10
-155.921189
 20
1038.497191
 30
0.00006
 11
-154.97119
 21
1060.515339
 31
0.00006
  0
LINE
  5
49B
100
AcDbEntity
  8
_AA_PIEDRA
100
AcDbLine
 10
-151.0413
 20
1038.317862
 30
0.00006
 11
-150.227708
 21
1057.276331
 31
0.00006
  0
INSERT
  5
49C
100
AcDbEntity
  8
_AA_PERFIL_AL
100
AcDbBlockReference
  2
MALU90SEMITRP
 10
-165.337439
 20
782.262349
 30
0.0
 50
87.895412
1001
ACAD
1000
RTLwPs
1070
   128
  0
LINE
  5
49D
100
AcDbEntity
  8
_AA_VIDRIO
100
AcDbLine
 10
-165.263276
 20
784.280486
 30
0.0
 11
-160.466513
 21
784.104212
 31
0.0
  0
LINE
  5
49E
100
AcDbEntity
  8
_AA_VIDRIO
100
AcDbLine
 10
-162.104079
 20
870.248482
 30
0.0
 11
-165.263276
 21
784.280486
 31
0.0
  0
LINE
  5
49F
100
AcDbEntity
  8
_AA_VIDRIO
100
AcDbLine
 10
-160.466513
 20
784.104212
 30
0.0
 11
-157.307317
 21
870.072208
 31
0.0
  0
INSERT
  5
4A0
100
AcDbEntity
  8
_AA_PERFIL_AL
100
AcDbBlockReference
  2
MALU90B
 10
-141.324691
 20
668.399316
 30
0.0
 41
-1.0
 50
88.485016
1001
ACAD
1000
RTLwPs
1070
   128
  0
LINE
  5
4A1
100
AcDbEntity
  8
_AA_VIDRIO
100
AcDbLine
 10
-141.272333
 20
670.378992
 30
0.0
 11
-136.009575
 21
869.366979
 31
0.0
  0
LINE
  5
4A2
100
AcDbEntity
  8
_AA_VIDRIO
100
AcDbLine
 10
-146.376334
 20
666.51271
 30
0.0
 11
-141.578012
 21
666.385806
 31
0.0
  0
LINE
  5
4A3
100
AcDbEntity
  8
_AA_VIDRIO
100
AcDbLine
 10
-131.212559
 20
869.190696
 30
0.0
 11
-136.474011
 21
670.252087
 31
0.0
  0
LINE
  5
4A4
100
AcDbEntity
  8
_AA_VIDRIO
100
AcDbLine
 10
-136.474011
 20
670.252087
 30
0.0
 11
-141.272333
 21
670.378992
 31
0.0
  0
LINE
  5
4A5
100
AcDbEntity
  8
_AA_PERFIL_AC
100
AcDbLine
 10
-138.062351
 20
876.389225
 30
0.0
 11
-111.682094
 21
875.41979
 31
0.0
1001
ACAD
1000
RTLwPs
1070
   128
  0
INSERT
  5
4A6
100
AcDbEntity
  8
_AA_PERFIL_AL
100
AcDbBlockReference
  2
MALU90SEMITRP
 10
-147.646753
 20
618.47762
 30
0.0
 50
88.485005
1001
ACAD
1000
RTLwPs
1070
   128
  0
LINE
  5
4A7
100
AcDbEntity
  8
_AA_VIDRIO
100
AcDbLine
 10
-147.593361
 20
620.496413
 30
0.0
 11
-142.795039
 21
620.369508
 31
0.0
  0
LINE
  5
4A8
100
AcDbEntity
  8
_AA_VIDRIO
100
AcDbLine
 10
-146.376331
 20
666.51271
 30
0.0
 11
-147.593361
 21
620.496413
 31
0.0
  0
LINE
  5
4A9
100
AcDbEntity
  8
_AA_VIDRIO
100
AcDbLine
 10
-142.795039
 20
620.369508
 30
0.0
 11
-141.578008
 21
666.385805
 31
0.0
  0
INSERT
  5
4AA
100
AcDbEntity
  8
_AA_PERFIL_AL
100
AcDbBlockReference
  2
MALU90OPACO
 10
-121.687622
 20
575.0
 30
0.0
 50
93.885186
1001
ACAD
1000
RTLwPs
1070
   128
  0
LINE
  5
4AB
100
AcDbEntity
  8
_AA_VIDRIO
100
AcDbLine
 10
-121.550785
 20
572.985131
 30
0.0
 11
-116.761816
 21
573.310367
 31
0.0
  0
LINE
  5
4AC
100
AcDbEntity
  8
_AA_VIDRIO
100
AcDbLine
 10
-117.035489
 20
577.340093
 30
0.0
 11
-122.846757
 21
662.908871
 31
0.0
  0
LINE
  5
4AD
100
AcDbEntity
  8
_AA_VIDRIO
100
AcDbLine
 10
-127.666471
 20
663.036341
 30
0.0
 11
-121.824458
 21
577.014858
 31
0.0
  0
LINE
  5
4AE
100
AcDbEntity
  8
_AA_VIDRIO
100
AcDbLine
 10
-121.824458
 20
577.014858
 30
0.0
 11
-117.035489
 21
577.340093
 31
0.0
  0
LINE
  5
4AF
100
AcDbEntity
  8
_AA_VIDRIO
100
AcDbLine
 10
-118.760331
 20
531.896729
 30
0.0
 11
-113.971363
 21
532.221964
 31
0.0
  0
LINE
  5
4B0
100
AcDbEntity
  8
_AA_VIDRIO
100
AcDbLine
 10
-121.550785
 20
572.985131
 30
0.0
 11
-118.760331
 21
531.896729
 31
0.0
  0
LINE
  5
4B1
100
AcDbEntity
  8
_AA_VIDRIO
100
AcDbLine
 10
-113.971363
 20
532.221964
 30
0.0
 11
-116.761816
 21
573.310367
 31
0.0
  0
LINE
  5
4B2
100
AcDbEntity
  8
_AA_VIDRIO
100
AcDbLine
 10
-113.69769
 20
528.192238
 30
0.0
 11
-110.552006
 21
481.873198
 31
0.0
  0
LINE
  5
4B3
100
AcDbEntity
  8
_AA_VIDRIO
100
AcDbLine
 10
-115.340975
 20
481.547963
 30
0.0
 11
-118.486659
 21
527.867002
 31
0.0
  0
LINE
  5
4B4
100
AcDbEntity
  8
_AA_VIDRIO
100
AcDbLine
 10
-118.486659
 20
527.867002
 30
0.0
 11
-113.69769
 21
528.192238
 31
0.0
  0
INSERT
  5
4B5
100
AcDbEntity
  8
_AA_PERFIL_AL
100
AcDbBlockReference
  2
MALU90SEMITRP_OP
 10
-118.623495
 20
529.881865
 30
0.0
 50
93.885186
1001
ACAD
1000
RTLwPs
1070
   128
  0
INSERT
  5
4B6
100
AcDbEntity
  8
_AA_PERFIL_AL
100
AcDbBlockReference
  2
MALU90SEMITRP
 10
-115.204139
 20
479.533105
 30
0.0
 50
93.885186
1001
ACAD
1000
RTLwPs
1070
   128
  0
LINE
  5
4B7
100
AcDbEntity
  8
_AA_VIDRIO
100
AcDbLine
 10
-115.340975
 20
481.547963
 30
0.0
 11
-110.552006
 21
481.873198
 31
0.0
  0
LINE
  5
4B8
100
AcDbEntity
  8
_AA_VIDRIO
100
AcDbLine
 10
-61.770733
 20
378.980372
 30
0.0
 11
-70.789128
 21
529.574196
 31
0.0
  0
LINE
  5
4B9
100
AcDbEntity
  8
_AA_VIDRIO
100
AcDbLine
 10
-75.58054
 20
529.287193
 30
0.0
 11
-66.562145
 21
378.693369
 31
0.0
  0
LINE
  5
4BA
100
AcDbEntity
  8
_AA_VIDRIO
100
AcDbLine
 10
-54.582116
 20
178.693379
 30
0.0
 11
-66.119528
 21
371.306621
 31
0.0
  0
LINE
  5
4BB
100
AcDbEntity
  8
_AA_VIDRIO
100
AcDbLine
 10
-61.328116
 20
371.593624
 30
0.0
 11
-49.790704
 21
178.980382
 31
0.0
  0
INSERT
  5
4BC
100
AcDbEntity
  8
_AA_PERFIL_AL
100
AcDbBlockReference
  2
MALU90
 10
-66.34076
 20
375.0
 30
0.0
 50
93.427886
1001
ACAD
1000
RTLwPs
1070
   128
  0
LINE
  5
4BD
100
AcDbEntity
  8
_AA_VIDRIO
100
AcDbLine
 10
-61.328116
 20
371.593624
 30
0.0
 11
-66.119528
 21
371.306621
 31
0.0
  0
LINE
  5
4BE
100
AcDbEntity
  8
_AA_VIDRIO
100
AcDbLine
 10
-61.770733
 20
378.980372
 30
0.0
 11
-66.561991
 21
378.693379
 31
0.0
  0
LINE
  5
4BF
100
AcDbEntity
  8
_AA_VIDRIO
100
AcDbLine
 10
-45.298115
 20
23.699998
 30
0.0
 11
-54.13966
 21
171.306621
 31
0.0
  0
LINE
  5
4C0
100
AcDbEntity
  8
_AA_VIDRIO
100
AcDbLine
 10
-49.348247
 20
171.593624
 30
0.0
 11
-40.506703
 21
23.987001
 31
0.0
  0
INSERT
  5
4C1
100
AcDbEntity
  8
_AA_PERFIL_AL
100
AcDbBlockReference
  2
MALU90
 10
-54.360891
 20
175.0
 30
0.0
 50
93.427886
1001
ACAD
1000
RTLwPs
1070
   128
  0
LINE
  5
4C2
100
AcDbEntity
  8
_AA_VIDRIO
100
AcDbLine
 10
-49.348247
 20
171.593624
 30
0.0
 11
-54.13966
 21
171.306621
 31
0.0
  0
LINE
  5
4C3
100
AcDbEntity
  8
_AA_VIDRIO
100
AcDbLine
 10
-49.790864
 20
178.980372
 30
0.0
 11
-54.582122
 21
178.693379
 31
0.0
  0
INSERT
  5
4C4
100
AcDbEntity
  8
_AA_PERFIL_AL
100
AcDbBlockReference
  2
MALU90
 10
-75.651986
 20
532.800249
 30
0.0
 50
93.885086
1001
ACAD
1000
RTLwPs
1070
   128
  0
LINE
  5
4C5
100
AcDbEntity
  8
_AA_VIDRIO
100
AcDbLine
 10
-70.691221
 20
529.580061
 30
0.0
 11
-75.482633
 21
529.293058
 31
0.0
  0
INSERT
  5
4C6
100
AcDbEntity
  8
_AA_PERFIL_AL
100
AcDbBlockReference
  2
MALU90
 10
-45.298115
 20
20.0
 30
0.0
 50
90.000002
1001
ACAD
1000
RTLwPs
1070
   128
  0
LINE
  5
4C7
100
AcDbEntity
  8
_AA_VIDRIO
100
AcDbLine
 10
-45.298115
 20
23.699998
 30
0.0
 11
-40.506703
 21
23.987001
 31
0.0
  0
LINE
  5
4C8
100
AcDbEntity
  8
_AA_PERFIL_AC
100
AcDbLine
 10
-95.216978
 20
536.482998
 30
0.0
 11
-52.345228
 21
539.394565
 31
0.0
1001
ACAD
1000
RTLwPs
1070
   128
  0
LINE
  5
4C9
100
AcDbEntity
  8
_AA_PERFIL_AC
100
AcDbLine
 10
-117.53301
 20
667.770084
 30
0.0
 11
-104.109021
 21
667.415052
 31
0.0
1001
ACAD
1000
RTLwPs
1070
   128
  0
LWPOLYLINE
  5
4CA
100
AcDbEntity
  8
_AA_PERFIL_AC
100
AcDbPolyline
 90
        4
 70
   129
 43
0.0
 10
-67.056833
 20
785.0
 10
-47.020985
 20
785.0
 10
-45.822999
 20
765.0
 10
-65.858846
 20
765.0
1001
ACAD
1000
RTLwPs
1070
   128
  0
LINE
  5
4CB
100
AcDbEntity
  8
_AA_PERFIL_AC
100
AcDbLine
 10
-112.248749
 20
867.571361
 30
0.0
 11
45.6959
 21
867.571361
 31
0.0
1001
ACAD
1000
RTLwPs
1070
   128
  0
POLYLINE
  5
4CC
100
AcDbEntity
  8
_AA_PERFIL_AC
100
AcDb2dPolyline
 66
     1
 10
0.0
 20
0.0
 30
0.0
 70
     1
210
0.0000000000015465
220
0.0
230
-1.0
1001
ACAD
1000
RTLwPs
1070
   128
  0
VERTEX
  5
4CD
100
AcDbEntity
  8
_AA_PERFIL_AC
100
AcDbVertex
100
AcDb2dVertex
 10
-65.679786
 20
867.571361
 30
0.0
  0
VERTEX
  5
4CE
100
AcDbEntity
  8
_AA_PERFIL_AC
100
AcDbVertex
100
AcDb2dVertex
 10
-65.679786
 20
847.571361
 30
0.0
  0
VERTEX
  5
4CF
100
AcDbEntity
  8
_AA_PERFIL_AC
100
AcDbVertex
100
AcDb2dVertex
 10
-45.6959
 20
847.571361
 30
0.0
  0
VERTEX
  5
4D0
100
AcDbEntity
  8
_AA_PERFIL_AC
100
AcDbVertex
100
AcDb2dVertex
 10
-45.6959
 20
867.571361
 30
0.0
  0
VERTEX
  5
4D1
100
AcDbEntity
  8
_AA_PERFIL_AC
100
AcDbVertex
100
AcDb2dVertex
 10
-65.679786
 20
867.571361
 30
0.0
  0
SEQEND
  5
4D2
100
AcDbEntity
  8
_AA_PERFIL_AC
  0
LINE
  5
4D3
100
AcDbEntity
  8
_AA_PERFIL_AC
100
AcDbLine
 10
-112.777701
 20
847.571361
 30
0.0
 11
45.6959
 21
847.571361
 31
0.0
1001
ACAD
1000
RTLwPs
1070
   128
  0
LWPOLYLINE
  5
4D4
100
AcDbEntity
  8
_AA_PERFIL_AC
100
AcDbPolyline
 90
        4
 70
   129
 43
0.0
 10
-112.014288
 20
1040.60165
 10
-112.749258
 20
1020.60165
 10
-132.762758
 20
1020.60165
 10
-132.027788
 20
1040.60165
1001
ACAD
1000
RTLwPs
1070
   128
  0
LWPOLYLINE
  5
4D5
100
AcDbEntity
  8
_AA_PERFIL_AC
100
AcDbPolyline
 90
        4
 70
   129
 43
0.0
 10
-92.241755
 20
867.571361
 10
-92.770707
 20
847.571361
 10
-112.777701
 20
847.571361
 10
-112.248749
 20
867.571361
1001
ACAD
1000
RTLwPs
1070
   128
  0
LINE
  5
4D6
100
AcDbEntity
  8
_AA_PERFIL_AC
100
AcDbLine
 10
-117.708605
 20
885.648005
 30
0.0
 11
-111.682094
 21
885.42654
 31
0.0
1001
ACAD
1000
RTLwPs
1070
   128
  0
INSERT
  5
4D7
100
AcDbEntity
  8
_AA_PERFIL_AL
100
AcDbBlockReference
  2
MALU90
 10
-136.137999
 20
871.315132
 30
0.0
 50
87.895416
1001
ACAD
1000
RTLwPs
1070
   128
  0
LINE
  5
4D8
100
AcDbEntity
  8
_AA_VIDRIO
100
AcDbLine
 10
-136.009575
 20
869.366979
 30
0.0
 11
-131.212559
 21
869.190696
 31
0.0
  0
LINE
  5
4D9
100
AcDbEntity
  8
_AA_PERFIL_AC
100
AcDbLine
 10
-94.539405
 20
526.50598
 30
0.0
 11
-51.747287
 21
529.412139
 31
0.0
1001
ACAD
1000
RTLwPs
1070
   128
  0
ENDBLK
  5
4DB
100
AcDbEntity
  8
0
100
AcDbBlockEnd
  0
BLOCK
  5
4DF
100
AcDbEntity
  8
0
100
AcDbBlockBegin
  2
VB
 70
     0
 10
0.0
 20
0.0
 30
0.0
  3
VB
  1

  0
LINE
  5
4DD
100
AcDbEntity
  8
_AA_TEXTOS
 62
     4
100
AcDbLine
 10
0.0
 20
0.0
 30
0.0
 11
33.393755
 21
-30.264833
 31
0.0
  0
LINE
  5
4DE
100
AcDbEntity
  8
_AA_TEXTOS
 62
     4
100
AcDbLine
 10
0.0
 20
0.0
 30
0.0
 11
33.393755
 21
42.228585
 31
0.0
  0
ENDBLK
  5
4E0
100
AcDbEntity
  8
0
100
AcDbBlockEnd
  0
BLOCK
  5
4E4
100
AcDbEntity
  8
0
100
AcDbBlockBegin
  2
VB2
 70
     0
 10
0.0
 20
0.0
 30
0.0
  3
VB2
  1

  0
LINE
  5
4E2
100
AcDbEntity
  8
_AA_TEXTOS
 62
     3
100
AcDbLine
 10
0.0
 20
0.0
 30
0.0
 11
33.393755
 21
-30.264833
 31
0.0
  0
LINE
  5
4E3
100
AcDbEntity
  8
_AA_TEXTOS
 62
     3
100
AcDbLine
 10
0.0
 20
0.0
 30
0.0
 11
33.393755
 21
42.228585
 31
0.0
  0
ENDBLK
  5
4E5
100
AcDbEntity
  8
0
100
AcDbBlockEnd
  0
BLOCK
  5
4E9
100
AcDbEntity
  8
0
100
AcDbBlockBegin
  2
APOYOPRINCIPAL
 70
     0
 10
0.0
 20
0.0
 30
0.0
  3
APOYOPRINCIPAL
  1

  0
LINE
  5
4E7
100
AcDbEntity
  8
_AA_TEXTOS
 62
     3
100
AcDbLine
 10
0.0
 20
0.0
 30
0.0
 11
-30.264833
 21
-33.393755
 31
0.0
  0
LINE
  5
4E8
100
AcDbEntity
  8
_AA_TEXTOS
 62
     3
100
AcDbLine
 10
0.0
 20
0.0
 30
0.0
 11
42.228585
 21
-33.393755
 31
0.0
  0
ENDBLK
  5
4EA
100
AcDbEntity
  8
0
100
AcDbBlockEnd
  0
BLOCK
  5
5CE
100
AcDbEntity
  8
0
100
AcDbBlockBegin
  2
M2
 70
     0
 10
0.0
 20
0.0
 30
0.0
  3
M2
  1

  0
LINE
  5
4EC
100
AcDbEntity
  8
_AA_EJES
  6
DASHDOT
100
AcDbLine
 10
-715.166813
 20
1160.0
 30
0.0
 11
2267.396658
 21
1160.0
 31
0.0
  0
LINE
  5
4ED
100
AcDbEntity
  8
_AA_EJES
  6
DASHDOT
100
AcDbLine
 10
-715.166813
 20
760.0
 30
0.0
 11
2267.396658
 21
760.0
 31
0.0
  0
LINE
  5
4EE
100
AcDbEntity
  8
_AA_EJES
  6
DASHDOT
100
AcDbLine
 10
-715.166813
 20
360.0
 30
0.0
 11
2267.396658
 21
360.0
 31
0.0
  0
LINE
  5
4EF
100
AcDbEntity
  8
_AA_EJES
  6
DASHDOT
100
AcDbLine
 10
-715.166813
 20
-40.0
 30
0.0
 11
2267.396658
 21
-40.0
 31
0.0
  0
LINE
  5
4F0
100
AcDbEntity
  8
_AA_EJES
  6
DASHDOT
100
AcDbLine
 10
-735.164813
 20
0.0
 30
0.0
 11
2247.398658
 21
0.0
 31
0.0
  0
LWPOLYLINE
  5
4F1
100
AcDbEntity
  8
_AA_PERFIL_AC
100
AcDbPolyline
 90
        5
 70
   128
 43
0.0
 38
0.0
 10
-169.346478
 20
1170.0
 10
-149.317734
 20
1170.0
 10
-150.390384
 20
1150.0
 10
-170.419128
 20
1150.0
 10
-169.346478
 20
1170.0
1001
ACAD
1000
RTLwPs
1070
   128
  0
LWPOLYLINE
  5
4F2
100
AcDbEntity
  8
_AA_PERFIL_AC
100
AcDbPolyline
 90
        5
 70
   128
 43
0.0
 38
0.0
 10
-154.454525
 20
770.0
 10
-134.450638
 20
770.0
 10
-134.844923
 20
750.0
 10
-154.848809
 20
750.0
 10
-154.454525
 20
770.0
1001
ACAD
1000
RTLwPs
1070
   128
  0
LWPOLYLINE
  5
4F3
100
AcDbEntity
  8
_AA_PERFIL_AC
100
AcDbPolyline
 90
        5
 70
   128
 43
0.0
 10
-149.249025
 20
370.0
 10
-129.183817
 20
370.0
 10
-130.800164
 20
350.0
 10
-150.865372
 20
350.0
 10
-149.249025
 20
370.0
1001
ACAD
1000
RTLwPs
1070
   128
  0
ARC
  5
4F4
100
AcDbEntity
  8
_AA_CARTONYESO
100
AcDbCircle
 10
-1696.455159
 20
31573.783884
 30
0.0
 40
30510.443375
210
-0.0000000000235866
220
0.0
230
1.0
100
AcDbArc
 50
272.951598
 51
273.051828
1001
ACAD
1000
RTLwPs
1070
   128
  0
LINE
  5
4F5
100
AcDbEntity
  8
_AA_VIDRIO
100
AcDbLine
 10
-152.90309
 20
195.343901
 30
0.0
 11
-154.783342
 21
241.907715
 31
0.0
210
-0.0000000000000175
220
1.0
230
0.0
1001
ACAD
1000
RTLwPs
1070
   128
  0
POLYLINE
  5
4F6
100
AcDbEntity
  8
_AA_PIEDRA
100
AcDb2dPolyline
 66
     1
 10
0.0
 20
0.0
 30
0.000146
210
-0.0000000158086069
220
0.0000007520987885
230
0.9999999999997172
1001
ACAD
1000
RTLwPs
1070
   128
  0
VERTEX
  5
4F7
100
AcDbEntity
  8
_AA_PIEDRA
100
AcDbVertex
100
AcDb2dVertex
 10
-143.430864
 20
187.026738
 30
0.000146
  0
VERTEX
  5
4F8
100
AcDbEntity
  8
_AA_PIEDRA
100
AcDbVertex
100
AcDb2dVertex
 10
-728.945393
 20
174.713459
 30
0.000146
  0
SEQEND
  5
4F9
100
AcDbEntity
  8
_AA_PIEDRA
  0
LINE
  5
4FA
100
AcDbEntity
  8
_AA_PIEDRA
100
AcDbLine
 10
232.170368
 20
1399.348373
 30
0.0
 11
232.170368
 21
1369.348373
 31
0.0
210
-0.0000000000000175
220
1.0
230
0.0
1001
ACAD
1000
RTLwPs
1070
   128
  0
POLYLINE
  5
4FB
100
AcDbEntity
  8
_AA_CARTONYESO
100
AcDb2dPolyline
 66
     1
 10
0.0
 20
0.0
 30
0.0
210
0.0000000000015459
220
0.0
230
-1.0
1001
ACAD
1000
RTLwPs
1070
   128
  0
VERTEX
  5
4FC
100
AcDbEntity
  8
_AA_CARTONYESO
100
AcDbVertex
100
AcDb2dVertex
 10
-301.180847
 20
655.852372
 30
0.0
  0
VERTEX
  5
4FD
100
AcDbEntity
  8
_AA_CARTONYESO
100
AcDbVertex
100
AcDb2dVertex
 10
70.848787
 20
927.328904
 30
0.0
  0
SEQEND
  5
4FE
100
AcDbEntity
  8
_AA_CARTONYESO
  0
ARC
  5
4FF
100
AcDbEntity
  8
_AA_CARTONYESO
100
AcDbCircle
 10
-3901.74034
 20
-30077.530663
 30
0.0
 40
30947.319285
210
-0.0000000000030732
220
0.0
230
1.0
100
AcDbArc
 50
81.711033
 51
81.886202
1001
ACAD
1000
RTLwPs
1070
   128
  0
ARC
  5
500
100
AcDbEntity
  8
_AA_CARTONYESO
100
AcDbCircle
 10
13482.661911
 20
23159.932236
 30
0.0
 40
26080.334343
210
0.000000000011195
220
0.0
230
1.0
100
AcDbArc
 50
239.640989
 51
240.060267
1001
ACAD
1000
RTLwPs
1070
   128
  0
POLYLINE
  5
501
100
AcDbEntity
  8
_AA_PERFIL_AC
100
AcDb2dPolyline
 66
     1
 10
0.0
 20
0.0
 30
0.0
 70
     1
210
0.0000000000015465
220
0.0
230
-1.0
1001
ACAD
1000
RTLwPs
1070
   128
  0
VERTEX
  5
502
100
AcDbEntity
  8
_AA_PERFIL_AC
100
AcDbVertex
100
AcDb2dVertex
 10
30.016114
 20
370.0
 30
0.0
  0
VERTEX
  5
503
100
AcDbEntity
  8
_AA_PERFIL_AC
100
AcDbVertex
100
AcDb2dVertex
 10
30.016114
 20
350.0
 30
0.0
  0
VERTEX
  5
504
100
AcDbEntity
  8
_AA_PERFIL_AC
100
AcDbVertex
100
AcDb2dVertex
 10
50.0
 20
350.0
 30
0.0
  0
VERTEX
  5
505
100
AcDbEntity
  8
_AA_PERFIL_AC
100
AcDbVertex
100
AcDb2dVertex
 10
50.0
 20
370.0
 30
0.0
  0
VERTEX
  5
506
100
AcDbEntity
  8
_AA_PERFIL_AC
100
AcDbVertex
100
AcDb2dVertex
 10
30.016114
 20
370.0
 30
0.0
  0
SEQEND
  5
507
100
AcDbEntity
  8
_AA_PERFIL_AC
  0
LINE
  5
508
100
AcDbEntity
  8
SEC-FS-VIGAS_CAJON
100
AcDbLine
 10
114.839625
 20
1196.077443
 30
0.0
 11
114.839625
 21
1058.063987
 31
0.0
210
-0.0000000000000175
220
1.0
230
0.0
1001
ACAD
1000
RTLwPs
1070
   128
  0
LINE
  5
509
100
AcDbEntity
  8
SEC-FS-VIGAS_CAJON
100
AcDbLine
 10
61.802005
 20
1192.998891
 30
0.0
 11
61.802005
 21
1059.375964
 31
0.0
210
-0.0000000000000175
220
1.0
230
0.0
1001
ACAD
1000
RTLwPs
1070
   128
  0
LINE
  5
50A
100
AcDbEntity
  8
_AA_CARTONYESO
100
AcDbLine
 10
-72.214599
 20
1106.661053
 30
0.0
 11
-70.87918
 21
927.379091
 31
0.0
210
-0.0000000000000175
220
1.0
230
0.0
1001
ACAD
1000
RTLwPs
1070
   128
  0
POLYLINE
  5
50B
100
AcDbEntity
  8
_AA_PIEDRA
100
AcDb2dPolyline
 66
     1
 10
0.0
 20
0.0
 30
0.0
210
-0.0000000000005508
220
0.0
230
-1.0
1001
ACAD
1000
RTLwPs
1070
   128
  0
VERTEX
  5
50C
100
AcDbEntity
  8
_AA_PIEDRA
100
AcDbVertex
100
AcDb2dVertex
 10
-8.929857
 20
1356.737404
 30
0.0
1001
ACAD
1000
RTLwPs
1070
   128
  0
VERTEX
  5
50D
100
AcDbEntity
  8
_AA_PIEDRA
100
AcDbVertex
100
AcDb2dVertex
 10
-232.170427
 20
1369.348375
 30
0.0
1001
ACAD
1000
RTLwPs
1070
   128
  0
SEQEND
  5
50E
100
AcDbEntity
  8
_AA_PIEDRA
1001
ACAD
1000
RTLwPs
1070
   128
  0
LINE
  5
50F
100
AcDbEntity
  8
SEC-FS-VIGAS_CAJON
100
AcDbLine
 10
114.839625
 20
1058.063987
 30
0.0
 11
61.802005
 21
1059.375964
 31
0.0
210
-0.0000000000000175
220
1.0
230
0.0
1001
ACAD
1000
RTLwPs
1070
   128
  0
LINE
  5
510
100
AcDbEntity
  8
_AA_EJES
100
AcDbLine
 10
-15.0
 20
1160.0
 30
0.0
 11
-15.0
 21
360.0
 31
0.0
  0
LINE
  5
511
100
AcDbEntity
  8
_AA_EJES
100
AcDbLine
 10
-40.0
 20
1160.0
 30
0.0
 11
-40.0
 21
0.0
 31
0.0
  0
LINE
  5
512
100
AcDbEntity
  8
_AA_EJES
100
AcDbLine
 10
-140.120258
 20
1160.0
 30
0.0
 11
-140.120258
 21
0.0
 31
0.0
  0
LINE
  5
513
100
AcDbEntity
  8
_AA_PERFIL_AC
100
AcDbLine
 10
-49.965652
 20
1170.0
 30
0.0
 11
-50.016326
 21
-15.0
 31
0.0
1001
ACAD
1000
RTLwPs
1070
   128
  0
LINE
  5
514
100
AcDbEntity
  8
_AA_PERFIL_AC
100
AcDbLine
 10
-29.982614
 20
1170.0
 30
0.0
 11
-30.03244
 21
-15.0
 31
0.0
1001
ACAD
1000
RTLwPs
1070
   128
  0
LINE
  5
515
100
AcDbEntity
  8
_AA_PERFIL_AC
100
AcDbLine
 10
0.0
 20
1051.898654
 30
0.0
 11
0.0
 21
-15.0
 31
0.0
1001
ACAD
1000
RTLwPs
1070
   128
  0
LINE
  5
516
100
AcDbEntity
  8
_AA_EJES
100
AcDbLine
 10
-15.0
 20
595.244564
 30
0.0
 11
-15.0
 21
0.0
 31
0.0
  0
POLYLINE
  5
517
100
AcDbEntity
  8
_AA_PERFIL_AC
100
AcDb2dPolyline
 66
     1
 10
0.0
 20
0.0
 30
0.0
 70
     1
210
0.0000000000015465
220
0.0
230
-1.0
1001
ACAD
1000
RTLwPs
1070
   128
  0
VERTEX
  5
518
100
AcDbEntity
  8
_AA_PERFIL_AC
100
AcDbVertex
100
AcDb2dVertex
 10
30.0
 20
770.0
 30
0.0
  0
VERTEX
  5
519
100
AcDbEntity
  8
_AA_PERFIL_AC
100
AcDbVertex
100
AcDb2dVertex
 10
30.0
 20
750.0
 30
0.0
  0
VERTEX
  5
51A
100
AcDbEntity
  8
_AA_PERFIL_AC
100
AcDbVertex
100
AcDb2dVertex
 10
49.983886
 20
750.0
 30
0.0
  0
VERTEX
  5
51B
100
AcDbEntity
  8
_AA_PERFIL_AC
100
AcDbVertex
100
AcDb2dVertex
 10
49.983886
 20
770.0
 30
0.0
  0
VERTEX
  5
51C
100
AcDbEntity
  8
_AA_PERFIL_AC
100
AcDbVertex
100
AcDb2dVertex
 10
30.0
 20
770.0
 30
0.0
  0
SEQEND
  5
51D
100
AcDbEntity
  8
_AA_PERFIL_AC
  0
LWPOLYLINE
  5
51E
100
AcDbEntity
  8
_AA_PERFIL_AC
100
AcDbPolyline
 90
        4
 70
     1
 43
0.0
 10
-30.0
 20
745.0
 10
0.0
 20
745.0
 10
0.0
 20
775.0
 10
-30.0
 20
775.0
1001
ACAD
1000
RTLwPs
1070
   128
  0
POLYLINE
  5
51F
100
AcDbEntity
  8
_AA_PERFIL_AC
100
AcDb2dPolyline
 66
     1
 10
0.0
 20
0.0
 30
0.0
 70
     1
210
0.0000000000015465
220
0.0
230
-1.0
1001
ACAD
1000
RTLwPs
1070
   128
  0
VERTEX
  5
520
100
AcDbEntity
  8
_AA_PERFIL_AC
100
AcDbVertex
100
AcDb2dVertex
 10
29.982614
 20
1170.0
 30
0.0
  0
VERTEX
  5
521
100
AcDbEntity
  8
_AA_PERFIL_AC
100
AcDbVertex
100
AcDb2dVertex
 10
29.982614
 20
1150.0
 30
0.0
  0
VERTEX
  5
522
100
AcDbEntity
  8
_AA_PERFIL_AC
100
AcDbVertex
100
AcDb2dVertex
 10
49.9665
 20
1150.0
 30
0.0
  0
VERTEX
  5
523
100
AcDbEntity
  8
_AA_PERFIL_AC
100
AcDbVertex
100
AcDb2dVertex
 10
49.9665
 20
1170.0
 30
0.0
  0
VERTEX
  5
524
100
AcDbEntity
  8
_AA_PERFIL_AC
100
AcDbVertex
100
AcDb2dVertex
 10
29.982614
 20
1170.0
 30
0.0
  0
SEQEND
  5
525
100
AcDbEntity
  8
_AA_PERFIL_AC
  0
LINE
  5
526
100
AcDbEntity
  8
_AA_PERFIL_AC
100
AcDbLine
 10
-134.450638
 20
770.0
 30
0.0
 11
-49.983038
 21
770.0
 31
0.0
1001
ACAD
1000
RTLwPs
1070
   128
  0
LINE
  5
527
100
AcDbEntity
  8
_AA_PERFIL_AC
100
AcDbLine
 10
-134.844923
 20
750.0
 30
0.0
 11
-49.983886
 21
750.0
 31
0.0
1001
ACAD
1000
RTLwPs
1070
   128
  0
LINE
  5
528
100
AcDbEntity
  8
_AA_PERFIL_AC
100
AcDbLine
 10
-149.317734
 20
1170.0
 30
0.0
 11
-49.965652
 21
1170.0
 31
0.0
1001
ACAD
1000
RTLwPs
1070
   128
  0
LINE
  5
529
100
AcDbEntity
  8
_AA_PERFIL_AC
100
AcDbLine
 10
-150.390384
 20
1150.0
 30
0.0
 11
-49.9665
 21
1150.0
 31
0.0
1001
ACAD
1000
RTLwPs
1070
   128
  0
LINE
  5
52A
100
AcDbEntity
  8
_AA_PERFIL_AC
100
AcDbLine
 10
-129.183817
 20
370.0
 30
0.0
 11
-49.999152
 21
370.0
 31
0.0
1001
ACAD
1000
RTLwPs
1070
   128
  0
LINE
  5
52B
100
AcDbEntity
  8
_AA_PERFIL_AC
100
AcDbLine
 10
-130.800164
 20
350.0
 30
0.0
 11
-50.0
 21
350.0
 31
0.0
1001
ACAD
1000
RTLwPs
1070
   128
  0
LINE
  5
52C
100
AcDbEntity
  8
_AA_VIDRIO
100
AcDbLine
 10
-148.106999
 20
195.537568
 30
0.0
 11
-149.98725
 21
242.101382
 31
0.0
210
-0.0000000000000175
220
1.0
230
0.0
1001
ACAD
1000
RTLwPs
1070
   128
  0
LINE
  5
52D
100
AcDbEntity
  8
_AA_PERFIL_AC
100
AcDbLine
 10
-159.022818
 20
538.274305
 30
0.0
 11
-154.848809
 21
750.0
 31
0.0
210
-0.0000000000000175
220
1.0
230
0.0
1001
ACAD
1000
RTLwPs
1070
   128
  0
LINE
  5
52E
100
AcDbEntity
  8
_AA_PERFIL_AC
100
AcDbLine
 10
-175.854578
 20
1048.653766
 30
0.0
 11
-170.419128
 21
1150.0
 31
0.0
210
-0.0000000000000175
220
1.0
230
0.0
1001
ACAD
1000
RTLwPs
1070
   128
  0
LINE
  5
52F
100
AcDbEntity
  8
_AA_PERFIL_AC
100
AcDbLine
 10
-158.957716
 20
249.868741
 30
0.0
 11
-150.865372
 21
350.0
 31
0.0
210
-0.0000000000000175
220
1.0
230
0.0
1001
ACAD
1000
RTLwPs
1070
   128
  0
LINE
  5
530
100
AcDbEntity
  8
_AA_PROYECCION2
100
AcDbLine
 10
-163.670391
 20
191.556088
 30
0.0
 11
-158.957716
 21
249.868741
 31
0.0
210
-0.0000000000000175
220
1.0
230
0.0
1001
ACAD
1000
RTLwPs
1070
   128
  0
LINE
  5
531
100
AcDbEntity
  8
_AA_PERFIL_AC
100
AcDbLine
 10
-128.747847
 20
187.026738
 30
0.0
 11
-133.819916
 21
312.634864
 31
0.0
210
-0.0000000000000175
220
1.0
230
0.0
1001
ACAD
1000
RTLwPs
1070
   128
  0
LINE
  5
532
100
AcDbEntity
  8
_AA_PERFIL_AC
100
AcDbLine
 10
-139.022712
 20
248.257647
 30
0.0
 11
-130.800164
 21
350.0
 31
0.0
210
-0.0000000000000175
220
1.0
230
0.0
1001
ACAD
1000
RTLwPs
1070
   128
  0
LINE
  5
533
100
AcDbEntity
  8
_AA_PERFIL_AC
100
AcDbLine
 10
-129.183817
 20
370.0
 30
0.0
 11
-96.856874
 21
770.0
 31
0.0
210
-0.0000000000000175
220
1.0
230
0.0
1001
ACAD
1000
RTLwPs
1070
   128
  0
LINE
  5
534
100
AcDbEntity
  8
_AA_PERFIL_AC
100
AcDbLine
 10
-149.249025
 20
370.0
 30
0.0
 11
-116.922082
 21
770.0
 31
0.0
210
-0.0000000000000175
220
1.0
230
0.0
1001
ACAD
1000
RTLwPs
1070
   128
  0
LINE
  5
535
100
AcDbEntity
  8
_AA_PERFIL_AC
100
AcDbLine
 10
-139.026703
 20
537.880097
 30
0.0
 11
-134.844923
 21
750.0
 31
0.0
210
-0.0000000000000175
220
1.0
230
0.0
1001
ACAD
1000
RTLwPs
1070
   128
  0
LINE
  5
536
100
AcDbEntity
  8
_AA_PERFIL_AC
100
AcDbLine
 10
-134.450638
 20
770.0
 30
0.0
 11
-126.564947
 21
1170.0
 31
0.0
210
-0.0000000000000175
220
1.0
230
0.0
1001
ACAD
1000
RTLwPs
1070
   128
  0
LINE
  5
537
100
AcDbEntity
  8
_AA_PERFIL_AC
100
AcDbLine
 10
-154.454525
 20
770.0
 30
0.0
 11
-146.568833
 21
1170.0
 31
0.0
210
-0.0000000000000175
220
1.0
230
0.0
1001
ACAD
1000
RTLwPs
1070
   128
  0
LINE
  5
538
100
AcDbEntity
  8
_AA_PERFIL_AC
100
AcDbLine
 10
-155.347725
 20
1057.568304
 30
0.0
 11
-150.390384
 21
1150.0
 31
0.0
210
-0.0000000000000175
220
1.0
230
0.0
1001
ACAD
1000
RTLwPs
1070
   128
  0
LINE
  5
539
100
AcDbEntity
  8
_AA_PERFIL_AC
100
AcDbLine
 10
-149.317734
 20
1170.0
 30
0.0
 11
-146.477473
 21
1222.957869
 31
0.0
210
-0.0000000000000175
220
1.0
230
0.0
1001
ACAD
1000
RTLwPs
1070
   128
  0
LINE
  5
53A
100
AcDbEntity
  8
_AA_PERFIL_AC
100
AcDbLine
 10
-169.346478
 20
1170.0
 30
0.0
 11
-166.506216
 21
1222.957869
 31
0.0
210
-0.0000000000000175
220
1.0
230
0.0
1001
ACAD
1000
RTLwPs
1070
   128
  0
POLYLINE
  5
53B
100
AcDbEntity
  8
_AA_ESTRUCTURA_HR
100
AcDb2dPolyline
 66
     1
 10
0.0
 20
0.0
 30
0.0
210
-0.000000000001524
220
0.0
230
1.0
  0
VERTEX
  5
53C
100
AcDbEntity
  8
_AA_ESTRUCTURA_HR
100
AcDbVertex
100
AcDb2dVertex
 10
559.799954
 20
1239.381855
 30
0.0
  0
VERTEX
  5
53D
100
AcDbEntity
  8
_AA_ESTRUCTURA_HR
100
AcDbVertex
100
AcDb2dVertex
 10
88.320815
 20
1208.606585
 30
0.0
  0
SEQEND
  5
53E
100
AcDbEntity
  8
_AA_ESTRUCTURA_HR
  0
POLYLINE
  5
53F
100
AcDbEntity
  8
_AA_PERFIL_AC
100
AcDb2dPolyline
 66
     1
 10
0.0
 20
0.0
 30
0.0
210
-0.0000000000017065
220
0.0
230
1.0
1001
ACAD
1000
RTLwPs
1070
   128
  0
VERTEX
  5
540
100
AcDbEntity
  8
_AA_PERFIL_AC
100
AcDbVertex
100
AcDb2dVertex
 10
559.799954
 20
1225.308483
 30
0.0
1001
ACAD
1000
RTLwPs
1070
   128
  0
VERTEX
  5
541
100
AcDbEntity
  8
_AA_PERFIL_AC
100
AcDbVertex
100
AcDb2dVertex
 10
88.320815
 20
1194.567718
 30
0.0
1001
ACAD
1000
RTLwPs
1070
   128
  0
SEQEND
  5
542
100
AcDbEntity
  8
_AA_PERFIL_AC
1001
ACAD
1000
RTLwPs
1070
   128
  0
POLYLINE
  5
543
100
AcDbEntity
  8
_AA_PIEDRA
100
AcDb2dPolyline
 66
     1
 10
0.0
 20
0.0
 30
0.0
210
0.0000000000019722
220
0.0
230
-1.0
1001
ACAD
1000
RTLwPs
1070
   128
  0
VERTEX
  5
544
100
AcDbEntity
  8
_AA_PIEDRA
100
AcDbVertex
100
AcDb2dVertex
 10
-232.170427
 20
1399.348375
 30
0.0
1001
ACAD
1000
RTLwPs
1070
   128
  0
VERTEX
  5
545
100
AcDbEntity
  8
_AA_PIEDRA
100
AcDbVertex
100
AcDb2dVertex
 10
-559.799954
 20
1422.993162
 30
0.0
1001
ACAD
1000
RTLwPs
1070
   128
  0
SEQEND
  5
546
100
AcDbEntity
  8
_AA_PIEDRA
1001
ACAD
1000
RTLwPs
1070
   128
  0
LINE
  5
547
100
AcDbEntity
  8
_AA_PIEDRA
100
AcDbLine
 10
559.799954
 20
0.0
 30
0.0
 11
112.253746
 21
0.0
 31
0.0
210
0.0000000000015751
220
0.0
230
-1.0
  0
LINE
  5
548
100
AcDbEntity
  8
_AA_ESTRUCTURA_HR
100
AcDbLine
 10
-138.731548
 20
187.026738
 30
0.0
 11
-138.731548
 21
-55.0
 31
0.0
210
0.0000000000015751
220
0.0
230
-1.0
  0
LINE
  5
549
100
AcDbEntity
  8
_AA_ESTRUCTURA_HR
100
AcDbLine
 10
-138.731548
 20
-55.0
 30
0.0
 11
559.799954
 21
-55.0
 31
0.0
210
0.0000000000015751
220
0.0
230
-1.0
  0
LINE
  5
54A
100
AcDbEntity
  8
_AA_ESTRUCTURA_HR
100
AcDbLine
 10
559.799954
 20
-15.0
 30
0.0
 11
112.253746
 21
-15.0
 31
0.0
210
0.0000000000015751
220
0.0
230
-1.0
  0
LINE
  5
54B
100
AcDbEntity
  8
_AA_PERFIL_AC
100
AcDbLine
 10
-175.854578
 20
1048.653766
 30
0.0
 11
-148.989486
 21
1047.212924
 31
0.0
1001
ACAD
1000
RTLwPs
1070
   128
  0
LINE
  5
54C
100
AcDbEntity
  8
_AA_PERFIL_AC
100
AcDbLine
 10
-159.022818
 20
538.274305
 30
0.0
 11
-139.026703
 21
537.880097
 31
0.0
1001
ACAD
1000
RTLwPs
1070
   128
  0
POLYLINE
  5
54D
100
AcDbEntity
  8
_AA_ESTRUCTURA_HR
100
AcDb2dPolyline
 66
     1
 10
0.0
 20
0.0
 30
0.0
210
0.0000000000015586
220
0.0
230
-1.0
  0
VERTEX
  5
54E
100
AcDbEntity
  8
_AA_ESTRUCTURA_HR
100
AcDbVertex
100
AcDb2dVertex
 10
-112.253746
 20
1058.127953
 30
0.0
  0
VERTEX
  5
54F
100
AcDbEntity
  8
_AA_ESTRUCTURA_HR
100
AcDbVertex
100
AcDb2dVertex
 10
-112.253746
 20
-15.0
 30
0.0
  0
SEQEND
  5
550
100
AcDbEntity
  8
_AA_ESTRUCTURA_HR
  0
POLYLINE
  5
551
100
AcDbEntity
  8
_AA_ESTRUCTURA_HR
100
AcDb2dPolyline
 66
     1
 10
0.0
 20
0.0
 30
0.0
210
0.0000000000015586
220
0.0
230
-1.0
  0
VERTEX
  5
552
100
AcDbEntity
  8
_AA_ESTRUCTURA_HR
100
AcDbVertex
100
AcDb2dVertex
 10
-24.675569
 20
-15.0
 30
0.0
  0
VERTEX
  5
553
100
AcDbEntity
  8
_AA_ESTRUCTURA_HR
100
AcDbVertex
100
AcDb2dVertex
 10
-24.675569
 20
1058.127953
 30
0.0
  0
VERTEX
  5
554
100
AcDbEntity
  8
_AA_ESTRUCTURA_HR
100
AcDbVertex
100
AcDb2dVertex
 10
-112.253746
 20
1058.127953
 30
0.0
  0
SEQEND
  5
555
100
AcDbEntity
  8
_AA_ESTRUCTURA_HR
  0
INSERT
  5
556
100
AcDbEntity
  8
_AA_PERFIL_AL
100
AcDbBlockReference
  2
MALU90OPACO
 10
-193.717003
 20
1160.0
 30
0.0
 50
86.930343
  0
LINE
  5
557
100
AcDbEntity
  8
_AA_VIDRIO
100
AcDbLine
 10
-193.825148
 20
1157.983388
 30
0.0
 11
-189.032035
 21
1157.726348
 31
0.0
  0
LINE
  5
558
100
AcDbEntity
  8
_AA_VIDRIO
100
AcDbLine
 10
-199.243913
 20
1056.937816
 30
0.0
 11
-193.825148
 21
1157.983388
 31
0.0
  0
LINE
  5
559
100
AcDbEntity
  8
_AA_VIDRIO
100
AcDbLine
 10
-189.032035
 20
1157.726348
 30
0.0
 11
-194.450802
 21
1056.680744
 31
0.0
  0
LINE
  5
55A
100
AcDbEntity
  8
_AA_VIDRIO
100
AcDbLine
 10
-188.815746
 20
1161.759561
 30
0.0
 11
-185.159324
 21
1229.942112
 31
0.0
  0
LINE
  5
55B
100
AcDbEntity
  8
_AA_PERFIL_AL
100
AcDbLine
 10
-188.658393
 20
1254.32963
 30
0.0
 11
-189.736148
 21
1234.232365
 31
0.0
  0
LINE
  5
55C
100
AcDbEntity
  8
_AA_VIDRIO
100
AcDbLine
 10
-193.608859
 20
1162.016601
 30
0.0
 11
-188.815746
 21
1161.759561
 31
0.0
  0
LINE
  5
55D
100
AcDbEntity
  8
_AA_VIDRIO
100
AcDbLine
 10
-199.243913
 20
1056.937816
 30
0.0
 11
-194.450802
 21
1056.680744
 31
0.0
  0
LINE
  5
55E
100
AcDbEntity
  8
_AA_VIDRIO
100
AcDbLine
 10
-194.66769
 20
1052.647563
 30
0.0
 11
-204.632285
 21
866.857767
 31
0.0
  0
LINE
  5
55F
100
AcDbEntity
  8
_AA_VIDRIO
100
AcDbLine
 10
-209.425396
 20
867.11484
 30
0.0
 11
-199.460801
 21
1052.904635
 31
0.0
  0
LINE
  5
560
100
AcDbEntity
  8
_AA_VIDRIO
100
AcDbLine
 10
-199.460801
 20
1052.904635
 30
0.0
 11
-194.66769
 21
1052.647563
 31
0.0
  0
INSERT
  5
561
100
AcDbEntity
  8
_AA_PERFIL_AL
100
AcDbBlockReference
  2
MALU90SEMITRP
 10
-209.533322
 20
865.098226
 30
0.0
 50
86.929957
  0
LINE
  5
562
100
AcDbEntity
  8
_AA_VIDRIO
100
AcDbLine
 10
-209.425396
 20
867.11484
 30
0.0
 11
-207.827692
 21
867.029149
 31
0.0
  0
LINE
  5
563
100
AcDbEntity
  8
_AA_VIDRIO
100
AcDbLine
 10
-205.830562
 20
866.922035
 30
0.0
 11
-204.632285
 21
866.857767
 31
0.0
  0
POLYLINE
  5
564
100
AcDbEntity
  8
_AA_PERFIL_AC
100
AcDb2dPolyline
 66
     1
 10
0.0
 20
0.0
 30
0.0
 70
     1
210
0.0000000000015465
220
0.0
230
-1.0
1001
ACAD
1000
RTLwPs
1070
   128
  0
VERTEX
  5
565
100
AcDbEntity
  8
_AA_PERFIL_AC
100
AcDbVertex
100
AcDb2dVertex
 10
96.856874
 20
770.0
 30
0.0
  0
VERTEX
  5
566
100
AcDbEntity
  8
_AA_PERFIL_AC
100
AcDbVertex
100
AcDb2dVertex
 10
98.473221
 20
750.000001
 30
0.0
  0
VERTEX
  5
567
100
AcDbEntity
  8
_AA_PERFIL_AC
100
AcDbVertex
100
AcDb2dVertex
 10
118.457107
 20
750.000001
 30
0.0
  0
VERTEX
  5
568
100
AcDbEntity
  8
_AA_PERFIL_AC
100
AcDbVertex
100
AcDb2dVertex
 10
116.922082
 20
770.0
 30
0.0
  0
VERTEX
  5
569
100
AcDbEntity
  8
_AA_PERFIL_AC
100
AcDbVertex
100
AcDb2dVertex
 10
96.856874
 20
770.0
 30
0.0
  0
SEQEND
  5
56A
100
AcDbEntity
  8
_AA_PERFIL_AC
  0
POLYLINE
  5
56B
100
AcDbEntity
  8
_AA_PERFIL_AC
100
AcDb2dPolyline
 66
     1
 10
0.0
 20
0.0
 30
0.0
 70
     1
210
0.0000000000015465
220
0.0
230
-1.0
1001
ACAD
1000
RTLwPs
1070
   128
  0
VERTEX
  5
56C
100
AcDbEntity
  8
_AA_PERFIL_AC
100
AcDbVertex
100
AcDb2dVertex
 10
126.564947
 20
1170.0
 30
0.0
  0
VERTEX
  5
56D
100
AcDbEntity
  8
_AA_PERFIL_AC
100
AcDbVertex
100
AcDb2dVertex
 10
126.958808
 20
1150.0
 30
0.0
  0
VERTEX
  5
56E
100
AcDbEntity
  8
_AA_PERFIL_AC
100
AcDbVertex
100
AcDb2dVertex
 10
146.942694
 20
1150.0
 30
0.0
  0
VERTEX
  5
56F
100
AcDbEntity
  8
_AA_PERFIL_AC
100
AcDbVertex
100
AcDb2dVertex
 10
146.568833
 20
1170.0
 30
0.0
  0
VERTEX
  5
570
100
AcDbEntity
  8
_AA_PERFIL_AC
100
AcDbVertex
100
AcDb2dVertex
 10
126.564947
 20
1170.0
 30
0.0
  0
SEQEND
  5
571
100
AcDbEntity
  8
_AA_PERFIL_AC
  0
LINE
  5
572
100
AcDbEntity
  8
_AA_VIDRIO
100
AcDbLine
 10
-183.156513
 20
531.729214
 30
0.0
 11
-184.397775
 21
468.766619
 31
0.0
  0
LINE
  5
573
100
AcDbEntity
  8
_AA_VIDRIO
100
AcDbLine
 10
-182.877713
 20
535.724367
 30
0.0
 11
-178.529208
 21
756.30072
 31
0.0
  0
LINE
  5
574
100
AcDbEntity
  8
_AA_VIDRIO
100
AcDbLine
 10
-187.95558
 20
531.823824
 30
0.0
 11
-183.156513
 21
531.729214
 31
0.0
  0
LINE
  5
575
100
AcDbEntity
  8
_AA_VIDRIO
100
AcDbLine
 10
-167.923425
 20
1050.749629
 30
0.0
 11
-173.584287
 21
763.604468
 31
0.0
  0
LINE
  5
576
100
AcDbEntity
  8
_AA_VIDRIO
100
AcDbLine
 10
-178.078646
 20
535.629756
 30
0.0
 11
-178.08804
 21
535.629942
 31
0.0
  0
LINE
  5
577
100
AcDbEntity
  8
_AA_VIDRIO
100
AcDbLine
 10
-178.08804
 20
535.629942
 30
0.0
 11
-182.877713
 21
535.724367
 31
0.0
  0
LINE
  5
578
100
AcDbEntity
  8
_AA_PROYECCION2
100
AcDbLine
 10
-186.034683
 20
858.841457
 30
0.0
 11
-175.854578
 21
1048.653766
 31
0.0
210
-0.0000000000000175
220
1.0
230
0.0
  0
LWPOLYLINE
  5
579
100
AcDbEntity
  8
_AA_PERFIL_AL
100
AcDbPolyline
 90
        4
 70
     0
 43
0.0
 38
0.0
 10
-176.054296
 20
1048.664477
 10
-194.028462
 20
1049.628499
 10
-193.492895
 20
1059.614148
 10
-175.518728
 20
1058.650125
  0
LWPOLYLINE
  5
57A
100
AcDbEntity
  8
_AA_PERFIL_AL
100
AcDbPolyline
 90
        9
 70
   128
 43
0.0
 38
0.0
 10
-197.093971
 20
1054.800105
 10
-197.198403
 20
1052.852981
 10
-199.812104
 20
1052.993164
 10
-199.967603
 20
1050.093874
 10
-200.566743
 20
1050.126008
 10
-200.395176
 20
1053.324867
 10
-197.781475
 20
1053.184685
 10
-197.69311
 20
1054.83224
 10
-197.093971
 20
1054.800105
  0
LINE
  5
57B
100
AcDbEntity
  8
_AA_VIDRIO
100
AcDbLine
 10
-189.196843
 20
468.861228
 30
0.0
 11
-184.397775
 21
468.766619
 31
0.0
  0
LINE
  5
57C
100
AcDbEntity
  8
_AA_VIDRIO
100
AcDbLine
 10
-187.95558
 20
531.823824
 30
0.0
 11
-189.196843
 21
468.861228
 31
0.0
  0
LINE
  5
57D
100
AcDbEntity
  8
_AA_VIDRIO
100
AcDbLine
 10
-173.730299
 20
756.205912
 30
0.0
 11
-178.08804
 21
535.629942
 31
0.0
  0
INSERT
  5
57E
100
AcDbEntity
  8
_AA_VIDRIO
100
AcDbBlockReference
  2
MALU90
 10
-178.456279
 20
760.0
 30
0.0
 50
88.868201
1001
ACAD
1000
RTLwPs
1070
   128
  0
LINE
  5
57F
100
AcDbEntity
  8
_AA_VIDRIO
100
AcDbLine
 10
-173.730299
 20
756.205912
 30
0.0
 11
-178.529363
 21
756.300723
 31
0.0
  0
LINE
  5
580
100
AcDbEntity
  8
_AA_VIDRIO
100
AcDbLine
 10
-173.584287
 20
763.604468
 30
0.0
 11
-178.383196
 21
763.699277
 31
0.0
  0
LINE
  5
581
100
AcDbEntity
  8
_AA_VIDRIO
100
AcDbLine
 10
-178.383351
 20
763.69928
 30
0.0
 11
-172.722493
 21
1050.84424
 31
0.0
  0
LINE
  5
582
100
AcDbEntity
  8
_AA_VIDRIO
100
AcDbLine
 10
-182.920463
 20
248.815135
 30
0.0
 11
-178.136063
 21
248.428472
 31
0.0
  0
LINE
  5
583
100
AcDbEntity
  8
_AA_VIDRIO
100
AcDbLine
 10
-160.056095
 20
531.729214
 30
0.0
 11
-173.772116
 21
362.012936
 31
0.0
  0
LINE
  5
584
100
AcDbEntity
  8
_AA_VIDRIO
100
AcDbLine
 10
-178.136063
 20
248.428472
 30
0.0
 11
-169.313076
 21
357.600391
 31
0.0
  0
LINE
  5
585
100
AcDbEntity
  8
_AA_VIDRIO
100
AcDbLine
 10
-178.461424
 20
244.40259
 30
0.0
 11
-182.445964
 21
195.099564
 31
0.0
  0
LINE
  5
586
100
AcDbEntity
  8
_AA_VIDRIO
100
AcDbLine
 10
-187.230365
 20
195.486226
 30
0.0
 11
-183.245825
 21
244.789252
 31
0.0
  0
LINE
  5
587
100
AcDbEntity
  8
_AA_VIDRIO
100
AcDbLine
 10
-183.245825
 20
244.789252
 30
0.0
 11
-178.461424
 21
244.40259
 31
0.0
  0
INSERT
  5
588
100
AcDbEntity
  8
_AA_PERFIL_AL
100
AcDbBlockReference
  2
MALU90SEMITRP_OP
 10
-183.083144
 20
246.802194
 30
0.0
 50
85.379548
1001
ACAD
1000
RTLwPs
1070
   128
  0
INSERT
  5
589
100
AcDbEntity
  8
_AA_PERFIL_AL
100
AcDbBlockReference
  2
MALU90OPACO
 10
-173.934796
 20
360.0
 30
0.0
 50
85.379548
  0
LINE
  5
58A
100
AcDbEntity
  8
_AA_VIDRIO
100
AcDbLine
 10
-174.097477
 20
357.987053
 30
0.0
 11
-169.313076
 21
357.600391
 31
0.0
  0
LINE
  5
58B
100
AcDbEntity
  8
_AA_VIDRIO
100
AcDbLine
 10
-173.772116
 20
362.012936
 30
0.0
 11
-168.987715
 21
361.626273
 31
0.0
  0
LINE
  5
58C
100
AcDbEntity
  8
_AA_VIDRIO
100
AcDbLine
 10
-168.987715
 20
361.626273
 30
0.0
 11
-155.271694
 21
531.342551
 31
0.0
  0
LINE
  5
58D
100
AcDbEntity
  8
_AA_VIDRIO
100
AcDbLine
 10
-174.097477
 20
357.987053
 30
0.0
 11
-182.920463
 21
248.815135
 31
0.0
  0
INSERT
  5
58E
100
AcDbEntity
  8
_AA_PERFIL_AL
100
AcDbBlockReference
  2
MALU90SEMITRP
 10
-187.393045
 20
193.47329
 30
0.0
 50
85.379548
  0
LINE
  5
58F
100
AcDbEntity
  8
_AA_VIDRIO
100
AcDbLine
 10
-187.230365
 20
195.486226
 30
0.0
 11
-182.445964
 21
195.099564
 31
0.0
  0
LINE
  5
590
100
AcDbEntity
  8
_AA_ESTRUCTURA_HR
100
AcDbLine
 10
-108.731548
 20
187.026738
 30
0.0
 11
-108.731548
 21
-15.0
 31
0.0
210
0.0000000000015751
220
0.0
230
-1.0
  0
LINE
  5
591
100
AcDbEntity
  8
_AA_ESTRUCTURA_HR
100
AcDbLine
 10
-138.731548
 20
187.026738
 30
0.0
 11
-108.731548
 21
187.026738
 31
0.0
  0
LINE
  5
592
100
AcDbEntity
  8
_AA_PIEDRA
100
AcDbLine
 10
24.675569
 20
0.0
 30
0.0
 11
-113.389641
 21
0.0
 31
0.0
210
0.0000000000015751
220
0.0
230
-1.0
  0
LINE
  5
593
100
AcDbEntity
  8
_AA_ESTRUCTURA_HR
100
AcDbLine
 10
24.675569
 20
-15.0
 30
0.0
 11
-108.731548
 21
-15.0
 31
0.0
210
0.0000000000015751
220
0.0
230
-1.0
  0
INSERT
  5
594
100
AcDbEntity
  8
_AA_PERFIL_AL
100
AcDbBlockReference
  2
MALU90OPACO
 10
-189.844292
 20
1232.215764
 30
0.0
 50
86.930343
  0
LINE
  5
595
100
AcDbEntity
  8
_AA_VIDRIO
100
AcDbLine
 10
-189.952437
 20
1230.199152
 30
0.0
 11
-185.159324
 21
1229.942112
 31
0.0
  0
LINE
  5
596
100
AcDbEntity
  8
_AA_PERFIL_AL
100
AcDbLine
 10
-189.736148
 20
1234.232365
 30
0.0
 11
-184.943035
 21
1233.975325
 31
0.0
  0
LINE
  5
597
100
AcDbEntity
  8
_AA_VIDRIO
100
AcDbLine
 10
-189.952437
 20
1230.199152
 30
0.0
 11
-193.608859
 21
1162.016601
 31
0.0
  0
LWPOLYLINE
  5
598
100
AcDbEntity
  8
_AA_PERFIL_AC
100
AcDbPolyline
 90
        5
 70
   128
 43
0.0
 10
-165.81027
 20
1235.934071
 10
-145.781527
 20
1235.934071
 10
-146.854176
 20
1215.934071
 10
-166.88292
 20
1215.934071
 10
-165.81027
 20
1235.934071
1001
ACAD
1000
RTLwPs
1070
   128
  0
LINE
  5
599
100
AcDbEntity
  8
_AA_PERFIL_AL
100
AcDbLine
 10
-117.779681
 20
1227.540008
 30
0.0
 11
-122.579681
 21
1227.540008
 31
0.0
1001
ACAD
1000
RTLwPs
1070
   128
  0
LINE
  5
59A
100
AcDbEntity
  8
_AA_PIEDRA
100
AcDbLine
 10
13.929857
 20
1352.011885
 30
0.0
 11
237.170368
 21
1364.622853
 31
0.0
210
-0.0000000000005508
220
0.0
230
-1.0
1001
ACAD
1000
RTLwPs
1070
   128
  0
LINE
  5
59B
100
AcDbEntity
  8
_AA_PIEDRA
100
AcDbLine
 10
237.170368
 20
1364.622853
 30
0.0
 11
237.170368
 21
1394.696213
 31
0.0
210
0.0000000000019722
220
0.0
230
-1.0
1001
ACAD
1000
RTLwPs
1070
   128
  0
LINE
  5
59C
100
AcDbEntity
  8
_AA_PIEDRA
100
AcDbLine
 10
237.170368
 20
1394.696213
 30
0.0
 11
560.159864
 21
1418.006133
 31
0.0
210
0.0000000000019722
220
0.0
230
-1.0
1001
ACAD
1000
RTLwPs
1070
   128
  0
LWPOLYLINE
  5
59D
100
AcDbEntity
  8
_AA_PERFIL_AC
100
AcDbPolyline
 90
        4
 70
   129
 43
0.0
 10
0.0
 20
1189.5888
 10
0.0
 20
1051.898654
 10
-29.981431
 20
1051.898654
 10
-29.981431
 20
1187.898654
1001
ACAD
1000
RTLwPs
1070
   128
  0
LINE
  5
59E
100
AcDbEntity
  8
_AA_ESTRUCTURA_HR
100
AcDbLine
 10
-141.7337
 20
1181.598833
 30
0.0
 11
-141.7337
 21
1235.934071
 31
0.0
  0
POLYLINE
  5
59F
100
AcDbEntity
  8
_AA_PERFIL_AC
100
AcDb2dPolyline
 66
     1
 10
0.0
 20
0.0
 30
0.0
210
-0.0000000000022015
220
0.0
230
1.0
1001
ACAD
1000
RTLwPs
1070
   128
  0
VERTEX
  5
5A0
100
AcDbEntity
  8
_AA_PERFIL_AC
100
AcDbVertex
100
AcDb2dVertex
 10
88.320815
 20
1194.567718
 30
0.0
1001
ACAD
1000
RTLwPs
1070
   128
  0
VERTEX
  5
5A1
100
AcDbEntity
  8
_AA_PERFIL_AC
100
AcDbVertex
100
AcDb2dVertex
 10
-141.7337
 20
1181.598833
 30
0.0
1001
ACAD
1000
RTLwPs
1070
   128
  0
SEQEND
  5
5A2
100
AcDbEntity
  8
_AA_PERFIL_AC
1001
ACAD
1000
RTLwPs
1070
   128
  0
POLYLINE
  5
5A3
100
AcDbEntity
  8
_AA_ESTRUCTURA_HR
100
AcDb2dPolyline
 66
     1
 10
0.0
 20
0.0
 30
0.0
210
-0.0000000000029487
220
0.0
230
1.0
  0
VERTEX
  5
5A4
100
AcDbEntity
  8
_AA_ESTRUCTURA_HR
100
AcDbVertex
100
AcDb2dVertex
 10
88.320815
 20
1208.606585
 30
0.0
  0
VERTEX
  5
5A5
100
AcDbEntity
  8
_AA_ESTRUCTURA_HR
100
AcDbVertex
100
AcDb2dVertex
 10
-126.7337
 20
1196.488821
 30
0.0
  0
VERTEX
  5
5A6
100
AcDbEntity
  8
_AA_ESTRUCTURA_HR
100
AcDbVertex
100
AcDb2dVertex
 10
-126.7337
 20
1235.934071
 30
0.0
  0
VERTEX
  5
5A7
100
AcDbEntity
  8
_AA_ESTRUCTURA_HR
100
AcDbVertex
100
AcDb2dVertex
 10
-141.7337
 20
1235.934071
 30
0.0
  0
SEQEND
  5
5A8
100
AcDbEntity
  8
_AA_ESTRUCTURA_HR
  0
LINE
  5
5A9
100
AcDbEntity
  8
_AA_PERFIL_AL
100
AcDbLine
 10
-184.943035
 20
1233.975325
 30
0.0
 11
-184.095027
 21
1249.788423
 31
0.0
210
0.0000000000047162
220
0.0
230
-1.0
  0
LINE
  5
5AA
100
AcDbEntity
  8
_AA_PERFIL_AL
100
AcDbLine
 10
-184.095027
 20
1249.788423
 30
0.0
 11
-122.579681
 21
1253.387691
 31
0.0
210
0.0000000000047162
220
0.0
230
-1.0
  0
LINE
  5
5AB
100
AcDbEntity
  8
_AA_PERFIL_AL
100
AcDbLine
 10
-122.579681
 20
1253.387691
 30
0.0
 11
-122.579681
 21
1227.540008
 31
0.0
210
0.0000000000047162
220
0.0
230
-1.0
  0
LINE
  5
5AC
100
AcDbEntity
  8
_AA_PERFIL_AL
100
AcDbLine
 10
-188.657941
 20
1254.329656
 30
0.0
 11
-117.779681
 21
1258.476748
 31
0.0
210
0.0000000000047162
220
0.0
230
-1.0
  0
LINE
  5
5AD
100
AcDbEntity
  8
_AA_PERFIL_AL
100
AcDbLine
 10
-117.779681
 20
1258.476748
 30
0.0
 11
-117.779681
 21
1227.540008
 31
0.0
210
0.0000000000047162
220
0.0
230
-1.0
  0
LINE
  5
5AE
100
AcDbEntity
  8
_AA_PERFIL_AL
100
AcDbLine
 10
-117.779681
 20
1253.468197
 30
0.0
 11
13.929857
 21
1261.174531
 31
0.0
210
0.0000000000047162
220
0.0
230
-1.0
  0
LINE
  5
5AF
100
AcDbEntity
  8
_AA_PIEDRA
100
AcDbLine
 10
13.929857
 20
1261.174531
 30
0.0
 11
13.929857
 21
1352.011885
 31
0.0
210
0.0000000000047162
220
0.0
230
-1.0
1001
ACAD
1000
RTLwPs
1070
   128
  0
POLYLINE
  5
5B0
100
AcDbEntity
  8
_AA_PERFIL_AL
100
AcDb2dPolyline
 66
     1
 10
0.0
 20
0.0
 30
0.0
210
0.0000000000047162
220
0.0
230
-1.0
  0
VERTEX
  5
5B1
100
AcDbEntity
  8
_AA_PERFIL_AL
100
AcDbVertex
100
AcDb2dVertex
 10
117.779681
 20
1258.476748
 30
0.0
  0
VERTEX
  5
5B2
100
AcDbEntity
  8
_AA_PERFIL_AL
100
AcDbVertex
100
AcDb2dVertex
 10
-8.929857
 20
1265.890532
 30
0.0
  0
SEQEND
  5
5B3
100
AcDbEntity
  8
_AA_PERFIL_AL
  0
POLYLINE
  5
5B4
100
AcDbEntity
  8
_AA_PIEDRA
100
AcDb2dPolyline
 66
     1
 10
0.0
 20
0.0
 30
0.0
210
0.0000000000047162
220
0.0
230
-1.0
1001
ACAD
1000
RTLwPs
1070
   128
  0
VERTEX
  5
5B5
100
AcDbEntity
  8
_AA_PIEDRA
100
AcDbVertex
100
AcDb2dVertex
 10
-8.929857
 20
1265.890532
 30
0.0
1001
ACAD
1000
RTLwPs
1070
   128
  0
VERTEX
  5
5B6
100
AcDbEntity
  8
_AA_PIEDRA
100
AcDbVertex
100
AcDb2dVertex
 10
-8.929857
 20
1356.737404
 30
0.0
1001
ACAD
1000
RTLwPs
1070
   128
  0
SEQEND
  5
5B7
100
AcDbEntity
  8
_AA_PIEDRA
1001
ACAD
1000
RTLwPs
1070
   128
  0
LWPOLYLINE
  5
5B8
100
AcDbEntity
  8
_AA_PERFIL_AL
100
AcDbPolyline
 90
        5
 70
     0
 43
0.0
 38
0.0
 10
-191.346445
 20
1049.484652
 10
-191.346445
 20
1049.484652
 10
-173.372279
 20
1048.520631
 10
-172.836712
 20
1058.506279
 10
-179.755382
 20
1058.877353
  0
LINE
  5
5B9
100
AcDbEntity
  8
_AA_VIDRIO
100
AcDbLine
 10
-167.923425
 20
1050.749629
 30
0.0
 11
-172.722493
 21
1050.84424
 31
0.0
  0
LWPOLYLINE
  5
5BA
100
AcDbEntity
  8
_AA_PERFIL_AL
100
AcDbPolyline
 90
        4
 70
     1
 43
0.0
 38
0.0
 10
-186.567618
 20
538.81733
 10
-186.699058
 20
532.144941
 10
-183.399698
 20
532.07994
 10
-183.268106
 20
538.752283
  0
LWPOLYLINE
  5
5BB
100
AcDbEntity
  8
_AA_PERFIL_AL
100
AcDbPolyline
 90
        6
 70
     1
 43
0.0
 38
0.0
 10
-185.687286
 20
532.125008
 10
-188.904119
 20
532.188412
 10
-188.96726
 20
528.985578
 10
-188.367377
 20
528.973752
 10
-188.310148
 20
531.876644
 10
-185.693199
 20
531.825053
1001
ACAD
1000
RTLwPs
1070
   128
  0
LWPOLYLINE
  5
5BC
100
AcDbEntity
  8
_AA_PERFIL_AL
100
AcDbPolyline
 90
        4
 70
     1
 43
0.0
 38
0.0
 10
-177.219281
 20
538.633034
 10
-177.416386
 20
528.634976
 10
-161.371302
 20
528.31866
 10
-161.174197
 20
538.316717
  0
LWPOLYLINE
  5
5BD
100
AcDbEntity
  8
_AA_PERFIL_AL
100
AcDbPolyline
 90
        6
 70
     1
 43
0.0
 38
0.0
 10
-181.842858
 20
533.661846
 10
-181.939373
 20
528.766153
 10
-178.225616
 20
528.692939
 10
-178.129101
 20
533.588632
 10
-178.129101
 20
533.588632
 10
-178.129101
 20
533.588632
1001
ACAD
1000
RTLwPs
1070
   128
  0
LINE
  5
5BE
100
AcDbEntity
  8
_AA_VIDRIO
100
AcDbLine
 10
-160.056095
 20
531.729214
 30
0.0
 11
-155.271694
 21
531.342551
 31
0.0
  0
LWPOLYLINE
  5
5BF
100
AcDbEntity
  8
_AA_PERFIL_AL
100
AcDbPolyline
 90
       12
 70
   129
 43
0.0
 38
0.0
 10
-190.287662
 20
462.008519
 10
-190.224521
 20
465.211353
 10
-187.607572
 20
465.159762
 10
-187.542531
 20
468.458967
 10
-190.15948
 20
468.510558
 10
-190.096339
 20
471.713392
 10
-189.496455
 20
471.701566
 10
-189.553683
 20
468.798673
 10
-186.936734
 20
468.747082
 10
-187.013601
 20
464.847994
 10
-189.63055
 20
464.899585
 10
-189.687778
 20
461.996693
  0
LWPOLYLINE
  5
5C0
100
AcDbEntity
  8
_AA_PERFIL_AL
100
AcDbPolyline
 90
        4
 70
     1
 43
0.0
 38
0.0
 10
-183.736284
 20
461.732709
 10
-183.539181
 20
471.730767
 10
-166.226591
 20
471.389463
 10
-166.423694
 20
461.391406
  0
LINE
  5
5C1
100
AcDbEntity
  8
_AA_PERFIL_AC
100
AcDbLine
 10
-108.731548
 20
187.026738
 30
0.0
 11
-116.120027
 21
370.0
 31
0.0
210
-0.0000000000000175
220
1.0
230
0.0
1001
ACAD
1000
RTLwPs
1070
   128
  0
LINE
  5
5C2
100
AcDbEntity
  8
_AA_PERFIL_AC
100
AcDbLine
 10
-158.957716
 20
249.868741
 30
0.0
 11
-139.022712
 21
248.257647
 31
0.0
1001
ACAD
1000
RTLwPs
1070
   128
  0
LINE
  5
5C3
100
AcDbEntity
  8
_AA_VIDRIO
100
AcDbLine
 10
-149.98725
 20
242.101382
 30
0.0
 11
-154.783342
 21
241.907715
 31
0.0
1001
ACAD
1000
RTLwPs
1070
   128
  0
INSERT
  5
5C4
100
AcDbEntity
  8
_AA_VIDRIO
100
AcDbBlockReference
  2
MALU90
 10
-153.174852
 20
192.026738
 30
0.0
 50
90.000002
1001
ACAD
1000
RTLwPs
1070
   128
  0
LINE
  5
5C5
100
AcDbEntity
  8
_AA_VIDRIO
100
AcDbLine
 10
-152.90309
 20
195.343901
 30
0.0
 11
-148.106999
 21
195.537568
 31
0.0
1001
ACAD
1000
RTLwPs
1070
   128
  0
INSERT
  5
5C6
100
AcDbEntity
  8
_AA_PERFIL_AL
100
AcDbBlockReference
  2
MALU90OPACO
 10
-159.902103
 20
533.63464
 30
0.0
 50
85.379548
  0
LWPOLYLINE
  5
5C7
100
AcDbEntity
  8
_AA_PERFIL_AL
100
AcDbPolyline
 90
        4
 70
     1
 43
0.0
 38
0.0
 10
-167.073959
 20
1048.182836
 10
-166.538405
 20
1058.168485
 10
-148.564237
 20
1057.204486
 10
-149.099792
 20
1047.218837
  0
INSERT
  5
5C8
100
AcDbEntity
  8
_AA_VIDRIO
100
AcDbBlockReference
  2
MALU90
 10
-154.476307
 20
244.490263
 30
0.0
 50
85.379551
1001
ACAD
1000
RTLwPs
1070
   128
  0
LINE
  5
5C9
100
AcDbEntity
  8
_AA_PERFIL_AC
100
AcDbLine
 10
-175.319023
 20
1058.639414
 30
0.0
 11
-148.792269
 21
1057.216719
 31
0.0
1001
ACAD
1000
RTLwPs
1070
   128
  0
CIRCLE
  5
5CA
100
AcDbEntity
  8
_AA_TEXTOS
100
AcDbCircle
 10
-188.717618
 20
936.482017
 30
0.0
 40
21.577864
1001
ACAD
1000
RTLwPs
1070
   128
  0
MTEXT
  5
5CB
100
AcDbEntity
  8
_AA_TEXTOS
100
AcDbMText
 10
-560.421484
 20
673.320213
 30
0.0
 40
30.0
 41
1696.6542
 71
     5
 72
     5
  1
LOS VIDRIO SON 8+8/20/6+6
  7
ROMANS
1001
ACAD
1000
MTEXTBEGIN
1070
    73
1070
     1
1070
    44
1040
1.0
1070
    74
1070
     0
1000
MTEXTEND
  0
LINE
  5
5CC
100
AcDbEntity
  8
_AA_TEXTOS
100
AcDbLine
 10
-895.994337
 20
637.598058
 30
0.0
 11
-228.348996
 21
637.598058
 31
0.0
1001
ACAD
1000
RTLwPs
1070
   128
  0
LINE
  5
5CD
100
AcDbEntity
  8
_AA_TEXTOS
100
AcDbLine
 10
-228.348996
 20
637.598058
 30
0.0
 11
-180.945859
 21
573.754927
 31
0.0
1001
ACAD
1000
RTLwPs
1070
   128
  0
ENDBLK
  5
5CF
100
AcDbEntity
  8
0
100
AcDbBlockEnd
  0
BLOCK
  5
75E
100
AcDbEntity
  8
0
100
AcDbBlockBegin
  2
PRUEBA
 70
     0
 10
0.0
 20
0.0
 30
0.0
  3
PRUEBA
  1

  0
POLYLINE
  5
5E0
100
AcDbEntity
  8
_AA_PIEDRA
100
AcDb2dPolyline
 66
     1
 10
0.0
 20
0.0
 30
-0.000059
210
0.0000000032286934
220
0.0
230
-1.0
  0
VERTEX
  5
5E1
100
AcDbEntity
  8
_AA_PIEDRA
100
AcDbVertex
100
AcDb2dVertex
 10
-311.542932
 20
1447.358859
 30
-0.000059
  0
VERTEX
  5
5E2
100
AcDbEntity
  8
_AA_PIEDRA
100
AcDbVertex
100
AcDb2dVertex
 10
-321.941069
 20
1452.473085
 30
-0.000059
  0
VERTEX
  5
5E3
100
AcDbEntity
  8
_AA_PIEDRA
100
AcDbVertex
100
AcDb2dVertex
 10
-330.279867
 20
1456.863575
 30
-0.000059
  0
VERTEX
  5
5E4
100
AcDbEntity
  8
_AA_PIEDRA
100
AcDbVertex
100
AcDb2dVertex
 10
-338.492069
 20
1461.48586
 30
-0.000059
  0
VERTEX
  5
5E5
100
AcDbEntity
  8
_AA_PIEDRA
100
AcDbVertex
100
AcDb2dVertex
 10
-346.557378
 20
1466.359313
 30
-0.000059
  0
VERTEX
  5
5E6
100
AcDbEntity
  8
_AA_PIEDRA
100
AcDbVertex
100
AcDb2dVertex
 10
-354.457774
 20
1471.495454
 30
-0.000059
  0
VERTEX
  5
5E7
100
AcDbEntity
  8
_AA_PIEDRA
100
AcDbVertex
100
AcDb2dVertex
 10
-361.53557
 20
1476.435396
 30
-0.000059
  0
SEQEND
  5
5E8
100
AcDbEntity
  8
_AA_PIEDRA
  0
LINE
  5
5E9
100
AcDbEntity
  8
_AA_PIEDRA
100
AcDbLine
 10
361.53557
 20
1446.435399
 30
0.0
 11
361.53557
 21
1476.435399
 31
0.0
210
-0.000000000000004
220
1.0
230
0.0
  0
LINE
  5
5EA
100
AcDbEntity
  8
_AA_CARTONYESO
100
AcDbLine
 10
476.478834
 20
1307.189099
 30
0.0
 11
376.707219
 21
1307.195366
 31
0.0
210
-0.000000000000004
220
1.0
230
0.0
  0
ARC
  5
5EB
100
AcDbEntity
  8
_AA_CARTONYESO
100
AcDbCircle
 10
260595.943304
 20
149087.680648
 30
-0.000001
 40
299167.428631
210
-0.0000000022136266
220
0.0
230
1.0
100
AcDbArc
 50
209.602023
 51
209.62255
  0
LINE
  5
5EC
100
AcDbEntity
  8
_AA_ESTRUCTURA_HR
100
AcDbLine
 10
444.357913
 20
386.843521
 30
0.0
 11
444.357913
 21
346.843521
 31
0.0
210
-0.0000000000015927
220
0.0
230
-1.0
  0
LINE
  5
5ED
100
AcDbEntity
  8
_AA_PERFIL_AC
100
AcDbLine
 10
512.210022
 20
386.843521
 30
0.0
 11
512.210022
 21
1254.414882
 31
0.0
  0
POLYLINE
  5
5EE
100
AcDbEntity
  8
_AA_PERFIL_AC
100
AcDb2dPolyline
 66
     1
 10
0.0
 20
0.0
 30
0.0
 70
     1
210
0.0000000000015465
220
0.0
230
-1.0
1001
ACAD
1000
RTLwPs
1070
   128
  0
VERTEX
  5
5EF
100
AcDbEntity
  8
_AA_PERFIL_AC
100
AcDbVertex
100
AcDb2dVertex
 10
-532.207417
 20
1171.843521
 30
0.0
  0
VERTEX
  5
5F0
100
AcDbEntity
  8
_AA_PERFIL_AC
100
AcDbVertex
100
AcDb2dVertex
 10
-532.207417
 20
1151.843521
 30
0.0
  0
VERTEX
  5
5F1
100
AcDbEntity
  8
_AA_PERFIL_AC
100
AcDbVertex
100
AcDb2dVertex
 10
-512.223532
 20
1151.843521
 30
0.0
  0
VERTEX
  5
5F2
100
AcDbEntity
  8
_AA_PERFIL_AC
100
AcDbVertex
100
AcDb2dVertex
 10
-512.223532
 20
1171.843521
 30
0.0
  0
VERTEX
  5
5F3
100
AcDbEntity
  8
_AA_PERFIL_AC
100
AcDbVertex
100
AcDb2dVertex
 10
-532.207417
 20
1171.843521
 30
0.0
  0
SEQEND
  5
5F4
100
AcDbEntity
  8
_AA_PERFIL_AC
  0
LWPOLYLINE
  5
5F5
100
AcDbEntity
  8
_AA_PERFIL_AC
100
AcDbPolyline
 90
        4
 70
     1
 43
0.0
 38
0.0
 10
532.207417
 20
1146.843521
 10
562.207417
 20
1146.843521
 10
562.207417
 20
1176.843521
 10
532.207417
 20
1176.843521
1001
ACAD
1000
RTLwPs
1070
   128
  0
LWPOLYLINE
  5
5F6
100
AcDbEntity
  8
_AA_PERFIL_AC
100
AcDbPolyline
 90
        4
 70
   129
 43
0.0
 10
562.207418
 20
1422.933175
 10
562.207418
 20
1249.856888
 10
532.207418
 20
1249.856888
 10
532.207418
 20
1385.856887
  0
LINE
  5
5F7
100
AcDbEntity
  8
_AA_PERFIL_AC
100
AcDbLine
 10
532.193908
 20
386.843521
 30
0.0
 11
532.193908
 21
1254.414882
 31
0.0
  0
POLYLINE
  5
5F8
100
AcDbEntity
  8
_AA_PERFIL_AC
100
AcDb2dPolyline
 66
     1
 10
0.0
 20
0.0
 30
0.0
 70
     1
210
0.0000000000015465
220
0.0
230
-1.0
1001
ACAD
1000
RTLwPs
1070
   128
  0
VERTEX
  5
5F9
100
AcDbEntity
  8
_AA_PERFIL_AC
100
AcDbVertex
100
AcDb2dVertex
 10
-532.207417
 20
771.843521
 30
0.0
  0
VERTEX
  5
5FA
100
AcDbEntity
  8
_AA_PERFIL_AC
100
AcDbVertex
100
AcDb2dVertex
 10
-532.207417
 20
751.843521
 30
0.0
  0
VERTEX
  5
5FB
100
AcDbEntity
  8
_AA_PERFIL_AC
100
AcDbVertex
100
AcDb2dVertex
 10
-512.223532
 20
751.843521
 30
0.0
  0
VERTEX
  5
5FC
100
AcDbEntity
  8
_AA_PERFIL_AC
100
AcDbVertex
100
AcDb2dVertex
 10
-512.223532
 20
771.843521
 30
0.0
  0
VERTEX
  5
5FD
100
AcDbEntity
  8
_AA_PERFIL_AC
100
AcDbVertex
100
AcDb2dVertex
 10
-532.207417
 20
771.843521
 30
0.0
  0
SEQEND
  5
5FE
100
AcDbEntity
  8
_AA_PERFIL_AC
  0
LINE
  5
5FF
100
AcDbEntity
  8
_AA_PERFIL_AC
100
AcDbLine
 10
399.457289
 20
1171.843521
 30
0.0
 11
446.478275
 21
386.843521
 31
0.0
210
-0.000000000000004
220
1.0
230
0.0
  0
LINE
  5
600
100
AcDbEntity
  8
_AA_PERFIL_AC
100
AcDbLine
 10
371.974717
 20
913.349501
 30
0.0
 11
354.419505
 21
1171.843521
 31
0.0
210
-0.000000000000004
220
1.0
230
0.0
  0
LINE
  5
601
100
AcDbEntity
  8
_AA_PERFIL_AC
100
AcDbLine
 10
354.265373
 20
1254.414882
 30
0.0
 11
348.981111
 21
1054.613604
 31
0.0
210
-0.000000000000004
220
1.0
230
0.0
  0
LINE
  5
602
100
AcDbEntity
  8
_AA_PERFIL_AC
100
AcDbLine
 10
328.451771
 20
1263.232746
 30
0.0
 11
334.486334
 21
1427.445171
 31
0.0
210
-0.000000000000004
220
1.0
230
0.0
  0
LINE
  5
603
100
AcDbEntity
  8
_AA_PERFIL_AC
100
AcDbLine
 10
419.493136
 20
1171.843521
 30
0.0
 11
466.514122
 21
386.843521
 31
0.0
210
-0.000000000000004
220
1.0
230
0.0
  0
LINE
  5
604
100
AcDbEntity
  8
_AA_PERFIL_AC
100
AcDbLine
 10
391.25118
 20
924.681666
 30
0.0
 11
374.465574
 21
1171.843521
 31
0.0
210
-0.000000000000004
220
1.0
230
0.0
  0
LINE
  5
605
100
AcDbEntity
  8
_AA_PERFIL_AC
100
AcDbLine
 10
374.272366
 20
1254.414882
 30
0.0
 11
372.088553
 21
1171.843521
 31
0.0
210
-0.000000000000004
220
1.0
230
0.0
1001
ACAD
1000
RTLwPs
1070
   128
  0
LINE
  5
606
100
AcDbEntity
  8
_AA_PERFIL_AC
100
AcDbLine
 10
348.43828
 20
1262.498271
 30
0.0
 11
354.499834
 21
1427.445171
 31
0.0
210
-0.000000000000004
220
1.0
230
0.0
  0
LINE
  5
607
100
AcDbEntity
  8
_AA_PERFIL_AC
100
AcDbLine
 10
512.223532
 20
771.843521
 30
0.0
 11
423.417027
 21
771.843521
 31
0.0
  0
LINE
  5
608
100
AcDbEntity
  8
_AA_PERFIL_AC
100
AcDbLine
 10
512.223532
 20
751.843521
 30
0.0
 11
424.615014
 21
751.843521
 31
0.0
  0
LWPOLYLINE
  5
609
100
AcDbEntity
  8
_AA_PERFIL_AC
100
AcDbPolyline
 90
        4
 70
   129
 43
0.0
 10
423.417027
 20
771.843521
 10
443.452874
 20
771.843521
 10
444.650861
 20
751.843521
 10
424.615014
 20
751.843521
1001
ACAD
1000
RTLwPs
1070
   128
  0
LINE
  5
60A
100
AcDbEntity
  8
_AA_PERFIL_AC
100
AcDbLine
 10
512.223532
 20
1171.843521
 30
0.0
 11
352.08156
 21
1171.843521
 31
0.0
1001
ACAD
1000
RTLwPs
1070
   128
  0
LINE
  5
60B
100
AcDbEntity
  8
_AA_PERFIL_AC
100
AcDbLine
 10
512.223532
 20
1151.843521
 30
0.0
 11
351.552608
 21
1151.843521
 31
0.0
1001
ACAD
1000
RTLwPs
1070
   128
  0
INSERT
  5
60C
100
AcDbEntity
  8
_AA_PERFIL_AL
100
AcDbBlockReference
  2
MALU90OPACO
 10
310.518769
 20
1423.322575
 30
0.0
 50
87.895412
1001
ACAD
1000
RTLwPs
1070
   128
  0
LINE
  5
60D
100
AcDbEntity
  8
_AA_VIDRIO
100
AcDbLine
 10
310.444605
 20
1421.304427
 30
0.00006
 11
315.241367
 21
1421.128153
 31
0.00006
  0
LINE
  5
60E
100
AcDbEntity
  8
_AA_VIDRIO
100
AcDbLine
 10
304.55837
 20
1261.128287
 30
0.00006
 11
308.185341
 21
1359.825373
 31
0.00006
  0
LINE
  5
60F
100
AcDbEntity
  8
_AA_VIDRIO
100
AcDbLine
 10
315.241367
 20
1421.128153
 30
0.00006
 11
313.130431
 21
1363.685384
 31
0.00006
  0
POLYLINE
  5
610
100
AcDbEntity
  8
_AA_PIEDRA
100
AcDb2dPolyline
 66
     1
 10
0.0
 20
0.0
 30
-0.000059
210
0.0000000032286934
220
0.0
230
-1.0
  0
VERTEX
  5
611
100
AcDbEntity
  8
_AA_PIEDRA
100
AcDbVertex
100
AcDb2dVertex
 10
-316.286414
 20
1444.119852
 30
-0.000059
  0
VERTEX
  5
612
100
AcDbEntity
  8
_AA_PIEDRA
100
AcDbVertex
100
AcDb2dVertex
 10
-324.209574
 20
1448.016784
 30
-0.000059
  0
VERTEX
  5
613
100
AcDbEntity
  8
_AA_PIEDRA
100
AcDbVertex
100
AcDb2dVertex
 10
-332.671287
 20
1452.47199
 30
-0.000059
  0
VERTEX
  5
614
100
AcDbEntity
  8
_AA_PIEDRA
100
AcDbVertex
100
AcDb2dVertex
 10
-341.011829
 20
1457.166512
 30
-0.000059
  0
VERTEX
  5
615
100
AcDbEntity
  8
_AA_PIEDRA
100
AcDbVertex
100
AcDb2dVertex
 10
-349.213651
 20
1462.122452
 30
-0.000059
  0
VERTEX
  5
616
100
AcDbEntity
  8
_AA_PIEDRA
100
AcDbVertex
100
AcDb2dVertex
 10
-356.53557
 20
1466.882519
 30
-0.000059
  0
SEQEND
  5
617
100
AcDbEntity
  8
_AA_PIEDRA
  0
LINE
  5
618
100
AcDbEntity
  8
_AA_PIEDRA
100
AcDbLine
 10
310.592933
 20
1425.340712
 30
0.00006
 11
315.472822
 21
1425.161383
 31
0.00006
  0
LINE
  5
619
100
AcDbEntity
  8
_AA_VIDRIO
100
AcDbLine
 10
304.55837
 20
1261.128287
 30
0.0
 11
309.355132
 21
1260.952013
 31
0.0
  0
LINE
  5
61A
100
AcDbEntity
  8
_AA_VIDRIO
100
AcDbLine
 10
304.410043
 20
1257.092002
 30
0.0
 11
309.206805
 21
1256.915728
 31
0.0
  0
INSERT
  5
61B
100
AcDbEntity
  8
_AA_PERFIL_AL
100
AcDbBlockReference
  2
MALU90SEMITRP_OP
 10
304.484206
 20
1259.110144
 30
0.0
 50
87.895412
1001
ACAD
1000
RTLwPs
1070
   128
  0
INSERT
  5
61C
100
AcDbEntity
  8
_AA_PERFIL_AL
100
AcDbBlockReference
  2
MALU90OPACO
 10
308.259505
 20
1361.843521
 30
0.00006
 50
87.895412
1001
ACAD
1000
RTLwPs
1070
   128
  0
LINE
  5
61D
100
AcDbEntity
  8
_AA_VIDRIO
100
AcDbLine
 10
308.185341
 20
1359.825373
 30
0.00006
 11
312.982104
 21
1359.649099
 31
0.00006
  0
LINE
  5
61E
100
AcDbEntity
  8
_AA_VIDRIO
100
AcDbLine
 10
308.333669
 20
1363.861658
 30
0.00006
 11
313.130431
 21
1363.685384
 31
0.00006
  0
LINE
  5
61F
100
AcDbEntity
  8
_AA_VIDRIO
100
AcDbLine
 10
312.982104
 20
1359.649099
 30
0.00006
 11
309.355132
 21
1260.952013
 31
0.00006
  0
LINE
  5
620
100
AcDbEntity
  8
_AA_VIDRIO
100
AcDbLine
 10
308.333669
 20
1363.861658
 30
0.00006
 11
310.444605
 21
1421.304427
 31
0.00006
  0
LINE
  5
621
100
AcDbEntity
  8
_AA_PIEDRA
100
AcDbLine
 10
310.592933
 20
1425.340712
 30
0.00006
 11
311.542932
 21
1447.358859
 31
0.00006
  0
LINE
  5
622
100
AcDbEntity
  8
_AA_PIEDRA
100
AcDbLine
 10
315.472822
 20
1425.161383
 30
0.00006
 11
316.286414
 21
1444.119852
 31
0.00006
  0
INSERT
  5
623
100
AcDbEntity
  8
_AA_PERFIL_AL
100
AcDbBlockReference
  2
MALU90SEMITRP
 10
301.176683
 20
1169.10587
 30
0.0
 50
87.895412
1001
ACAD
1000
RTLwPs
1070
   128
  0
LINE
  5
624
100
AcDbEntity
  8
_AA_VIDRIO
100
AcDbLine
 10
301.250846
 20
1171.124007
 30
0.0
 11
306.047608
 21
1170.947733
 31
0.0
  0
LINE
  5
625
100
AcDbEntity
  8
_AA_VIDRIO
100
AcDbLine
 10
304.410043
 20
1257.092002
 30
0.0
 11
301.250846
 21
1171.124007
 31
0.0
  0
LINE
  5
626
100
AcDbEntity
  8
_AA_VIDRIO
100
AcDbLine
 10
306.047608
 20
1170.947733
 30
0.0
 11
309.206805
 21
1256.915728
 31
0.0
  0
INSERT
  5
627
100
AcDbEntity
  8
_AA_PERFIL_AL
100
AcDbBlockReference
  2
MALU90B
 10
325.189431
 20
1055.242837
 30
0.0
 41
-1.0
 50
88.485016
1001
ACAD
1000
RTLwPs
1070
   128
  0
LINE
  5
628
100
AcDbEntity
  8
_AA_VIDRIO
100
AcDbLine
 10
325.241788
 20
1057.222512
 30
0.0
 11
330.504546
 21
1256.2105
 31
0.0
  0
LINE
  5
629
100
AcDbEntity
  8
_AA_VIDRIO
100
AcDbLine
 10
320.137787
 20
1053.35623
 30
0.0
 11
324.936109
 21
1053.229326
 31
0.0
  0
LINE
  5
62A
100
AcDbEntity
  8
_AA_VIDRIO
100
AcDbLine
 10
335.301562
 20
1256.034216
 30
0.0
 11
330.040111
 21
1057.095608
 31
0.0
  0
LINE
  5
62B
100
AcDbEntity
  8
_AA_VIDRIO
100
AcDbLine
 10
330.040111
 20
1057.095608
 30
0.0
 11
325.241788
 21
1057.222512
 31
0.0
  0
LINE
  5
62C
100
AcDbEntity
  8
_AA_PERFIL_AC
100
AcDbLine
 10
328.451771
 20
1263.232746
 30
0.0
 11
354.832028
 21
1262.263311
 31
0.0
1001
ACAD
1000
RTLwPs
1070
   128
  0
INSERT
  5
62D
100
AcDbEntity
  8
_AA_PERFIL_AL
100
AcDbBlockReference
  2
MALU90SEMITRP
 10
318.867368
 20
1005.32114
 30
0.0
 50
88.485005
1001
ACAD
1000
RTLwPs
1070
   128
  0
LINE
  5
62E
100
AcDbEntity
  8
_AA_VIDRIO
100
AcDbLine
 10
318.920761
 20
1007.339933
 30
0.0
 11
323.719083
 21
1007.213028
 31
0.0
  0
LINE
  5
62F
100
AcDbEntity
  8
_AA_VIDRIO
100
AcDbLine
 10
320.137791
 20
1053.35623
 30
0.0
 11
318.920761
 21
1007.339933
 31
0.0
  0
LINE
  5
630
100
AcDbEntity
  8
_AA_VIDRIO
100
AcDbLine
 10
323.719083
 20
1007.213028
 30
0.0
 11
324.936113
 21
1053.229326
 31
0.0
  0
INSERT
  5
631
100
AcDbEntity
  8
_AA_PERFIL_AL
100
AcDbBlockReference
  2
MALU90OPACO
 10
344.8265
 20
961.843521
 30
0.0
 50
93.885186
1001
ACAD
1000
RTLwPs
1070
   128
  0
LINE
  5
632
100
AcDbEntity
  8
_AA_VIDRIO
100
AcDbLine
 10
344.963337
 20
959.828652
 30
0.0
 11
349.752305
 21
960.153887
 31
0.0
  0
LINE
  5
633
100
AcDbEntity
  8
_AA_VIDRIO
100
AcDbLine
 10
349.478633
 20
964.183614
 30
0.0
 11
343.667365
 21
1049.752392
 31
0.0
  0
LINE
  5
634
100
AcDbEntity
  8
_AA_VIDRIO
100
AcDbLine
 10
338.847651
 20
1049.879862
 30
0.0
 11
344.689664
 21
963.858378
 31
0.0
  0
LINE
  5
635
100
AcDbEntity
  8
_AA_VIDRIO
100
AcDbLine
 10
344.689664
 20
963.858378
 30
0.0
 11
349.478633
 21
964.183614
 31
0.0
  0
LINE
  5
636
100
AcDbEntity
  8
_AA_VIDRIO
100
AcDbLine
 10
347.75379
 20
918.740249
 30
0.0
 11
352.542759
 21
919.065485
 31
0.0
  0
LINE
  5
637
100
AcDbEntity
  8
_AA_VIDRIO
100
AcDbLine
 10
344.963337
 20
959.828652
 30
0.0
 11
347.75379
 21
918.740249
 31
0.0
  0
LINE
  5
638
100
AcDbEntity
  8
_AA_VIDRIO
100
AcDbLine
 10
352.542759
 20
919.065485
 30
0.0
 11
349.752305
 21
960.153887
 31
0.0
  0
LINE
  5
639
100
AcDbEntity
  8
_AA_VIDRIO
100
AcDbLine
 10
352.816432
 20
915.035758
 30
0.0
 11
355.962116
 21
868.716718
 31
0.0
  0
LINE
  5
63A
100
AcDbEntity
  8
_AA_VIDRIO
100
AcDbLine
 10
351.173147
 20
868.391483
 30
0.0
 11
348.027463
 21
914.710523
 31
0.0
  0
LINE
  5
63B
100
AcDbEntity
  8
_AA_VIDRIO
100
AcDbLine
 10
348.027463
 20
914.710523
 30
0.0
 11
352.816432
 21
915.035758
 31
0.0
  0
INSERT
  5
63C
100
AcDbEntity
  8
_AA_PERFIL_AL
100
AcDbBlockReference
  2
MALU90SEMITRP_OP
 10
347.890627
 20
916.725386
 30
0.0
 50
93.885186
1001
ACAD
1000
RTLwPs
1070
   128
  0
INSERT
  5
63D
100
AcDbEntity
  8
_AA_PERFIL_AL
100
AcDbBlockReference
  2
MALU90SEMITRP
 10
351.309983
 20
866.376625
 30
0.0
 50
93.885186
1001
ACAD
1000
RTLwPs
1070
   128
  0
LINE
  5
63E
100
AcDbEntity
  8
_AA_VIDRIO
100
AcDbLine
 10
351.173147
 20
868.391483
 30
0.0
 11
355.962116
 21
868.716718
 31
0.0
  0
LINE
  5
63F
100
AcDbEntity
  8
_AA_VIDRIO
100
AcDbLine
 10
404.743388
 20
765.823893
 30
0.0
 11
395.724994
 21
916.417717
 31
0.0
  0
LINE
  5
640
100
AcDbEntity
  8
_AA_VIDRIO
100
AcDbLine
 10
390.933582
 20
916.130714
 30
0.0
 11
399.951976
 21
765.53689
 31
0.0
  0
LINE
  5
641
100
AcDbEntity
  8
_AA_VIDRIO
100
AcDbLine
 10
411.932006
 20
565.5369
 30
0.0
 11
400.394593
 21
758.150142
 31
0.0
  0
LINE
  5
642
100
AcDbEntity
  8
_AA_VIDRIO
100
AcDbLine
 10
405.186005
 20
758.437145
 30
0.0
 11
416.723418
 21
565.823902
 31
0.0
  0
INSERT
  5
643
100
AcDbEntity
  8
_AA_PERFIL_AL
100
AcDbBlockReference
  2
MALU90
 10
400.173362
 20
761.843521
 30
0.0
 50
93.427886
1001
ACAD
1000
RTLwPs
1070
   128
  0
LINE
  5
644
100
AcDbEntity
  8
_AA_VIDRIO
100
AcDbLine
 10
405.186005
 20
758.437145
 30
0.0
 11
400.394593
 21
758.150142
 31
0.0
  0
LINE
  5
645
100
AcDbEntity
  8
_AA_VIDRIO
100
AcDbLine
 10
404.743388
 20
765.823893
 30
0.0
 11
399.952131
 21
765.536899
 31
0.0
  0
LINE
  5
646
100
AcDbEntity
  8
_AA_VIDRIO
100
AcDbLine
 10
421.216007
 20
410.543519
 30
0.0
 11
412.374462
 21
558.150142
 31
0.0
  0
LINE
  5
647
100
AcDbEntity
  8
_AA_VIDRIO
100
AcDbLine
 10
417.165874
 20
558.437145
 30
0.0
 11
426.007419
 21
410.830521
 31
0.0
  0
INSERT
  5
648
100
AcDbEntity
  8
_AA_PERFIL_AL
100
AcDbBlockReference
  2
MALU90
 10
412.153231
 20
561.843521
 30
0.0
 50
93.427886
1001
ACAD
1000
RTLwPs
1070
   128
  0
LINE
  5
649
100
AcDbEntity
  8
_AA_VIDRIO
100
AcDbLine
 10
417.165874
 20
558.437145
 30
0.0
 11
412.374462
 21
558.150142
 31
0.0
  0
LINE
  5
64A
100
AcDbEntity
  8
_AA_VIDRIO
100
AcDbLine
 10
416.723257
 20
565.823893
 30
0.0
 11
411.932
 21
565.536899
 31
0.0
  0
INSERT
  5
64B
100
AcDbEntity
  8
_AA_PERFIL_AL
100
AcDbBlockReference
  2
MALU90
 10
390.862135
 20
919.643769
 30
0.0
 50
93.885086
1001
ACAD
1000
RTLwPs
1070
   128
  0
LINE
  5
64C
100
AcDbEntity
  8
_AA_VIDRIO
100
AcDbLine
 10
395.822901
 20
916.423581
 30
0.0
 11
391.031489
 21
916.136579
 31
0.0
  0
INSERT
  5
64D
100
AcDbEntity
  8
_AA_PERFIL_AL
100
AcDbBlockReference
  2
MALU90
 10
421.216007
 20
406.84352
 30
0.0
 50
90.000002
1001
ACAD
1000
RTLwPs
1070
   128
  0
LINE
  5
64E
100
AcDbEntity
  8
_AA_VIDRIO
100
AcDbLine
 10
421.216007
 20
410.543519
 30
0.0
 11
426.007419
 21
410.830521
 31
0.0
  0
LINE
  5
64F
100
AcDbEntity
  8
_AA_PERFIL_AC
100
AcDbLine
 10
371.297144
 20
923.326519
 30
0.0
 11
414.168894
 21
926.238086
 31
0.0
1001
ACAD
1000
RTLwPs
1070
   128
  0
LINE
  5
650
100
AcDbEntity
  8
_AA_PERFIL_AC
100
AcDbLine
 10
348.981111
 20
1054.613604
 30
0.0
 11
362.4051
 21
1054.258572
 31
0.0
1001
ACAD
1000
RTLwPs
1070
   128
  0
LWPOLYLINE
  5
651
100
AcDbEntity
  8
_AA_PERFIL_AC
100
AcDbPolyline
 90
        4
 70
   129
 43
0.0
 10
399.457289
 20
1171.843521
 10
419.493136
 20
1171.843521
 10
420.691123
 20
1151.843521
 10
400.655276
 20
1151.843521
1001
ACAD
1000
RTLwPs
1070
   128
  0
LINE
  5
652
100
AcDbEntity
  8
_AA_PERFIL_AC
100
AcDbLine
 10
354.265373
 20
1254.414882
 30
0.0
 11
512.210022
 21
1254.414882
 31
0.0
1001
ACAD
1000
RTLwPs
1070
   128
  0
POLYLINE
  5
653
100
AcDbEntity
  8
_AA_PERFIL_AC
100
AcDb2dPolyline
 66
     1
 10
0.0
 20
0.0
 30
0.0
 70
     1
210
0.0000000000015465
220
0.0
230
-1.0
1001
ACAD
1000
RTLwPs
1070
   128
  0
VERTEX
  5
654
100
AcDbEntity
  8
_AA_PERFIL_AC
100
AcDbVertex
100
AcDb2dVertex
 10
-532.193908
 20
1254.414882
 30
0.0
  0
VERTEX
  5
655
100
AcDbEntity
  8
_AA_PERFIL_AC
100
AcDbVertex
100
AcDb2dVertex
 10
-532.193908
 20
1234.414882
 30
0.0
  0
VERTEX
  5
656
100
AcDbEntity
  8
_AA_PERFIL_AC
100
AcDbVertex
100
AcDb2dVertex
 10
-512.210022
 20
1234.414882
 30
0.0
  0
VERTEX
  5
657
100
AcDbEntity
  8
_AA_PERFIL_AC
100
AcDbVertex
100
AcDb2dVertex
 10
-512.210022
 20
1254.414882
 30
0.0
  0
VERTEX
  5
658
100
AcDbEntity
  8
_AA_PERFIL_AC
100
AcDbVertex
100
AcDb2dVertex
 10
-532.193908
 20
1254.414882
 30
0.0
  0
SEQEND
  5
659
100
AcDbEntity
  8
_AA_PERFIL_AC
  0
LINE
  5
65A
100
AcDbEntity
  8
_AA_PERFIL_AC
100
AcDbLine
 10
353.736421
 20
1234.414882
 30
0.0
 11
512.210022
 21
1234.414882
 31
0.0
1001
ACAD
1000
RTLwPs
1070
   128
  0
LWPOLYLINE
  5
65B
100
AcDbEntity
  8
_AA_PERFIL_AC
100
AcDbPolyline
 90
        4
 70
   129
 43
0.0
 10
354.499834
 20
1427.445171
 10
353.764863
 20
1407.445171
 10
333.751363
 20
1407.445171
 10
334.486334
 20
1427.445171
1001
ACAD
1000
RTLwPs
1070
   128
  0
LWPOLYLINE
  5
65C
100
AcDbEntity
  8
_AA_PERFIL_AC
100
AcDbPolyline
 90
        4
 70
   129
 43
0.0
 10
374.272366
 20
1254.414882
 10
373.743415
 20
1234.414882
 10
353.736421
 20
1234.414882
 10
354.265373
 20
1254.414882
1001
ACAD
1000
RTLwPs
1070
   128
  0
LINE
  5
65D
100
AcDbEntity
  8
_AA_PERFIL_AC
100
AcDbLine
 10
348.805517
 20
1272.491526
 30
0.0
 11
354.832028
 21
1272.270061
 31
0.0
1001
ACAD
1000
RTLwPs
1070
   128
  0
INSERT
  5
65E
100
AcDbEntity
  8
_AA_PERFIL_AL
100
AcDbBlockReference
  2
MALU90
 10
330.376122
 20
1258.158653
 30
0.0
 50
87.895416
1001
ACAD
1000
RTLwPs
1070
   128
  0
LINE
  5
65F
100
AcDbEntity
  8
_AA_VIDRIO
100
AcDbLine
 10
330.504546
 20
1256.2105
 30
0.0
 11
335.301562
 21
1256.034216
 31
0.0
  0
LINE
  5
660
100
AcDbEntity
  8
_AA_PERFIL_AC
100
AcDbLine
 10
371.974717
 20
913.349501
 30
0.0
 11
414.766834
 21
916.25566
 31
0.0
1001
ACAD
1000
RTLwPs
1070
   128
  0
LINE
  5
661
100
AcDbEntity
  8
EP
100
AcDbLine
 10
1650.575246
 20
444.067806
 30
0.0
 11
1650.575246
 21
1579.768893
 31
0.0
  0
LINE
  5
662
100
AcDbEntity
  8
_AA_EJES
  6
DASHDOT
100
AcDbLine
 10
950.408433
 20
1619.067806
 30
0.0
 11
3932.971904
 21
1619.067806
 31
0.0
  0
LINE
  5
663
100
AcDbEntity
  8
_AA_EJES
  6
DASHDOT
100
AcDbLine
 10
950.408433
 20
1219.067806
 30
0.0
 11
3932.971904
 21
1219.067806
 31
0.0
  0
LINE
  5
664
100
AcDbEntity
  8
_AA_EJES
  6
DASHDOT
100
AcDbLine
 10
950.408433
 20
819.067806
 30
0.0
 11
3932.971904
 21
819.067806
 31
0.0
  0
LINE
  5
665
100
AcDbEntity
  8
_AA_EJES
  6
DASHDOT
100
AcDbLine
 10
950.408433
 20
419.067806
 30
0.0
 11
3932.971904
 21
419.067806
 31
0.0
  0
LINE
  5
666
100
AcDbEntity
  8
_AA_EJES
  6
DASHDOT
100
AcDbLine
 10
930.410433
 20
459.067806
 30
0.0
 11
3912.973904
 21
459.067806
 31
0.0
  0
LWPOLYLINE
  5
667
100
AcDbEntity
  8
_AA_PERFIL_AC
100
AcDbPolyline
 90
        5
 70
   128
 43
0.0
 38
0.0
 10
1496.228768
 20
1629.067806
 10
1516.257511
 20
1629.067806
 10
1515.184862
 20
1609.067806
 10
1495.156118
 20
1609.067806
 10
1496.228768
 20
1629.067806
1001
ACAD
1000
RTLwPs
1070
   128
  0
LWPOLYLINE
  5
668
100
AcDbEntity
  8
_AA_PERFIL_AC
100
AcDbPolyline
 90
        5
 70
   128
 43
0.0
 38
0.0
 10
1511.120721
 20
1229.067806
 10
1531.124607
 20
1229.067806
 10
1530.730323
 20
1209.067806
 10
1510.726437
 20
1209.067806
 10
1511.120721
 20
1229.067806
1001
ACAD
1000
RTLwPs
1070
   128
  0
LWPOLYLINE
  5
669
100
AcDbEntity
  8
_AA_PERFIL_AC
100
AcDbPolyline
 90
        5
 70
   128
 43
0.0
 10
1516.326221
 20
829.067806
 10
1536.391429
 20
829.067806
 10
1534.775082
 20
809.067806
 10
1514.709874
 20
809.067806
 10
1516.326221
 20
829.067806
1001
ACAD
1000
RTLwPs
1070
   128
  0
ARC
  5
66A
100
AcDbEntity
  8
_AA_CARTONYESO
100
AcDbCircle
 10
-30.879913
 20
32032.85169
 30
0.0
 40
30510.443375
210
-0.0000000000235866
220
0.0
230
1.0
100
AcDbArc
 50
272.951598
 51
273.051828
1001
ACAD
1000
RTLwPs
1070
   128
  0
LINE
  5
66B
100
AcDbEntity
  8
_AA_VIDRIO
100
AcDbLine
 10
1512.672156
 20
654.411707
 30
0.0
 11
1510.791904
 21
700.975522
 31
0.0
210
-0.0000000000000175
220
1.0
230
0.0
1001
ACAD
1000
RTLwPs
1070
   128
  0
POLYLINE
  5
66C
100
AcDbEntity
  8
_AA_PIEDRA
100
AcDb2dPolyline
 66
     1
 10
0.0
 20
0.0
 30
0.000465
210
-0.0000000158086069
220
0.0000007520987885
230
0.9999999999997172
1001
ACAD
1000
RTLwPs
1070
   128
  0
VERTEX
  5
66D
100
AcDbEntity
  8
_AA_PIEDRA
100
AcDbVertex
100
AcDb2dVertex
 10
1522.144382
 20
646.094544
 30
0.000465
  0
VERTEX
  5
66E
100
AcDbEntity
  8
_AA_PIEDRA
100
AcDbVertex
100
AcDb2dVertex
 10
936.629853
 20
633.781266
 30
0.000465
  0
SEQEND
  5
66F
100
AcDbEntity
  8
_AA_PIEDRA
  0
LINE
  5
670
100
AcDbEntity
  8
_AA_PIEDRA
100
AcDbLine
 10
1897.745614
 20
1858.416179
 30
0.0
 11
1897.745614
 21
1828.416179
 31
0.0
210
-0.0000000000000175
220
1.0
230
0.0
1001
ACAD
1000
RTLwPs
1070
   128
  0
POLYLINE
  5
671
100
AcDbEntity
  8
_AA_CARTONYESO
100
AcDb2dPolyline
 66
     1
 10
0.0
 20
0.0
 30
0.0
210
0.0000000000015459
220
0.0
230
-1.0
1001
ACAD
1000
RTLwPs
1070
   128
  0
VERTEX
  5
672
100
AcDbEntity
  8
_AA_CARTONYESO
100
AcDbVertex
100
AcDb2dVertex
 10
-1966.756093
 20
1114.920178
 30
0.0
  0
VERTEX
  5
673
100
AcDbEntity
  8
_AA_CARTONYESO
100
AcDbVertex
100
AcDb2dVertex
 10
-1594.726458
 20
1386.39671
 30
0.0
  0
SEQEND
  5
674
100
AcDbEntity
  8
_AA_CARTONYESO
  0
ARC
  5
675
100
AcDbEntity
  8
_AA_CARTONYESO
100
AcDbCircle
 10
-2236.165094
 20
-29618.462856
 30
0.0
 40
30947.319285
210
-0.0000000000030732
220
0.0
230
1.0
100
AcDbArc
 50
81.711033
 51
81.886202
1001
ACAD
1000
RTLwPs
1070
   128
  0
ARC
  5
676
100
AcDbEntity
  8
_AA_CARTONYESO
100
AcDbCircle
 10
15148.237157
 20
23619.000042
 30
0.0
 40
26080.334343
210
0.000000000011195
220
0.0
230
1.0
100
AcDbArc
 50
239.640989
 51
240.060267
1001
ACAD
1000
RTLwPs
1070
   128
  0
POLYLINE
  5
677
100
AcDbEntity
  8
_AA_PERFIL_AC
100
AcDb2dPolyline
 66
     1
 10
0.0
 20
0.0
 30
0.0
 70
     1
210
0.0000000000015465
220
0.0
230
-1.0
1001
ACAD
1000
RTLwPs
1070
   128
  0
VERTEX
  5
678
100
AcDbEntity
  8
_AA_PERFIL_AC
100
AcDbVertex
100
AcDb2dVertex
 10
-1635.559132
 20
829.067806
 30
0.0
  0
VERTEX
  5
679
100
AcDbEntity
  8
_AA_PERFIL_AC
100
AcDbVertex
100
AcDb2dVertex
 10
-1635.559132
 20
809.067806
 30
0.0
  0
VERTEX
  5
67A
100
AcDbEntity
  8
_AA_PERFIL_AC
100
AcDbVertex
100
AcDb2dVertex
 10
-1615.575246
 20
809.067806
 30
0.0
  0
VERTEX
  5
67B
100
AcDbEntity
  8
_AA_PERFIL_AC
100
AcDbVertex
100
AcDb2dVertex
 10
-1615.575246
 20
829.067806
 30
0.0
  0
VERTEX
  5
67C
100
AcDbEntity
  8
_AA_PERFIL_AC
100
AcDbVertex
100
AcDb2dVertex
 10
-1635.559132
 20
829.067806
 30
0.0
  0
SEQEND
  5
67D
100
AcDbEntity
  8
_AA_PERFIL_AC
  0
LINE
  5
67E
100
AcDbEntity
  8
SEC-FS-VIGAS_CAJON
100
AcDbLine
 10
1780.414871
 20
1655.145249
 30
0.0
 11
1780.414871
 21
1517.131793
 31
0.0
210
-0.0000000000000175
220
1.0
230
0.0
1001
ACAD
1000
RTLwPs
1070
   128
  0
LINE
  5
67F
100
AcDbEntity
  8
SEC-FS-VIGAS_CAJON
100
AcDbLine
 10
1727.377251
 20
1652.066697
 30
0.0
 11
1727.377251
 21
1518.44377
 31
0.0
210
-0.0000000000000175
220
1.0
230
0.0
1001
ACAD
1000
RTLwPs
1070
   128
  0
LINE
  5
680
100
AcDbEntity
  8
_AA_CARTONYESO
100
AcDbLine
 10
1593.360647
 20
1565.72886
 30
0.0
 11
1594.696066
 21
1386.446897
 31
0.0
210
-0.0000000000000175
220
1.0
230
0.0
1001
ACAD
1000
RTLwPs
1070
   128
  0
POLYLINE
  5
681
100
AcDbEntity
  8
_AA_PIEDRA
100
AcDb2dPolyline
 66
     1
 10
0.0
 20
0.0
 30
0.0
210
-0.0000000000005508
220
0.0
230
-1.0
1001
ACAD
1000
RTLwPs
1070
   128
  0
VERTEX
  5
682
100
AcDbEntity
  8
_AA_PIEDRA
100
AcDbVertex
100
AcDb2dVertex
 10
-1674.505103
 20
1815.805211
 30
0.0
1001
ACAD
1000
RTLwPs
1070
   128
  0
VERTEX
  5
683
100
AcDbEntity
  8
_AA_PIEDRA
100
AcDbVertex
100
AcDb2dVertex
 10
-1897.745673
 20
1828.416182
 30
0.0
1001
ACAD
1000
RTLwPs
1070
   128
  0
SEQEND
  5
684
100
AcDbEntity
  8
_AA_PIEDRA
1001
ACAD
1000
RTLwPs
1070
   128
  0
LINE
  5
685
100
AcDbEntity
  8
SEC-FS-VIGAS_CAJON
100
AcDbLine
 10
1780.414871
 20
1517.131793
 30
0.0
 11
1727.377251
 21
1518.44377
 31
0.0
210
-0.0000000000000175
220
1.0
230
0.0
1001
ACAD
1000
RTLwPs
1070
   128
  0
LINE
  5
686
100
AcDbEntity
  8
_AA_EJES
100
AcDbLine
 10
1650.575246
 20
1619.067806
 30
0.0
 11
1650.575246
 21
819.067806
 31
0.0
  0
LINE
  5
687
100
AcDbEntity
  8
_AA_EJES
100
AcDbLine
 10
1625.575246
 20
1619.067806
 30
0.0
 11
1625.575246
 21
459.067806
 31
0.0
  0
LINE
  5
688
100
AcDbEntity
  8
_AA_EJES
100
AcDbLine
 10
1525.454988
 20
1619.067806
 30
0.0
 11
1525.454988
 21
459.067806
 31
0.0
  0
LINE
  5
689
100
AcDbEntity
  8
_AA_PERFIL_AC
100
AcDbLine
 10
1615.609594
 20
1629.067806
 30
0.0
 11
1615.55892
 21
444.067806
 31
0.0
1001
ACAD
1000
RTLwPs
1070
   128
  0
LINE
  5
68A
100
AcDbEntity
  8
_AA_PERFIL_AC
100
AcDbLine
 10
1635.592632
 20
1629.067806
 30
0.0
 11
1635.542806
 21
444.067806
 31
0.0
1001
ACAD
1000
RTLwPs
1070
   128
  0
LINE
  5
68B
100
AcDbEntity
  8
_AA_PERFIL_AC
100
AcDbLine
 10
1665.575246
 20
1510.96646
 30
0.0
 11
1665.575246
 21
444.067806
 31
0.0
1001
ACAD
1000
RTLwPs
1070
   128
  0
LINE
  5
68C
100
AcDbEntity
  8
_AA_EJES
100
AcDbLine
 10
1650.575246
 20
1054.31237
 30
0.0
 11
1650.575246
 21
459.067806
 31
0.0
  0
POLYLINE
  5
68D
100
AcDbEntity
  8
_AA_PERFIL_AC
100
AcDb2dPolyline
 66
     1
 10
0.0
 20
0.0
 30
0.0
 70
     1
210
0.0000000000015465
220
0.0
230
-1.0
1001
ACAD
1000
RTLwPs
1070
   128
  0
VERTEX
  5
68E
100
AcDbEntity
  8
_AA_PERFIL_AC
100
AcDbVertex
100
AcDb2dVertex
 10
-1635.575246
 20
1229.067806
 30
0.0
  0
VERTEX
  5
68F
100
AcDbEntity
  8
_AA_PERFIL_AC
100
AcDbVertex
100
AcDb2dVertex
 10
-1635.575246
 20
1209.067806
 30
0.0
  0
VERTEX
  5
690
100
AcDbEntity
  8
_AA_PERFIL_AC
100
AcDbVertex
100
AcDb2dVertex
 10
-1615.59136
 20
1209.067806
 30
0.0
  0
VERTEX
  5
691
100
AcDbEntity
  8
_AA_PERFIL_AC
100
AcDbVertex
100
AcDb2dVertex
 10
-1615.59136
 20
1229.067806
 30
0.0
  0
VERTEX
  5
692
100
AcDbEntity
  8
_AA_PERFIL_AC
100
AcDbVertex
100
AcDb2dVertex
 10
-1635.575246
 20
1229.067806
 30
0.0
  0
SEQEND
  5
693
100
AcDbEntity
  8
_AA_PERFIL_AC
  0
LWPOLYLINE
  5
694
100
AcDbEntity
  8
_AA_PERFIL_AC
100
AcDbPolyline
 90
        4
 70
     1
 43
0.0
 10
1635.575246
 20
1204.067806
 10
1665.575246
 20
1204.067806
 10
1665.575246
 20
1234.067806
 10
1635.575246
 20
1234.067806
1001
ACAD
1000
RTLwPs
1070
   128
  0
POLYLINE
  5
695
100
AcDbEntity
  8
_AA_PERFIL_AC
100
AcDb2dPolyline
 66
     1
 10
0.0
 20
0.0
 30
0.0
 70
     1
210
0.0000000000015465
220
0.0
230
-1.0
1001
ACAD
1000
RTLwPs
1070
   128
  0
VERTEX
  5
696
100
AcDbEntity
  8
_AA_PERFIL_AC
100
AcDbVertex
100
AcDb2dVertex
 10
-1635.592632
 20
1629.067806
 30
0.0
  0
VERTEX
  5
697
100
AcDbEntity
  8
_AA_PERFIL_AC
100
AcDbVertex
100
AcDb2dVertex
 10
-1635.592632
 20
1609.067806
 30
0.0
  0
VERTEX
  5
698
100
AcDbEntity
  8
_AA_PERFIL_AC
100
AcDbVertex
100
AcDb2dVertex
 10
-1615.608746
 20
1609.067806
 30
0.0
  0
VERTEX
  5
699
100
AcDbEntity
  8
_AA_PERFIL_AC
100
AcDbVertex
100
AcDb2dVertex
 10
-1615.608746
 20
1629.067806
 30
0.0
  0
VERTEX
  5
69A
100
AcDbEntity
  8
_AA_PERFIL_AC
100
AcDbVertex
100
AcDb2dVertex
 10
-1635.592632
 20
1629.067806
 30
0.0
  0
SEQEND
  5
69B
100
AcDbEntity
  8
_AA_PERFIL_AC
  0
LINE
  5
69C
100
AcDbEntity
  8
_AA_PERFIL_AC
100
AcDbLine
 10
1531.124607
 20
1229.067806
 30
0.0
 11
1615.592208
 21
1229.067806
 31
0.0
1001
ACAD
1000
RTLwPs
1070
   128
  0
LINE
  5
69D
100
AcDbEntity
  8
_AA_PERFIL_AC
100
AcDbLine
 10
1530.730323
 20
1209.067806
 30
0.0
 11
1615.59136
 21
1209.067806
 31
0.0
1001
ACAD
1000
RTLwPs
1070
   128
  0
LINE
  5
69E
100
AcDbEntity
  8
_AA_PERFIL_AC
100
AcDbLine
 10
1516.257511
 20
1629.067806
 30
0.0
 11
1615.609594
 21
1629.067806
 31
0.0
1001
ACAD
1000
RTLwPs
1070
   128
  0
LINE
  5
69F
100
AcDbEntity
  8
_AA_PERFIL_AC
100
AcDbLine
 10
1515.184862
 20
1609.067806
 30
0.0
 11
1615.608746
 21
1609.067806
 31
0.0
1001
ACAD
1000
RTLwPs
1070
   128
  0
LINE
  5
6A0
100
AcDbEntity
  8
_AA_PERFIL_AC
100
AcDbLine
 10
1536.391429
 20
829.067806
 30
0.0
 11
1615.576094
 21
829.067806
 31
0.0
1001
ACAD
1000
RTLwPs
1070
   128
  0
LINE
  5
6A1
100
AcDbEntity
  8
_AA_PERFIL_AC
100
AcDbLine
 10
1534.775082
 20
809.067806
 30
0.0
 11
1615.575246
 21
809.067806
 31
0.0
1001
ACAD
1000
RTLwPs
1070
   128
  0
LINE
  5
6A2
100
AcDbEntity
  8
_AA_VIDRIO
100
AcDbLine
 10
1517.468247
 20
654.605374
 30
0.0
 11
1515.587996
 21
701.169188
 31
0.0
210
-0.0000000000000175
220
1.0
230
0.0
1001
ACAD
1000
RTLwPs
1070
   128
  0
LINE
  5
6A3
100
AcDbEntity
  8
_AA_PERFIL_AC
100
AcDbLine
 10
1506.552428
 20
997.342111
 30
0.0
 11
1510.726437
 21
1209.067806
 31
0.0
210
-0.0000000000000175
220
1.0
230
0.0
1001
ACAD
1000
RTLwPs
1070
   128
  0
LINE
  5
6A4
100
AcDbEntity
  8
_AA_PERFIL_AC
100
AcDbLine
 10
1489.720668
 20
1507.721572
 30
0.0
 11
1495.156118
 21
1609.067806
 31
0.0
210
-0.0000000000000175
220
1.0
230
0.0
1001
ACAD
1000
RTLwPs
1070
   128
  0
LINE
  5
6A5
100
AcDbEntity
  8
_AA_PERFIL_AC
100
AcDbLine
 10
1506.61753
 20
708.936547
 30
0.0
 11
1514.709874
 21
809.067806
 31
0.0
210
-0.0000000000000175
220
1.0
230
0.0
1001
ACAD
1000
RTLwPs
1070
   128
  0
LINE
  5
6A6
100
AcDbEntity
  8
_AA_PROYECCION2
100
AcDbLine
 10
1501.904855
 20
650.623894
 30
0.0
 11
1506.61753
 21
708.936547
 31
0.0
210
-0.0000000000000175
220
1.0
230
0.0
1001
ACAD
1000
RTLwPs
1070
   128
  0
LINE
  5
6A7
100
AcDbEntity
  8
_AA_PERFIL_AC
100
AcDbLine
 10
1536.827399
 20
646.094544
 30
0.0
 11
1531.75533
 21
771.70267
 31
0.0
210
-0.0000000000000175
220
1.0
230
0.0
1001
ACAD
1000
RTLwPs
1070
   128
  0
LINE
  5
6A8
100
AcDbEntity
  8
_AA_PERFIL_AC
100
AcDbLine
 10
1526.552534
 20
707.325453
 30
0.0
 11
1534.775082
 21
809.067806
 31
0.0
210
-0.0000000000000175
220
1.0
230
0.0
1001
ACAD
1000
RTLwPs
1070
   128
  0
LINE
  5
6A9
100
AcDbEntity
  8
_AA_PERFIL_AC
100
AcDbLine
 10
1536.391429
 20
829.067806
 30
0.0
 11
1568.718372
 21
1229.067806
 31
0.0
210
-0.0000000000000175
220
1.0
230
0.0
1001
ACAD
1000
RTLwPs
1070
   128
  0
LINE
  5
6AA
100
AcDbEntity
  8
_AA_PERFIL_AC
100
AcDbLine
 10
1516.326221
 20
829.067806
 30
0.0
 11
1548.653164
 21
1229.067806
 31
0.0
210
-0.0000000000000175
220
1.0
230
0.0
1001
ACAD
1000
RTLwPs
1070
   128
  0
LINE
  5
6AB
100
AcDbEntity
  8
_AA_PERFIL_AC
100
AcDbLine
 10
1526.548543
 20
996.947903
 30
0.0
 11
1530.730323
 21
1209.067806
 31
0.0
210
-0.0000000000000175
220
1.0
230
0.0
1001
ACAD
1000
RTLwPs
1070
   128
  0
LINE
  5
6AC
100
AcDbEntity
  8
_AA_PERFIL_AC
100
AcDbLine
 10
1531.124607
 20
1229.067806
 30
0.0
 11
1539.010299
 21
1629.067806
 31
0.0
210
-0.0000000000000175
220
1.0
230
0.0
1001
ACAD
1000
RTLwPs
1070
   128
  0
LINE
  5
6AD
100
AcDbEntity
  8
_AA_PERFIL_AC
100
AcDbLine
 10
1511.120721
 20
1229.067806
 30
0.0
 11
1519.006413
 21
1629.067806
 31
0.0
210
-0.0000000000000175
220
1.0
230
0.0
1001
ACAD
1000
RTLwPs
1070
   128
  0
LINE
  5
6AE
100
AcDbEntity
  8
_AA_PERFIL_AC
100
AcDbLine
 10
1510.227521
 20
1516.63611
 30
0.0
 11
1515.184862
 21
1609.067806
 31
0.0
210
-0.0000000000000175
220
1.0
230
0.0
1001
ACAD
1000
RTLwPs
1070
   128
  0
LINE
  5
6AF
100
AcDbEntity
  8
_AA_PERFIL_AC
100
AcDbLine
 10
1516.257511
 20
1629.067806
 30
0.0
 11
1519.097773
 21
1682.025675
 31
0.0
210
-0.0000000000000175
220
1.0
230
0.0
1001
ACAD
1000
RTLwPs
1070
   128
  0
LINE
  5
6B0
100
AcDbEntity
  8
_AA_PERFIL_AC
100
AcDbLine
 10
1496.228768
 20
1629.067806
 30
0.0
 11
1499.069029
 21
1682.025675
 31
0.0
210
-0.0000000000000175
220
1.0
230
0.0
1001
ACAD
1000
RTLwPs
1070
   128
  0
POLYLINE
  5
6B1
100
AcDbEntity
  8
_AA_ESTRUCTURA_HR
100
AcDb2dPolyline
 66
     1
 10
0.0
 20
0.0
 30
0.0
210
-0.000000000001524
220
0.0
230
1.0
  0
VERTEX
  5
6B2
100
AcDbEntity
  8
_AA_ESTRUCTURA_HR
100
AcDbVertex
100
AcDb2dVertex
 10
2225.3752
 20
1698.449662
 30
0.0
  0
VERTEX
  5
6B3
100
AcDbEntity
  8
_AA_ESTRUCTURA_HR
100
AcDbVertex
100
AcDb2dVertex
 10
1753.896061
 20
1667.674392
 30
0.0
  0
SEQEND
  5
6B4
100
AcDbEntity
  8
_AA_ESTRUCTURA_HR
  0
POLYLINE
  5
6B5
100
AcDbEntity
  8
_AA_PERFIL_AC
100
AcDb2dPolyline
 66
     1
 10
0.0
 20
0.0
 30
0.0
210
-0.0000000000017065
220
0.0
230
1.0
1001
ACAD
1000
RTLwPs
1070
   128
  0
VERTEX
  5
6B6
100
AcDbEntity
  8
_AA_PERFIL_AC
100
AcDbVertex
100
AcDb2dVertex
 10
2225.3752
 20
1684.376289
 30
0.0
1001
ACAD
1000
RTLwPs
1070
   128
  0
VERTEX
  5
6B7
100
AcDbEntity
  8
_AA_PERFIL_AC
100
AcDbVertex
100
AcDb2dVertex
 10
1753.896061
 20
1653.635524
 30
0.0
1001
ACAD
1000
RTLwPs
1070
   128
  0
SEQEND
  5
6B8
100
AcDbEntity
  8
_AA_PERFIL_AC
1001
ACAD
1000
RTLwPs
1070
   128
  0
POLYLINE
  5
6B9
100
AcDbEntity
  8
_AA_PIEDRA
100
AcDb2dPolyline
 66
     1
 10
0.0
 20
0.0
 30
0.0
210
0.0000000000019722
220
0.0
230
-1.0
1001
ACAD
1000
RTLwPs
1070
   128
  0
VERTEX
  5
6BA
100
AcDbEntity
  8
_AA_PIEDRA
100
AcDbVertex
100
AcDb2dVertex
 10
-1897.745673
 20
1858.416182
 30
0.0
1001
ACAD
1000
RTLwPs
1070
   128
  0
VERTEX
  5
6BB
100
AcDbEntity
  8
_AA_PIEDRA
100
AcDbVertex
100
AcDb2dVertex
 10
-2225.3752
 20
1882.060969
 30
0.0
1001
ACAD
1000
RTLwPs
1070
   128
  0
SEQEND
  5
6BC
100
AcDbEntity
  8
_AA_PIEDRA
1001
ACAD
1000
RTLwPs
1070
   128
  0
LINE
  5
6BD
100
AcDbEntity
  8
_AA_PIEDRA
100
AcDbLine
 10
2225.3752
 20
459.067806
 30
0.0
 11
1777.828992
 21
459.067806
 31
0.0
210
0.0000000000015751
220
0.0
230
-1.0
  0
LINE
  5
6BE
100
AcDbEntity
  8
_AA_ESTRUCTURA_HR
100
AcDbLine
 10
1526.843698
 20
646.094544
 30
0.0
 11
1526.843698
 21
404.067806
 31
0.0
210
0.0000000000015751
220
0.0
230
-1.0
  0
LINE
  5
6BF
100
AcDbEntity
  8
_AA_ESTRUCTURA_HR
100
AcDbLine
 10
1526.843698
 20
404.067806
 30
0.0
 11
2225.3752
 21
404.067806
 31
0.0
210
0.0000000000015751
220
0.0
230
-1.0
  0
LINE
  5
6C0
100
AcDbEntity
  8
_AA_ESTRUCTURA_HR
100
AcDbLine
 10
2225.3752
 20
444.067806
 30
0.0
 11
1777.828992
 21
444.067806
 31
0.0
210
0.0000000000015751
220
0.0
230
-1.0
  0
LINE
  5
6C1
100
AcDbEntity
  8
_AA_PERFIL_AC
100
AcDbLine
 10
1489.720668
 20
1507.721572
 30
0.0
 11
1516.58576
 21
1506.28073
 31
0.0
1001
ACAD
1000
RTLwPs
1070
   128
  0
LINE
  5
6C2
100
AcDbEntity
  8
_AA_PERFIL_AC
100
AcDbLine
 10
1506.552428
 20
997.342111
 30
0.0
 11
1526.548543
 21
996.947903
 31
0.0
1001
ACAD
1000
RTLwPs
1070
   128
  0
POLYLINE
  5
6C3
100
AcDbEntity
  8
_AA_ESTRUCTURA_HR
100
AcDb2dPolyline
 66
     1
 10
0.0
 20
0.0
 30
0.0
210
0.0000000000015586
220
0.0
230
-1.0
  0
VERTEX
  5
6C4
100
AcDbEntity
  8
_AA_ESTRUCTURA_HR
100
AcDbVertex
100
AcDb2dVertex
 10
-1777.828992
 20
1517.195759
 30
0.0
  0
VERTEX
  5
6C5
100
AcDbEntity
  8
_AA_ESTRUCTURA_HR
100
AcDbVertex
100
AcDb2dVertex
 10
-1777.828992
 20
444.067806
 30
0.0
  0
SEQEND
  5
6C6
100
AcDbEntity
  8
_AA_ESTRUCTURA_HR
  0
POLYLINE
  5
6C7
100
AcDbEntity
  8
_AA_ESTRUCTURA_HR
100
AcDb2dPolyline
 66
     1
 10
0.0
 20
0.0
 30
0.0
210
0.0000000000015586
220
0.0
230
-1.0
  0
VERTEX
  5
6C8
100
AcDbEntity
  8
_AA_ESTRUCTURA_HR
100
AcDbVertex
100
AcDb2dVertex
 10
-1690.250815
 20
444.067806
 30
0.0
  0
VERTEX
  5
6C9
100
AcDbEntity
  8
_AA_ESTRUCTURA_HR
100
AcDbVertex
100
AcDb2dVertex
 10
-1690.250815
 20
1517.195759
 30
0.0
  0
VERTEX
  5
6CA
100
AcDbEntity
  8
_AA_ESTRUCTURA_HR
100
AcDbVertex
100
AcDb2dVertex
 10
-1777.828992
 20
1517.195759
 30
0.0
  0
SEQEND
  5
6CB
100
AcDbEntity
  8
_AA_ESTRUCTURA_HR
  0
INSERT
  5
6CC
100
AcDbEntity
  8
_AA_PERFIL_AL
100
AcDbBlockReference
  2
MALU90OPACO
 10
1471.858243
 20
1619.067806
 30
0.0
 50
86.930343
  0
LINE
  5
6CD
100
AcDbEntity
  8
_AA_VIDRIO
100
AcDbLine
 10
1471.750098
 20
1617.051194
 30
0.0
 11
1476.543211
 21
1616.794154
 31
0.0
  0
LINE
  5
6CE
100
AcDbEntity
  8
_AA_VIDRIO
100
AcDbLine
 10
1466.331333
 20
1516.005623
 30
0.0
 11
1471.750098
 21
1617.051194
 31
0.0
  0
LINE
  5
6CF
100
AcDbEntity
  8
_AA_VIDRIO
100
AcDbLine
 10
1476.543211
 20
1616.794154
 30
0.0
 11
1471.124444
 21
1515.74855
 31
0.0
  0
LINE
  5
6D0
100
AcDbEntity
  8
_AA_VIDRIO
100
AcDbLine
 10
1476.7595
 20
1620.827368
 30
0.0
 11
1480.415922
 21
1689.009918
 31
0.0
  0
LINE
  5
6D1
100
AcDbEntity
  8
_AA_PERFIL_AL
100
AcDbLine
 10
1476.916853
 20
1713.397436
 30
0.0
 11
1475.839098
 21
1693.300171
 31
0.0
  0
LINE
  5
6D2
100
AcDbEntity
  8
_AA_VIDRIO
100
AcDbLine
 10
1471.966387
 20
1621.084408
 30
0.0
 11
1476.7595
 21
1620.827368
 31
0.0
  0
LINE
  5
6D3
100
AcDbEntity
  8
_AA_VIDRIO
100
AcDbLine
 10
1466.331333
 20
1516.005623
 30
0.0
 11
1471.124444
 21
1515.74855
 31
0.0
  0
LINE
  5
6D4
100
AcDbEntity
  8
_AA_VIDRIO
100
AcDbLine
 10
1470.907556
 20
1511.715369
 30
0.0
 11
1460.942961
 21
1325.925573
 31
0.0
  0
LINE
  5
6D5
100
AcDbEntity
  8
_AA_VIDRIO
100
AcDbLine
 10
1456.14985
 20
1326.182646
 30
0.0
 11
1466.114445
 21
1511.972441
 31
0.0
  0
LINE
  5
6D6
100
AcDbEntity
  8
_AA_VIDRIO
100
AcDbLine
 10
1466.114445
 20
1511.972441
 30
0.0
 11
1470.907556
 21
1511.715369
 31
0.0
  0
INSERT
  5
6D7
100
AcDbEntity
  8
_AA_PERFIL_AL
100
AcDbBlockReference
  2
MALU90SEMITRP
 10
1456.041924
 20
1324.166033
 30
0.0
 50
86.929957
  0
LINE
  5
6D8
100
AcDbEntity
  8
_AA_VIDRIO
100
AcDbLine
 10
1456.14985
 20
1326.182646
 30
0.0
 11
1457.747554
 21
1326.096955
 31
0.0
  0
LINE
  5
6D9
100
AcDbEntity
  8
_AA_VIDRIO
100
AcDbLine
 10
1459.744684
 20
1325.989841
 30
0.0
 11
1460.942961
 21
1325.925573
 31
0.0
  0
POLYLINE
  5
6DA
100
AcDbEntity
  8
_AA_PERFIL_AC
100
AcDb2dPolyline
 66
     1
 10
0.0
 20
0.0
 30
0.0
 70
     1
210
0.0000000000015465
220
0.0
230
-1.0
1001
ACAD
1000
RTLwPs
1070
   128
  0
VERTEX
  5
6DB
100
AcDbEntity
  8
_AA_PERFIL_AC
100
AcDbVertex
100
AcDb2dVertex
 10
-1568.718372
 20
1229.067806
 30
0.0
  0
VERTEX
  5
6DC
100
AcDbEntity
  8
_AA_PERFIL_AC
100
AcDbVertex
100
AcDb2dVertex
 10
-1567.102025
 20
1209.067807
 30
0.0
  0
VERTEX
  5
6DD
100
AcDbEntity
  8
_AA_PERFIL_AC
100
AcDbVertex
100
AcDb2dVertex
 10
-1547.118139
 20
1209.067807
 30
0.0
  0
VERTEX
  5
6DE
100
AcDbEntity
  8
_AA_PERFIL_AC
100
AcDbVertex
100
AcDb2dVertex
 10
-1548.653164
 20
1229.067806
 30
0.0
  0
VERTEX
  5
6DF
100
AcDbEntity
  8
_AA_PERFIL_AC
100
AcDbVertex
100
AcDb2dVertex
 10
-1568.718372
 20
1229.067806
 30
0.0
  0
SEQEND
  5
6E0
100
AcDbEntity
  8
_AA_PERFIL_AC
  0
POLYLINE
  5
6E1
100
AcDbEntity
  8
_AA_PERFIL_AC
100
AcDb2dPolyline
 66
     1
 10
0.0
 20
0.0
 30
0.0
 70
     1
210
0.0000000000015465
220
0.0
230
-1.0
1001
ACAD
1000
RTLwPs
1070
   128
  0
VERTEX
  5
6E2
100
AcDbEntity
  8
_AA_PERFIL_AC
100
AcDbVertex
100
AcDb2dVertex
 10
-1539.010299
 20
1629.067806
 30
0.0
  0
VERTEX
  5
6E3
100
AcDbEntity
  8
_AA_PERFIL_AC
100
AcDbVertex
100
AcDb2dVertex
 10
-1538.616438
 20
1609.067806
 30
0.0
  0
VERTEX
  5
6E4
100
AcDbEntity
  8
_AA_PERFIL_AC
100
AcDbVertex
100
AcDb2dVertex
 10
-1518.632552
 20
1609.067806
 30
0.0
  0
VERTEX
  5
6E5
100
AcDbEntity
  8
_AA_PERFIL_AC
100
AcDbVertex
100
AcDb2dVertex
 10
-1519.006413
 20
1629.067806
 30
0.0
  0
VERTEX
  5
6E6
100
AcDbEntity
  8
_AA_PERFIL_AC
100
AcDbVertex
100
AcDb2dVertex
 10
-1539.010299
 20
1629.067806
 30
0.0
  0
SEQEND
  5
6E7
100
AcDbEntity
  8
_AA_PERFIL_AC
  0
LINE
  5
6E8
100
AcDbEntity
  8
_AA_VIDRIO
100
AcDbLine
 10
1482.418733
 20
990.79702
 30
0.0
 11
1481.177471
 21
927.834425
 31
0.0
  0
LINE
  5
6E9
100
AcDbEntity
  8
_AA_VIDRIO
100
AcDbLine
 10
1482.697533
 20
994.792173
 30
0.0
 11
1487.046038
 21
1215.368527
 31
0.0
  0
LINE
  5
6EA
100
AcDbEntity
  8
_AA_VIDRIO
100
AcDbLine
 10
1477.619666
 20
990.89163
 30
0.0
 11
1482.418733
 21
990.79702
 31
0.0
  0
LINE
  5
6EB
100
AcDbEntity
  8
_AA_VIDRIO
100
AcDbLine
 10
1497.651821
 20
1509.817436
 30
0.0
 11
1491.990959
 21
1222.672275
 31
0.0
  0
LINE
  5
6EC
100
AcDbEntity
  8
_AA_VIDRIO
100
AcDbLine
 10
1487.4966
 20
994.697563
 30
0.0
 11
1487.487206
 21
994.697748
 31
0.0
  0
LINE
  5
6ED
100
AcDbEntity
  8
_AA_VIDRIO
100
AcDbLine
 10
1487.487206
 20
994.697748
 30
0.0
 11
1482.697533
 21
994.792173
 31
0.0
  0
LINE
  5
6EE
100
AcDbEntity
  8
_AA_PROYECCION2
100
AcDbLine
 10
1479.540563
 20
1317.909263
 30
0.0
 11
1489.720668
 21
1507.721572
 31
0.0
210
-0.0000000000000175
220
1.0
230
0.0
  0
LWPOLYLINE
  5
6EF
100
AcDbEntity
  8
_AA_PERFIL_AL
100
AcDbPolyline
 90
        4
 70
     0
 43
0.0
 38
0.0
 10
1489.52095
 20
1507.732283
 10
1471.546784
 20
1508.696305
 10
1472.082351
 20
1518.681954
 10
1490.056518
 20
1517.717931
  0
LWPOLYLINE
  5
6F0
100
AcDbEntity
  8
_AA_PERFIL_AL
100
AcDbPolyline
 90
        9
 70
   128
 43
0.0
 38
0.0
 10
1468.481275
 20
1513.867912
 10
1468.376843
 20
1511.920787
 10
1465.763142
 20
1512.06097
 10
1465.607642
 20
1509.16168
 10
1465.008503
 20
1509.193814
 10
1465.18007
 20
1512.392673
 10
1467.793771
 20
1512.252491
 10
1467.882135
 20
1513.900046
 10
1468.481275
 20
1513.867912
  0
LINE
  5
6F1
100
AcDbEntity
  8
_AA_VIDRIO
100
AcDbLine
 10
1476.378403
 20
927.929034
 30
0.0
 11
1481.177471
 21
927.834425
 31
0.0
  0
LINE
  5
6F2
100
AcDbEntity
  8
_AA_VIDRIO
100
AcDbLine
 10
1477.619666
 20
990.89163
 30
0.0
 11
1476.378403
 21
927.929034
 31
0.0
  0
LINE
  5
6F3
100
AcDbEntity
  8
_AA_VIDRIO
100
AcDbLine
 10
1491.844947
 20
1215.273718
 30
0.0
 11
1487.487206
 21
994.697748
 31
0.0
  0
INSERT
  5
6F4
100
AcDbEntity
  8
_AA_VIDRIO
100
AcDbBlockReference
  2
MALU90
 10
1487.118967
 20
1219.067806
 30
0.0
 50
88.868201
1001
ACAD
1000
RTLwPs
1070
   128
  0
LINE
  5
6F5
100
AcDbEntity
  8
_AA_VIDRIO
100
AcDbLine
 10
1491.844947
 20
1215.273718
 30
0.0
 11
1487.045883
 21
1215.36853
 31
0.0
  0
LINE
  5
6F6
100
AcDbEntity
  8
_AA_VIDRIO
100
AcDbLine
 10
1491.990959
 20
1222.672275
 30
0.0
 11
1487.19205
 21
1222.767083
 31
0.0
  0
LINE
  5
6F7
100
AcDbEntity
  8
_AA_VIDRIO
100
AcDbLine
 10
1487.191895
 20
1222.767086
 30
0.0
 11
1492.852753
 21
1509.912046
 31
0.0
  0
LINE
  5
6F8
100
AcDbEntity
  8
_AA_VIDRIO
100
AcDbLine
 10
1482.654782
 20
707.882941
 30
0.0
 11
1487.439183
 21
707.496278
 31
0.0
  0
LINE
  5
6F9
100
AcDbEntity
  8
_AA_VIDRIO
100
AcDbLine
 10
1505.519151
 20
990.79702
 30
0.0
 11
1491.80313
 21
821.080742
 31
0.0
  0
LINE
  5
6FA
100
AcDbEntity
  8
_AA_VIDRIO
100
AcDbLine
 10
1487.439183
 20
707.496278
 30
0.0
 11
1496.262169
 21
816.668197
 31
0.0
  0
LINE
  5
6FB
100
AcDbEntity
  8
_AA_VIDRIO
100
AcDbLine
 10
1487.113822
 20
703.470396
 30
0.0
 11
1483.129282
 21
654.16737
 31
0.0
  0
LINE
  5
6FC
100
AcDbEntity
  8
_AA_VIDRIO
100
AcDbLine
 10
1478.344881
 20
654.554032
 30
0.0
 11
1482.329421
 21
703.857058
 31
0.0
  0
LINE
  5
6FD
100
AcDbEntity
  8
_AA_VIDRIO
100
AcDbLine
 10
1482.329421
 20
703.857058
 30
0.0
 11
1487.113822
 21
703.470396
 31
0.0
  0
INSERT
  5
6FE
100
AcDbEntity
  8
_AA_PERFIL_AL
100
AcDbBlockReference
  2
MALU90SEMITRP_OP
 10
1482.492102
 20
705.87
 30
0.0
 50
85.379548
1001
ACAD
1000
RTLwPs
1070
   128
  0
INSERT
  5
6FF
100
AcDbEntity
  8
_AA_PERFIL_AL
100
AcDbBlockReference
  2
MALU90OPACO
 10
1491.64045
 20
819.067806
 30
0.0
 50
85.379548
  0
LINE
  5
700
100
AcDbEntity
  8
_AA_VIDRIO
100
AcDbLine
 10
1491.477769
 20
817.05486
 30
0.0
 11
1496.262169
 21
816.668197
 31
0.0
  0
LINE
  5
701
100
AcDbEntity
  8
_AA_VIDRIO
100
AcDbLine
 10
1491.80313
 20
821.080742
 30
0.0
 11
1496.587531
 21
820.69408
 31
0.0
  0
LINE
  5
702
100
AcDbEntity
  8
_AA_VIDRIO
100
AcDbLine
 10
1496.587531
 20
820.69408
 30
0.0
 11
1510.303552
 21
990.410357
 31
0.0
  0
LINE
  5
703
100
AcDbEntity
  8
_AA_VIDRIO
100
AcDbLine
 10
1491.477769
 20
817.05486
 30
0.0
 11
1482.654782
 21
707.882941
 31
0.0
  0
INSERT
  5
704
100
AcDbEntity
  8
_AA_PERFIL_AL
100
AcDbBlockReference
  2
MALU90SEMITRP
 10
1478.182201
 20
652.541096
 30
0.0
 50
85.379548
  0
LINE
  5
705
100
AcDbEntity
  8
_AA_VIDRIO
100
AcDbLine
 10
1478.344881
 20
654.554032
 30
0.0
 11
1483.129282
 21
654.16737
 31
0.0
  0
LINE
  5
706
100
AcDbEntity
  8
_AA_ESTRUCTURA_HR
100
AcDbLine
 10
1556.843698
 20
646.094544
 30
0.0
 11
1556.843698
 21
444.067806
 31
0.0
210
0.0000000000015751
220
0.0
230
-1.0
  0
LINE
  5
707
100
AcDbEntity
  8
_AA_ESTRUCTURA_HR
100
AcDbLine
 10
1526.843698
 20
646.094544
 30
0.0
 11
1556.843698
 21
646.094544
 31
0.0
  0
LINE
  5
708
100
AcDbEntity
  8
_AA_PIEDRA
100
AcDbLine
 10
1690.250815
 20
459.067806
 30
0.0
 11
1552.185605
 21
459.067806
 31
0.0
210
0.0000000000015751
220
0.0
230
-1.0
  0
LINE
  5
709
100
AcDbEntity
  8
_AA_ESTRUCTURA_HR
100
AcDbLine
 10
1690.250815
 20
444.067806
 30
0.0
 11
1556.843698
 21
444.067806
 31
0.0
210
0.0000000000015751
220
0.0
230
-1.0
  0
INSERT
  5
70A
100
AcDbEntity
  8
_AA_PERFIL_AL
100
AcDbBlockReference
  2
MALU90OPACO
 10
1475.730954
 20
1691.28357
 30
0.0
 50
86.930343
  0
LINE
  5
70B
100
AcDbEntity
  8
_AA_VIDRIO
100
AcDbLine
 10
1475.622809
 20
1689.266958
 30
0.0
 11
1480.415922
 21
1689.009918
 31
0.0
  0
LINE
  5
70C
100
AcDbEntity
  8
_AA_PERFIL_AL
100
AcDbLine
 10
1475.839098
 20
1693.300171
 30
0.0
 11
1480.632211
 21
1693.043131
 31
0.0
  0
LINE
  5
70D
100
AcDbEntity
  8
_AA_VIDRIO
100
AcDbLine
 10
1475.622809
 20
1689.266958
 30
0.0
 11
1471.966387
 21
1621.084408
 31
0.0
  0
LWPOLYLINE
  5
70E
100
AcDbEntity
  8
_AA_PERFIL_AC
100
AcDbPolyline
 90
        5
 70
   128
 43
0.0
 10
1499.764975
 20
1695.001877
 10
1519.793719
 20
1695.001877
 10
1518.72107
 20
1675.001877
 10
1498.692326
 20
1675.001877
 10
1499.764975
 20
1695.001877
1001
ACAD
1000
RTLwPs
1070
   128
  0
LINE
  5
70F
100
AcDbEntity
  8
_AA_PERFIL_AL
100
AcDbLine
 10
1547.795565
 20
1686.607814
 30
0.0
 11
1542.995565
 21
1686.607814
 31
0.0
1001
ACAD
1000
RTLwPs
1070
   128
  0
LINE
  5
710
100
AcDbEntity
  8
_AA_PIEDRA
100
AcDbLine
 10
1679.505103
 20
1811.079692
 30
0.0
 11
1902.745614
 21
1823.690659
 31
0.0
210
-0.0000000000005508
220
0.0
230
-1.0
1001
ACAD
1000
RTLwPs
1070
   128
  0
LINE
  5
711
100
AcDbEntity
  8
_AA_PIEDRA
100
AcDbLine
 10
1902.745614
 20
1823.690659
 30
0.0
 11
1902.745614
 21
1853.76402
 31
0.0
210
0.0000000000019722
220
0.0
230
-1.0
1001
ACAD
1000
RTLwPs
1070
   128
  0
LINE
  5
712
100
AcDbEntity
  8
_AA_PIEDRA
100
AcDbLine
 10
1902.745614
 20
1853.76402
 30
0.0
 11
2225.73511
 21
1877.073939
 31
0.0
210
0.0000000000019722
220
0.0
230
-1.0
1001
ACAD
1000
RTLwPs
1070
   128
  0
LWPOLYLINE
  5
713
100
AcDbEntity
  8
_AA_PERFIL_AC
100
AcDbPolyline
 90
        4
 70
   129
 43
0.0
 10
1665.575246
 20
1648.656606
 10
1665.575246
 20
1510.96646
 10
1635.593815
 20
1510.96646
 10
1635.593815
 20
1646.96646
1001
ACAD
1000
RTLwPs
1070
   128
  0
LINE
  5
714
100
AcDbEntity
  8
_AA_ESTRUCTURA_HR
100
AcDbLine
 10
1523.841546
 20
1640.666639
 30
0.0
 11
1523.841546
 21
1695.001877
 31
0.0
  0
POLYLINE
  5
715
100
AcDbEntity
  8
_AA_PERFIL_AC
100
AcDb2dPolyline
 66
     1
 10
0.0
 20
0.0
 30
0.0
210
-0.0000000000022015
220
0.0
230
1.0
1001
ACAD
1000
RTLwPs
1070
   128
  0
VERTEX
  5
716
100
AcDbEntity
  8
_AA_PERFIL_AC
100
AcDbVertex
100
AcDb2dVertex
 10
1753.896061
 20
1653.635524
 30
0.0
1001
ACAD
1000
RTLwPs
1070
   128
  0
VERTEX
  5
717
100
AcDbEntity
  8
_AA_PERFIL_AC
100
AcDbVertex
100
AcDb2dVertex
 10
1523.841546
 20
1640.666639
 30
0.0
1001
ACAD
1000
RTLwPs
1070
   128
  0
SEQEND
  5
718
100
AcDbEntity
  8
_AA_PERFIL_AC
1001
ACAD
1000
RTLwPs
1070
   128
  0
POLYLINE
  5
719
100
AcDbEntity
  8
_AA_ESTRUCTURA_HR
100
AcDb2dPolyline
 66
     1
 10
0.0
 20
0.0
 30
0.0
210
-0.0000000000029487
220
0.0
230
1.0
  0
VERTEX
  5
71A
100
AcDbEntity
  8
_AA_ESTRUCTURA_HR
100
AcDbVertex
100
AcDb2dVertex
 10
1753.896061
 20
1667.674392
 30
0.0
  0
VERTEX
  5
71B
100
AcDbEntity
  8
_AA_ESTRUCTURA_HR
100
AcDbVertex
100
AcDb2dVertex
 10
1538.841546
 20
1655.556627
 30
0.0
  0
VERTEX
  5
71C
100
AcDbEntity
  8
_AA_ESTRUCTURA_HR
100
AcDbVertex
100
AcDb2dVertex
 10
1538.841546
 20
1695.001877
 30
0.0
  0
VERTEX
  5
71D
100
AcDbEntity
  8
_AA_ESTRUCTURA_HR
100
AcDbVertex
100
AcDb2dVertex
 10
1523.841546
 20
1695.001877
 30
0.0
  0
SEQEND
  5
71E
100
AcDbEntity
  8
_AA_ESTRUCTURA_HR
  0
LINE
  5
71F
100
AcDbEntity
  8
_AA_PERFIL_AL
100
AcDbLine
 10
1480.632211
 20
1693.043131
 30
0.0
 11
1481.480219
 21
1708.856229
 31
0.0
210
0.0000000000047162
220
0.0
230
-1.0
  0
LINE
  5
720
100
AcDbEntity
  8
_AA_PERFIL_AL
100
AcDbLine
 10
1481.480219
 20
1708.856229
 30
0.0
 11
1542.995565
 21
1712.455497
 31
0.0
210
0.0000000000047162
220
0.0
230
-1.0
  0
LINE
  5
721
100
AcDbEntity
  8
_AA_PERFIL_AL
100
AcDbLine
 10
1542.995565
 20
1712.455497
 30
0.0
 11
1542.995565
 21
1686.607814
 31
0.0
210
0.0000000000047162
220
0.0
230
-1.0
  0
LINE
  5
722
100
AcDbEntity
  8
_AA_PERFIL_AL
100
AcDbLine
 10
1476.917305
 20
1713.397462
 30
0.0
 11
1547.795565
 21
1717.544554
 31
0.0
210
0.0000000000047162
220
0.0
230
-1.0
  0
LINE
  5
723
100
AcDbEntity
  8
_AA_PERFIL_AL
100
AcDbLine
 10
1547.795565
 20
1717.544554
 30
0.0
 11
1547.795565
 21
1686.607814
 31
0.0
210
0.0000000000047162
220
0.0
230
-1.0
  0
LINE
  5
724
100
AcDbEntity
  8
_AA_PERFIL_AL
100
AcDbLine
 10
1547.795565
 20
1712.536003
 30
0.0
 11
1679.505103
 21
1720.242337
 31
0.0
210
0.0000000000047162
220
0.0
230
-1.0
  0
LINE
  5
725
100
AcDbEntity
  8
_AA_PIEDRA
100
AcDbLine
 10
1679.505103
 20
1720.242337
 30
0.0
 11
1679.505103
 21
1811.079692
 31
0.0
210
0.0000000000047162
220
0.0
230
-1.0
1001
ACAD
1000
RTLwPs
1070
   128
  0
POLYLINE
  5
726
100
AcDbEntity
  8
_AA_PERFIL_AL
100
AcDb2dPolyline
 66
     1
 10
0.0
 20
0.0
 30
0.0
210
0.0000000000047162
220
0.0
230
-1.0
  0
VERTEX
  5
727
100
AcDbEntity
  8
_AA_PERFIL_AL
100
AcDbVertex
100
AcDb2dVertex
 10
-1547.795565
 20
1717.544554
 30
0.0
  0
VERTEX
  5
728
100
AcDbEntity
  8
_AA_PERFIL_AL
100
AcDbVertex
100
AcDb2dVertex
 10
-1674.505103
 20
1724.958338
 30
0.0
  0
SEQEND
  5
729
100
AcDbEntity
  8
_AA_PERFIL_AL
  0
POLYLINE
  5
72A
100
AcDbEntity
  8
_AA_PIEDRA
100
AcDb2dPolyline
 66
     1
 10
0.0
 20
0.0
 30
0.0
210
0.0000000000047162
220
0.0
230
-1.0
1001
ACAD
1000
RTLwPs
1070
   128
  0
VERTEX
  5
72B
100
AcDbEntity
  8
_AA_PIEDRA
100
AcDbVertex
100
AcDb2dVertex
 10
-1674.505103
 20
1724.958338
 30
0.0
1001
ACAD
1000
RTLwPs
1070
   128
  0
VERTEX
  5
72C
100
AcDbEntity
  8
_AA_PIEDRA
100
AcDbVertex
100
AcDb2dVertex
 10
-1674.505103
 20
1815.805211
 30
0.0
1001
ACAD
1000
RTLwPs
1070
   128
  0
SEQEND
  5
72D
100
AcDbEntity
  8
_AA_PIEDRA
1001
ACAD
1000
RTLwPs
1070
   128
  0
LWPOLYLINE
  5
72E
100
AcDbEntity
  8
_AA_PERFIL_AL
100
AcDbPolyline
 90
        5
 70
     0
 43
0.0
 38
0.0
 10
1474.2288
 20
1508.552459
 10
1474.2288
 20
1508.552458
 10
1492.202967
 20
1507.588437
 10
1492.738534
 20
1517.574085
 10
1485.819864
 20
1517.945159
  0
LINE
  5
72F
100
AcDbEntity
  8
_AA_VIDRIO
100
AcDbLine
 10
1497.651821
 20
1509.817436
 30
0.0
 11
1492.852753
 21
1509.912046
 31
0.0
  0
LWPOLYLINE
  5
730
100
AcDbEntity
  8
_AA_PERFIL_AL
100
AcDbPolyline
 90
        4
 70
     1
 43
0.0
 38
0.0
 10
1479.007627
 20
997.885136
 10
1478.876188
 20
991.212747
 10
1482.175548
 20
991.147746
 10
1482.307139
 20
997.820089
  0
LWPOLYLINE
  5
731
100
AcDbEntity
  8
_AA_PERFIL_AL
100
AcDbPolyline
 90
        6
 70
     1
 43
0.0
 38
0.0
 10
1479.88796
 20
991.192814
 10
1476.671127
 20
991.256219
 10
1476.607986
 20
988.053384
 10
1477.207869
 20
988.041558
 10
1477.265098
 20
990.944451
 10
1479.882047
 20
990.892859
1001
ACAD
1000
RTLwPs
1070
   128
  0
LWPOLYLINE
  5
732
100
AcDbEntity
  8
_AA_PERFIL_AL
100
AcDbPolyline
 90
        4
 70
     1
 43
0.0
 38
0.0
 10
1488.355964
 20
997.70084
 10
1488.15886
 20
987.702783
 10
1504.203944
 20
987.386466
 10
1504.401048
 20
997.384524
  0
LWPOLYLINE
  5
733
100
AcDbEntity
  8
_AA_PERFIL_AL
100
AcDbPolyline
 90
        6
 70
     1
 43
0.0
 38
0.0
 10
1483.732388
 20
992.729652
 10
1483.635873
 20
987.83396
 10
1487.34963
 20
987.760745
 10
1487.446145
 20
992.656438
 10
1487.446145
 20
992.656438
 10
1487.446145
 20
992.656438
1001
ACAD
1000
RTLwPs
1070
   128
  0
LINE
  5
734
100
AcDbEntity
  8
_AA_VIDRIO
100
AcDbLine
 10
1505.519151
 20
990.79702
 30
0.0
 11
1510.303552
 21
990.410357
 31
0.0
  0
LWPOLYLINE
  5
735
100
AcDbEntity
  8
_AA_PERFIL_AL
100
AcDbPolyline
 90
       12
 70
   129
 43
0.0
 38
0.0
 10
1475.287584
 20
921.076325
 10
1475.350725
 20
924.279159
 10
1477.967674
 20
924.227568
 10
1478.032715
 20
927.526773
 10
1475.415766
 20
927.578364
 10
1475.478907
 20
930.781198
 10
1476.078791
 20
930.769372
 10
1476.021563
 20
927.86648
 10
1478.638512
 20
927.814889
 10
1478.561645
 20
923.915801
 10
1475.944696
 20
923.967391
 10
1475.887468
 20
921.064499
  0
LWPOLYLINE
  5
736
100
AcDbEntity
  8
_AA_PERFIL_AL
100
AcDbPolyline
 90
        4
 70
     1
 43
0.0
 38
0.0
 10
1481.838962
 20
920.800516
 10
1482.036065
 20
930.798573
 10
1499.348655
 20
930.457269
 10
1499.151552
 20
920.459212
  0
LINE
  5
737
100
AcDbEntity
  8
_AA_PERFIL_AC
100
AcDbLine
 10
1556.843698
 20
646.094544
 30
0.0
 11
1549.455219
 21
829.067806
 31
0.0
210
-0.0000000000000175
220
1.0
230
0.0
1001
ACAD
1000
RTLwPs
1070
   128
  0
LINE
  5
738
100
AcDbEntity
  8
_AA_PERFIL_AC
100
AcDbLine
 10
1506.61753
 20
708.936547
 30
0.0
 11
1526.552534
 21
707.325453
 31
0.0
1001
ACAD
1000
RTLwPs
1070
   128
  0
LINE
  5
739
100
AcDbEntity
  8
_AA_VIDRIO
100
AcDbLine
 10
1515.587996
 20
701.169188
 30
0.0
 11
1510.791904
 21
700.975522
 31
0.0
1001
ACAD
1000
RTLwPs
1070
   128
  0
INSERT
  5
73A
100
AcDbEntity
  8
_AA_VIDRIO
100
AcDbBlockReference
  2
MALU90
 10
1512.400394
 20
651.094544
 30
0.0
 50
90.000002
1001
ACAD
1000
RTLwPs
1070
   128
  0
LINE
  5
73B
100
AcDbEntity
  8
_AA_VIDRIO
100
AcDbLine
 10
1512.672156
 20
654.411707
 30
0.0
 11
1517.468247
 21
654.605374
 31
0.0
1001
ACAD
1000
RTLwPs
1070
   128
  0
INSERT
  5
73C
100
AcDbEntity
  8
_AA_PERFIL_AL
100
AcDbBlockReference
  2
MALU90OPACO
 10
1505.673142
 20
992.702446
 30
0.0
 50
85.379548
  0
LWPOLYLINE
  5
73D
100
AcDbEntity
  8
_AA_PERFIL_AL
100
AcDbPolyline
 90
        4
 70
     1
 43
0.0
 38
0.0
 10
1498.501287
 20
1507.250642
 10
1499.036841
 20
1517.236292
 10
1517.011009
 20
1516.272292
 10
1516.475454
 20
1506.286643
  0
INSERT
  5
73E
100
AcDbEntity
  8
_AA_VIDRIO
100
AcDbBlockReference
  2
MALU90
 10
1511.098939
 20
703.558069
 30
0.0
 50
85.379551
1001
ACAD
1000
RTLwPs
1070
   128
  0
LINE
  5
73F
100
AcDbEntity
  8
_AA_PERFIL_AC
100
AcDbLine
 10
1490.256223
 20
1517.707221
 30
0.0
 11
1516.782977
 21
1516.284525
 31
0.0
1001
ACAD
1000
RTLwPs
1070
   128
  0
LINE
  5
740
100
AcDbEntity
  8
ESI
100
AcDbLine
 10
1625.569793
 20
444.067806
 30
0.0
 11
1625.569793
 21
1579.768893
 31
0.0
  0
LINE
  5
741
100
AcDbEntity
  8
MVB
100
AcDbLine
 10
1625.569793
 20
1579.768893
 30
0.0
 11
1650.575246
 21
1579.768893
 31
0.0
1001
ACAD
1000
RTLwPs
1070
   128
  0
INSERT
  5
742
100
AcDbEntity
  8
EP
100
AcDbBlockReference
  2
VB2
 10
1650.575246
 20
1579.768893
 30
0.0
  0
LINE
  5
743
100
AcDbEntity
  8
ESM
100
AcDbLine
 10
1520.935734
 20
1219.067806
 30
0.0
 11
1625.569793
 21
1219.067806
 31
0.0
1001
ACAD
1000
RTLwPs
1070
   128
  0
LINE
  5
744
100
AcDbEntity
  8
MEP
100
AcDbLine
 10
1625.569793
 20
1219.067806
 30
0.0
 11
1650.575246
 21
1219.067806
 31
0.0
  0
LINE
  5
745
100
AcDbEntity
  8
ESM
100
AcDbLine
 10
1625.569793
 20
819.067806
 30
0.0
 11
1525.550651
 21
819.067806
 31
0.0
  0
LINE
  5
746
100
AcDbEntity
  8
PEP
100
AcDbLine
 10
1650.575246
 20
619.067806
 30
0.0
 11
1625.569793
 21
619.067806
 31
0.0
  0
LINE
  5
747
100
AcDbEntity
  8
ESE
100
AcDbLine
 10
1499.706107
 20
1507.186028
 30
0.0
 11
1509.242812
 21
1685.001888
 31
0.0
210
-0.0000000000000175
220
1.0
230
0.0
1001
ACAD
1000
RTLwPs
1070
   128
  0
LINE
  5
748
100
AcDbEntity
  8
ESE
100
AcDbLine
 10
1516.560694
 20
997.144806
 30
0.0
 11
1528.821426
 21
1619.067808
 31
0.0
210
-0.0000000000000175
220
1.0
230
0.0
1001
ACAD
1000
RTLwPs
1070
   128
  0
LINE
  5
749
100
AcDbEntity
  8
ESE
100
AcDbLine
 10
1505.706604
 20
1619.067808
 30
0.0
 11
1528.821426
 21
1619.067808
 31
0.0
1001
ACAD
1000
RTLwPs
1070
   128
  0
LINE
  5
74A
100
AcDbEntity
  8
ESE
100
AcDbLine
 10
1516.585032
 20
708.131
 30
0.0
 11
1557.877595
 21
1219.067806
 31
0.0
210
-0.0000000000000175
220
1.0
230
0.0
1001
ACAD
1000
RTLwPs
1070
   128
  0
LINE
  5
74B
100
AcDbEntity
  8
ESE
100
AcDbLine
 10
1546.835549
 20
646.094544
 30
0.0
 11
1539.850871
 21
819.067806
 31
0.0
210
-0.0000000000000175
220
1.0
230
0.0
1001
ACAD
1000
RTLwPs
1070
   128
  0
INSERT
  5
74C
100
AcDbEntity
  8
EP
100
AcDbBlockReference
  2
VIGATPRIM
 10
1650.575246
 20
1219.067806
 30
0.0
  0
INSERT
  5
74D
100
AcDbEntity
  8
EP
100
AcDbBlockReference
  2
VIGATSECUN
 10
1625.569793
 20
819.067806
 30
0.0
  0
INSERT
  5
74E
100
AcDbEntity
  8
EP
100
AcDbBlockReference
  2
APOYOPRINCIPAL
 10
1650.575246
 20
444.067806
 30
0.0
  0
INSERT
  5
74F
100
AcDbEntity
  8
EP
100
AcDbBlockReference
  2
APOYOINFERIOR
 10
1625.569793
 20
444.067806
 30
0.0
  0
INSERT
  5
750
100
AcDbEntity
  8
EP
100
AcDbBlockReference
  2
APOYOINFERIOR
 10
1546.835549
 20
646.094544
 30
0.0
  0
INSERT
  5
751
100
AcDbEntity
  8
EP
100
AcDbBlockReference
  2
VIGATSECUN
 10
1525.550651
 20
819.067806
 30
0.0
  0
INSERT
  5
752
100
AcDbEntity
  8
EP
100
AcDbBlockReference
  2
VIGATSECUN
 10
1520.935734
 20
1219.067806
 30
0.0
  0
INSERT
  5
753
100
AcDbEntity
  8
EP
100
AcDbBlockReference
  2
VIGATSECUN
 10
1557.877595
 20
1219.067806
 30
0.0
  0
INSERT
  5
754
100
AcDbEntity
  8
EP
100
AcDbBlockReference
  2
VIGATSECUN
 10
1509.242812
 20
1685.001888
 30
0.0
  0
INSERT
  5
755
100
AcDbEntity
  8
EP
100
AcDbBlockReference
  2
VIGATSECUN
 10
1528.821426
 20
1619.067808
 30
0.0
  0
LINE
  5
756
100
AcDbEntity
  8
MVB
100
AcDbLine
 10
1527.539888
 20
1554.062074
 30
0.0
 11
1552.509515
 21
1554.062074
 31
0.0
1001
ACAD
1000
RTLwPs
1070
   128
  0
LINE
  5
757
100
AcDbEntity
  8
VR
100
AcDbLine
 10
1552.509515
 20
1554.062074
 30
0.0
 11
1650.575246
 21
1579.768893
 31
0.0
  0
INSERT
  5
758
100
AcDbEntity
  8
EP
100
AcDbBlockReference
  2
VB
 10
1552.509515
 20
1554.062074
 30
0.0
  0
INSERT
  5
759
100
AcDbEntity
  8
EP
100
AcDbBlockReference
  2
VIGATSECUN
 10
1499.706107
 20
1507.186028
 30
0.0
  0
INSERT
  5
75A
100
AcDbEntity
  8
EP
100
AcDbBlockReference
  2
VIGATSECUN
 10
1516.560694
 20
997.144806
 30
0.0
  0
INSERT
  5
75B
100
AcDbEntity
  8
EP
100
AcDbBlockReference
  2
VIGATSECUN
 10
1516.585032
 20
708.131
 30
0.0
  0
LINE
  5
75C
100
AcDbEntity
  8
PEP
100
AcDbLine
 10
1650.575246
 20
819.067806
 30
0.0
 11
1625.569793
 21
819.067806
 31
0.0
  0
LINE
  5
75D
100
AcDbEntity
  8
PEP
100
AcDbLine
 10
1650.575246
 20
1019.067806
 30
0.0
 11
1625.569793
 21
1019.067806
 31
0.0
  0
ENDBLK
  5
75F
100
AcDbEntity
  8
0
100
AcDbBlockEnd
  0
ENDSEC
  0
SECTION
  2
ENTITIES
  0
LINE
  5
26A
100
AcDbEntity
  8
_AA_PROYECCION2
100
AcDbLine
 10
74.881351
 20
1200.666126
 30
0.0
 11
74.881351
 21
-22.879433
 31
0.0
1001
ACAD
1000
RTLwPs
1070
   128
  0
LINE
  5
26C
100
AcDbEntity
  8
_AA_PROYECCION2
100
AcDbLine
 10
44.881351
 20
1147.370784
 30
0.0
 11
44.881351
 21
-22.879433
 31
0.0
1001
ACAD
1000
RTLwPs
1070
   128
  0
LINE
  5
26D
100
AcDbEntity
  8
_AA_PROYECCION2
100
AcDbLine
 10
24.881351
 20
1002.486642
 30
0.0
 11
24.881351
 21
-22.879433
 31
0.0
1001
ACAD
1000
RTLwPs
1070
   128
  0
LINE
  5
26E
100
AcDbEntity
  8
_AA_PROYECCION2
100
AcDbLine
 10
-120.139681
 20
1136.959285
 30
-0.00006
 11
-120.802257
 21
806.14207
 31
0.0
1001
ACAD
1000
RTLwPs
1070
   128
  0
LINE
  5
26F
100
AcDbEntity
  8
_AA_PROYECCION2
100
AcDbLine
 10
-100.119612
 20
1146.959276
 30
-0.00006
 11
-100.802297
 21
806.102013
 31
0.0
1001
ACAD
1000
RTLwPs
1070
   128
  0
LINE
  5
270
100
AcDbEntity
  8
_AA_PROYECCION2
100
AcDbLine
 10
-120.7224
 20
1002.486642
 30
-0.000001
 11
-56.018441
 21
1002.486642
 31
-0.000001
1001
ACAD
1000
RTLwPs
1070
   128
  0
LINE
  5
271
100
AcDbEntity
  8
_AA_PROYECCION2
100
AcDbLine
 10
-120.762457
 20
982.486642
 30
-0.000001
 11
-56.018441
 21
982.486642
 31
-0.000001
1001
ACAD
1000
RTLwPs
1070
   128
  0
LINE
  5
272
100
AcDbEntity
  8
_AA_PROYECCION2
100
AcDbLine
 10
-76.840841
 20
1010.616506
 30
0.0
 11
-73.938775
 21
530.489599
 31
0.0
1001
ACAD
1000
RTLwPs
1070
   128
  0
LINE
  5
273
100
AcDbEntity
  8
_AA_PROYECCION2
100
AcDbLine
 10
-56.840476
 20
1010.616506
 30
0.0
 11
-53.939153
 21
530.612596
 31
0.0
1001
ACAD
1000
RTLwPs
1070
   128
  0
LINE
  5
274
100
AcDbEntity
  8
_AA_PROYECCION2
100
AcDbLine
 10
-75.338839
 20
762.120567
 30
0.0
 11
44.881351
 21
762.120567
 31
0.0
1001
ACAD
1000
RTLwPs
1070
   128
  0
LINE
  5
275
100
AcDbEntity
  8
_AA_PROYECCION2
100
AcDbLine
 10
-75.217951
 20
742.120567
 30
0.0
 11
44.881351
 21
742.120567
 31
0.0
1001
ACAD
1000
RTLwPs
1070
   128
  0
LINE
  5
276
100
AcDbEntity
  8
_AA_PROYECCION2
100
AcDbLine
 10
-22.470333
 20
762.120567
 30
0.0
 11
-52.282498
 21
355.367477
 31
0.0
210
0.0
220
1.0
230
0.0
1001
ACAD
1000
RTLwPs
1070
   128
  0
LINE
  5
277
100
AcDbEntity
  8
_AA_PROYECCION2
100
AcDbLine
 10
-2.416686
 20
762.120567
 30
0.0
 11
-32.697738
 21
348.970046
 31
0.0
210
0.0
220
1.0
230
0.0
1001
ACAD
1000
RTLwPs
1070
   128
  0
LINE
  5
278
100
AcDbEntity
  8
_AA_PROYECCION2
100
AcDbLine
 10
-26.018441
 20
982.486642
 30
-0.000001
 11
44.881351
 21
982.486642
 31
-0.000001
1001
ACAD
1000
RTLwPs
1070
   128
  0
LINE
  5
279
100
AcDbEntity
  8
_AA_PROYECCION2
100
AcDbLine
 10
-26.018441
 20
1002.486642
 30
-0.000001
 11
44.881351
 21
1002.486642
 31
-0.000001
1001
ACAD
1000
RTLwPs
1070
   128
  0
INSERT
  5
27A
100
AcDbEntity
  8
_AA_PERFIL_AL
100
AcDbBlockReference
  2
MALU90SEMITRP_OP
 10
-76.65493
 20
345.692223
 30
0.0
 50
85.808114
1001
ACAD
1000
RTLwPs
1070
   128
  0
LINE
  5
284
100
AcDbEntity
  8
_AA_PIEDRA
100
AcDbLine
 10
-143.89908
 20
1166.012064
 30
0.0
 11
-143.929842
 21
1144.012064
 31
0.0
210
0.0
220
1.0
230
0.0
  0
ARC
  5
286
100
AcDbEntity
  8
_AA_CARTONYESO
100
AcDbCircle
 10
-29600.749672
 20
-36385.772623
 30
0.0
 40
47538.259918
210
0.0000000000060534
220
0.0
230
1.0
100
AcDbArc
 50
50.938241
 51
51.342174
  0
LINE
  5
288
100
AcDbEntity
  8
_AA_VIDRIO
100
AcDbLine
 10
-99.296803
 20
797.341598
 30
0.0
 11
-99.045658
 21
755.820497
 31
0.0
210
0.0
220
1.0
230
0.0
  0
ARC
  5
28D
100
AcDbEntity
  8
_AA_CARTONYESO
100
AcDbCircle
 10
6289.438562
 20
11283.303719
 30
0.0
 40
12285.240418
210
0.0000000000274866
220
0.0
230
1.0
100
AcDbArc
 50
241.119142
 51
241.687321
  0
LINE
  5
291
100
AcDbEntity
  8
_AA_VIDRIO
100
AcDbLine
 10
-77.002014
 20
343.692741
 30
0.0
 11
-78.848099
 21
318.505014
 31
0.0
210
0.0
220
1.0
230
0.0
  0
LINE
  5
292
100
AcDbEntity
  8
_AA_VIDRIO
100
AcDbLine
 10
-47.699514
 20
340.17762
 30
0.0
 11
-45.857367
 21
155.820381
 31
0.0
210
0.0
220
1.0
230
0.0
  0
LINE
  5
293
100
AcDbEntity
  8
_AA_VIDRIO
100
AcDbLine
 10
-63.785723
 20
524.014006
 30
0.0
 11
-76.236694
 21
354.134664
 31
0.0
210
0.0
220
1.0
230
0.0
  0
LINE
  5
294
100
AcDbEntity
  8
_AA_VIDRIO
100
AcDbLine
 10
-144.411996
 20
799.194578
 30
0.0
 11
-144.548275
 21
701.732876
 31
0.0
210
0.0
220
1.0
230
0.0
  0
LINE
  5
295
100
AcDbEntity
  8
_AA_PIEDRA
100
AcDbLine
 10
6.23902
 20
1371.535556
 30
0.0
 11
6.23902
 21
1401.535556
 31
0.0
210
0.0
220
1.0
230
0.0
  0
LINE
  5
296
100
AcDbEntity
  8
_AA_PIEDRA
100
AcDbLine
 10
-93.870155
 20
1233.132583
 30
0.0
 11
-93.870155
 21
1263.132583
 31
0.0
210
0.0
220
1.0
230
0.0
  0
POLYLINE
  5
297
100
AcDbEntity
  8
_AA_PIEDRA
100
AcDb2dPolyline
 66
     1
 10
0.0
 20
0.0
 30
-0.002178
210
0.0000000222323405
220
-0.0000000158877156
230
0.9999999999999996
  0
VERTEX
  5
298
100
AcDbEntity
  8
_AA_PIEDRA
100
AcDbVertex
100
AcDb2dVertex
 10
-93.870157
 20
1233.132578
 30
-0.002178
  0
VERTEX
  5
299
100
AcDbEntity
  8
_AA_PIEDRA
100
AcDbVertex
100
AcDb2dVertex
 10
-82.649102
 20
1253.134657
 30
-0.002178
  0
VERTEX
  5
29A
100
AcDbEntity
  8
_AA_PIEDRA
100
AcDbVertex
100
AcDb2dVertex
 10
-71.024181
 20
1272.904096
 30
-0.002178
  0
VERTEX
  5
29B
100
AcDbEntity
  8
_AA_PIEDRA
100
AcDbVertex
100
AcDb2dVertex
 10
-62.607437
 20
1286.567475
 30
-0.002178
  0
VERTEX
  5
29C
100
AcDbEntity
  8
_AA_PIEDRA
100
AcDbVertex
100
AcDb2dVertex
 10
-53.912413
 20
1300.054963
 30
-0.002178
  0
VERTEX
  5
29D
100
AcDbEntity
  8
_AA_PIEDRA
100
AcDbVertex
100
AcDb2dVertex
 10
-44.882325
 20
1313.338712
 30
-0.002178
  0
VERTEX
  5
29E
100
AcDbEntity
  8
_AA_PIEDRA
100
AcDbVertex
100
AcDb2dVertex
 10
-35.469926
 20
1326.333165
 30
-0.002178
  0
VERTEX
  5
29F
100
AcDbEntity
  8
_AA_PIEDRA
100
AcDbVertex
100
AcDb2dVertex
 10
-30.895052
 20
1332.313188
 30
-0.002178
  0
VERTEX
  5
2A0
100
AcDbEntity
  8
_AA_PIEDRA
100
AcDbVertex
100
AcDb2dVertex
 10
-26.203467
 20
1338.201757
 30
-0.002178
  0
VERTEX
  5
2A1
100
AcDbEntity
  8
_AA_PIEDRA
100
AcDbVertex
100
AcDb2dVertex
 10
-21.659036
 20
1343.658778
 30
-0.002178
  0
VERTEX
  5
2A2
100
AcDbEntity
  8
_AA_PIEDRA
100
AcDbVertex
100
AcDb2dVertex
 10
-16.468862
 20
1349.577815
 30
-0.002178
  0
VERTEX
  5
2A3
100
AcDbEntity
  8
_AA_PIEDRA
100
AcDbVertex
100
AcDb2dVertex
 10
-11.10108
 20
1355.335696
 30
-0.002178
  0
VERTEX
  5
2A4
100
AcDbEntity
  8
_AA_PIEDRA
100
AcDbVertex
100
AcDb2dVertex
 10
-8.209195
 20
1358.283196
 30
-0.002178
  0
VERTEX
  5
2A5
100
AcDbEntity
  8
_AA_PIEDRA
100
AcDbVertex
100
AcDb2dVertex
 10
-5.264178
 20
1361.177689
 30
-0.002178
  0
VERTEX
  5
2A6
100
AcDbEntity
  8
_AA_PIEDRA
100
AcDbVertex
100
AcDb2dVertex
 10
-2.266476
 20
1364.017563
 30
-0.002178
  0
VERTEX
  5
2A7
100
AcDbEntity
  8
_AA_PIEDRA
100
AcDbVertex
100
AcDb2dVertex
 10
0.783461
 20
1366.801204
 30
-0.002178
  0
VERTEX
  5
2A8
100
AcDbEntity
  8
_AA_PIEDRA
100
AcDbVertex
100
AcDb2dVertex
 10
6.239133
 20
1371.535352
 30
-0.002178
  0
SEQEND
  5
2A9
100
AcDbEntity
  8
_AA_PIEDRA
  0
ARC
  5
2AA
100
AcDbEntity
  8
_AA_PIEDRA
100
AcDbCircle
 10
-2476.2687
 20
1523089.283772
 30
0.0
 40
1523146.360463
210
0.0000000000311804
220
0.0
230
1.0
100
AcDbArc
 50
270.064459
 51
270.091503
  0
POLYLINE
  5
2AB
100
AcDbEntity
  8
_AA_PIEDRA
100
AcDb2dPolyline
 66
     1
 10
0.0
 20
0.0
 30
0.000097
210
0.0000000000390757
220
0.0
230
-1.0
  0
VERTEX
  5
2AC
100
AcDbEntity
  8
_AA_PIEDRA
100
AcDbVertex
100
AcDb2dVertex
 10
-6.239133
 20
1401.535352
 30
0.000097
  0
VERTEX
  5
2AD
100
AcDbEntity
  8
_AA_PIEDRA
100
AcDbVertex
100
AcDb2dVertex
 10
-11.355693
 20
1405.734225
 30
0.000097
  0
VERTEX
  5
2AE
100
AcDbEntity
  8
_AA_PIEDRA
100
AcDbVertex
100
AcDb2dVertex
 10
-16.563717
 20
1409.819484
 30
0.000097
  0
VERTEX
  5
2AF
100
AcDbEntity
  8
_AA_PIEDRA
100
AcDbVertex
100
AcDb2dVertex
 10
-27.174559
 20
1417.739671
 30
0.000097
  0
VERTEX
  5
2B0
100
AcDbEntity
  8
_AA_PIEDRA
100
AcDbVertex
100
AcDb2dVertex
 10
-42.258364
 20
1428.435437
 30
0.000097
  0
VERTEX
  5
2B1
100
AcDbEntity
  8
_AA_PIEDRA
100
AcDbVertex
100
AcDb2dVertex
 10
-53.045409
 20
1435.682234
 30
0.000097
  0
VERTEX
  5
2B2
100
AcDbEntity
  8
_AA_PIEDRA
100
AcDbVertex
100
AcDb2dVertex
 10
-63.995382
 20
1442.681123
 30
0.000097
  0
VERTEX
  5
2B3
100
AcDbEntity
  8
_AA_PIEDRA
100
AcDbVertex
100
AcDb2dVertex
 10
-74.719323
 20
1449.185248
 30
0.000097
  0
VERTEX
  5
2B4
100
AcDbEntity
  8
_AA_PIEDRA
100
AcDbVertex
100
AcDb2dVertex
 10
-85.597148
 20
1455.428154
 30
0.000097
  0
VERTEX
  5
2B5
100
AcDbEntity
  8
_AA_PIEDRA
100
AcDbVertex
100
AcDb2dVertex
 10
-95.542761
 20
1460.82159
 30
0.000097
  0
VERTEX
  5
2B6
100
AcDbEntity
  8
_AA_PIEDRA
100
AcDbVertex
100
AcDb2dVertex
 10
-105.61766
 20
1465.969037
 30
0.000097
  0
VERTEX
  5
2B7
100
AcDbEntity
  8
_AA_PIEDRA
100
AcDbVertex
100
AcDb2dVertex
 10
-117.502218
 20
1471.625699
 30
0.000097
  0
VERTEX
  5
2B8
100
AcDbEntity
  8
_AA_PIEDRA
100
AcDbVertex
100
AcDb2dVertex
 10
-129.550553
 20
1476.924757
 30
0.000097
  0
VERTEX
  5
2B9
100
AcDbEntity
  8
_AA_PIEDRA
100
AcDbVertex
100
AcDb2dVertex
 10
-141.742298
 20
1481.874855
 30
0.000097
  0
VERTEX
  5
2BA
100
AcDbEntity
  8
_AA_PIEDRA
100
AcDbVertex
100
AcDb2dVertex
 10
-154.058226
 20
1486.508825
 30
0.000097
  0
VERTEX
  5
2BB
100
AcDbEntity
  8
_AA_PIEDRA
100
AcDbVertex
100
AcDb2dVertex
 10
-164.752361
 20
1490.275561
 30
0.000097
  0
VERTEX
  5
2BC
100
AcDbEntity
  8
_AA_PIEDRA
100
AcDbVertex
100
AcDb2dVertex
 10
-175.510833
 20
1493.854674
 30
0.000097
  0
VERTEX
  5
2BD
100
AcDbEntity
  8
_AA_PIEDRA
100
AcDbVertex
100
AcDb2dVertex
 10
-191.374768
 20
1498.7866
 30
0.000097
  0
VERTEX
  5
2BE
100
AcDbEntity
  8
_AA_PIEDRA
100
AcDbVertex
100
AcDb2dVertex
 10
-205.689803
 20
1502.877621
 30
0.000097
  0
VERTEX
  5
2BF
100
AcDbEntity
  8
_AA_PIEDRA
100
AcDbVertex
100
AcDb2dVertex
 10
-220.096312
 20
1506.633736
 30
0.000097
  0
VERTEX
  5
2C0
100
AcDbEntity
  8
_AA_PIEDRA
100
AcDbVertex
100
AcDb2dVertex
 10
-234.594707
 20
1510.028471
 30
0.000097
  0
VERTEX
  5
2C1
100
AcDbEntity
  8
_AA_PIEDRA
100
AcDbVertex
100
AcDb2dVertex
 10
-249.180448
 20
1513.022788
 30
0.000097
  0
VERTEX
  5
2C2
100
AcDbEntity
  8
_AA_PIEDRA
100
AcDbVertex
100
AcDb2dVertex
 10
-263.850986
 20
1515.572176
 30
0.000097
  0
VERTEX
  5
2C3
100
AcDbEntity
  8
_AA_PIEDRA
100
AcDbVertex
100
AcDb2dVertex
 10
-271.215912
 20
1516.662122
 30
0.000097
  0
VERTEX
  5
2C4
100
AcDbEntity
  8
_AA_PIEDRA
100
AcDbVertex
100
AcDb2dVertex
 10
-278.59951
 20
1517.618743
 30
0.000097
  0
VERTEX
  5
2C5
100
AcDbEntity
  8
_AA_PIEDRA
100
AcDbVertex
100
AcDb2dVertex
 10
-289.122908
 20
1518.732092
 30
0.000097
  0
VERTEX
  5
2C6
100
AcDbEntity
  8
_AA_PIEDRA
100
AcDbVertex
100
AcDb2dVertex
 10
-299.674596
 20
1519.527576
 30
0.000097
  0
VERTEX
  5
2C7
100
AcDbEntity
  8
_AA_PIEDRA
100
AcDbVertex
100
AcDb2dVertex
 10
-306.512732
 20
1519.859384
 30
0.000097
  0
VERTEX
  5
2C8
100
AcDbEntity
  8
_AA_PIEDRA
100
AcDbVertex
100
AcDb2dVertex
 10
-313.35646
 20
1520.04778
 30
0.000097
  0
VERTEX
  5
2C9
100
AcDbEntity
  8
_AA_PIEDRA
100
AcDbVertex
100
AcDb2dVertex
 10
-320.202781
 20
1520.096297
 30
0.000097
  0
VERTEX
  5
2CA
100
AcDbEntity
  8
_AA_PIEDRA
100
AcDbVertex
100
AcDb2dVertex
 10
-327.048692
 20
1520.008466
 30
0.000097
  0
VERTEX
  5
2CB
100
AcDbEntity
  8
_AA_PIEDRA
100
AcDbVertex
100
AcDb2dVertex
 10
-333.891387
 20
1519.788156
 30
0.000097
  0
VERTEX
  5
2CC
100
AcDbEntity
  8
_AA_PIEDRA
100
AcDbVertex
100
AcDb2dVertex
 10
-340.728833
 20
1519.44058
 30
0.000097
  0
VERTEX
  5
2CD
100
AcDbEntity
  8
_AA_PIEDRA
100
AcDbVertex
100
AcDb2dVertex
 10
-354.380623
 20
1518.385841
 30
0.000097
  0
VERTEX
  5
2CE
100
AcDbEntity
  8
_AA_PIEDRA
100
AcDbVertex
100
AcDb2dVertex
 10
-366.740931
 20
1517.044933
 30
0.000097
  0
VERTEX
  5
2CF
100
AcDbEntity
  8
_AA_PIEDRA
100
AcDbVertex
100
AcDb2dVertex
 10
-379.062125
 20
1515.379982
 30
0.000097
  0
VERTEX
  5
2D0
100
AcDbEntity
  8
_AA_PIEDRA
100
AcDbVertex
100
AcDb2dVertex
 10
-391.34151
 20
1513.431588
 30
0.000097
  0
VERTEX
  5
2D1
100
AcDbEntity
  8
_AA_PIEDRA
100
AcDbVertex
100
AcDb2dVertex
 10
-403.580067
 20
1511.239793
 30
0.000097
  0
VERTEX
  5
2D2
100
AcDbEntity
  8
_AA_PIEDRA
100
AcDbVertex
100
AcDb2dVertex
 10
-425.373338
 20
1506.835334
 30
0.000097
  0
VERTEX
  5
2D3
100
AcDbEntity
  8
_AA_PIEDRA
100
AcDbVertex
100
AcDb2dVertex
 10
-447.065453
 20
1501.955991
 30
0.000097
  0
VERTEX
  5
2D4
100
AcDbEntity
  8
_AA_PIEDRA
100
AcDbVertex
100
AcDb2dVertex
 10
-472.827835
 20
1495.585743
 30
0.000097
  0
VERTEX
  5
2D5
100
AcDbEntity
  8
_AA_PIEDRA
100
AcDbVertex
100
AcDb2dVertex
 10
-498.448283
 20
1488.666543
 30
0.000097
  0
VERTEX
  5
2D6
100
AcDbEntity
  8
_AA_PIEDRA
100
AcDbVertex
100
AcDb2dVertex
 10
-525.092514
 20
1480.890141
 30
0.000097
  0
VERTEX
  5
2D7
100
AcDbEntity
  8
_AA_PIEDRA
100
AcDbVertex
100
AcDb2dVertex
 10
-572.040889
 20
1465.862032
 30
0.000097
  0
VERTEX
  5
2D8
100
AcDbEntity
  8
_AA_PIEDRA
100
AcDbVertex
100
AcDb2dVertex
 10
-714.516722
 20
1416.243837
 30
0.000097
  0
VERTEX
  5
2D9
100
AcDbEntity
  8
_AA_PIEDRA
100
AcDbVertex
100
AcDb2dVertex
 10
-746.427939
 20
1406.014202
 30
0.000097
  0
SEQEND
  5
2DA
100
AcDbEntity
  8
_AA_PIEDRA
  0
LINE
  5
2DB
100
AcDbEntity
  8
_AA_PERFIL_AC
100
AcDbLine
 10
44.881351
 20
1011.370784
 30
0.0
 11
74.881351
 21
1011.370784
 31
0.0
  0
LINE
  5
2DD
100
AcDbEntity
  8
_AA_PIEDRA
100
AcDbLine
 10
-98.670155
 20
1214.765683
 30
0.0
 11
-98.670155
 21
1243.990003
 31
0.0
210
0.0
220
1.0
230
0.0
  0
POLYLINE
  5
2DE
100
AcDbEntity
  8
_AA_PIEDRA
100
AcDb2dPolyline
 66
     1
 10
0.0
 20
0.0
 30
-0.002178
210
0.0000000222323405
220
-0.0000000158877156
230
0.9999999999999996
  0
VERTEX
  5
2DF
100
AcDbEntity
  8
_AA_PIEDRA
100
AcDbVertex
100
AcDb2dVertex
 10
-98.670155
 20
1214.765683
 30
-0.002178
  0
VERTEX
  5
2E0
100
AcDbEntity
  8
_AA_PIEDRA
100
AcDbVertex
100
AcDb2dVertex
 10
-78.486714
 20
1250.743653
 30
-0.002178
  0
VERTEX
  5
2E1
100
AcDbEntity
  8
_AA_PIEDRA
100
AcDbVertex
100
AcDb2dVertex
 10
-66.911504
 20
1270.428554
 30
-0.002178
  0
VERTEX
  5
2E2
100
AcDbEntity
  8
_AA_PIEDRA
100
AcDbVertex
100
AcDb2dVertex
 10
-58.546438
 20
1284.008039
 30
-0.002178
  0
VERTEX
  5
2E3
100
AcDbEntity
  8
_AA_PIEDRA
100
AcDbVertex
100
AcDb2dVertex
 10
-49.909835
 20
1297.404907
 30
-0.002178
  0
VERTEX
  5
2E4
100
AcDbEntity
  8
_AA_PIEDRA
100
AcDbVertex
100
AcDb2dVertex
 10
-40.952953
 20
1310.580966
 30
-0.002178
  0
VERTEX
  5
2E5
100
AcDbEntity
  8
_AA_PIEDRA
100
AcDbVertex
100
AcDb2dVertex
 10
-31.619428
 20
1323.466528
 30
-0.002178
  0
VERTEX
  5
2E6
100
AcDbEntity
  8
_AA_PIEDRA
100
AcDbVertex
100
AcDb2dVertex
 10
-27.111443
 20
1329.359117
 30
-0.002178
  0
VERTEX
  5
2E7
100
AcDbEntity
  8
_AA_PIEDRA
100
AcDbVertex
100
AcDb2dVertex
 10
-22.481708
 20
1335.170055
 30
-0.002178
  0
VERTEX
  5
2E8
100
AcDbEntity
  8
_AA_PIEDRA
100
AcDbVertex
100
AcDb2dVertex
 10
-18.009681
 20
1340.540133
 30
-0.002178
  0
VERTEX
  5
2E9
100
AcDbEntity
  8
_AA_PIEDRA
100
AcDbVertex
100
AcDb2dVertex
 10
-12.908036
 20
1346.358209
 30
-0.002178
  0
VERTEX
  5
2EA
100
AcDbEntity
  8
_AA_PIEDRA
100
AcDbVertex
100
AcDb2dVertex
 10
-7.631892
 20
1352.017792
 30
-0.002178
  0
VERTEX
  5
2EB
100
AcDbEntity
  8
_AA_PIEDRA
100
AcDbVertex
100
AcDb2dVertex
 10
-4.813463
 20
1354.890423
 30
-0.002178
  0
VERTEX
  5
2EC
100
AcDbEntity
  8
_AA_PIEDRA
100
AcDbVertex
100
AcDb2dVertex
 10
-1.931015
 20
1357.72342
 30
-0.002178
  0
VERTEX
  5
2ED
100
AcDbEntity
  8
_AA_PIEDRA
100
AcDbVertex
100
AcDb2dVertex
 10
1.00228
 20
1360.502278
 30
-0.002178
  0
VERTEX
  5
2EE
100
AcDbEntity
  8
_AA_PIEDRA
100
AcDbVertex
100
AcDb2dVertex
 10
3.974817
 20
1363.215279
 30
-0.002178
  0
VERTEX
  5
2EF
100
AcDbEntity
  8
_AA_PIEDRA
100
AcDbVertex
100
AcDb2dVertex
 10
11.03902
 20
1369.345225
 30
-0.002178
  0
SEQEND
  5
2F0
100
AcDbEntity
  8
_AA_PIEDRA
  0
LINE
  5
2F1
100
AcDbEntity
  8
_AA_PIEDRA
100
AcDbLine
 10
11.03902
 20
1369.345225
 30
0.0
 11
11.03902
 21
1399.264967
 31
0.0
210
0.0
220
1.0
230
0.0
  0
POLYLINE
  5
2F2
100
AcDbEntity
  8
_AA_PIEDRA
100
AcDb2dPolyline
 66
     1
 10
0.0
 20
0.0
 30
0.000097
210
0.0000000000390757
220
0.0
230
-1.0
  0
VERTEX
  5
2F3
100
AcDbEntity
  8
_AA_PIEDRA
100
AcDbVertex
100
AcDb2dVertex
 10
-11.03902
 20
1399.264967
 30
0.000097
  0
VERTEX
  5
2F4
100
AcDbEntity
  8
_AA_PIEDRA
100
AcDbVertex
100
AcDb2dVertex
 10
-14.359819
 20
1401.990159
 30
0.000097
  0
VERTEX
  5
2F5
100
AcDbEntity
  8
_AA_PIEDRA
100
AcDbVertex
100
AcDb2dVertex
 10
-19.480986
 20
1406.007287
 30
0.000097
  0
VERTEX
  5
2F6
100
AcDbEntity
  8
_AA_PIEDRA
100
AcDbVertex
100
AcDb2dVertex
 10
-29.998801
 20
1413.858036
 30
0.000097
  0
VERTEX
  5
2F7
100
AcDbEntity
  8
_AA_PIEDRA
100
AcDbVertex
100
AcDb2dVertex
 10
-44.985385
 20
1424.484864
 30
0.000097
  0
VERTEX
  5
2F8
100
AcDbEntity
  8
_AA_PIEDRA
100
AcDbVertex
100
AcDb2dVertex
 10
-55.676649
 20
1431.667314
 30
0.000097
  0
VERTEX
  5
2F9
100
AcDbEntity
  8
_AA_PIEDRA
100
AcDbVertex
100
AcDb2dVertex
 10
-66.532862
 20
1438.606275
 30
0.000097
  0
VERTEX
  5
2FA
100
AcDbEntity
  8
_AA_PIEDRA
100
AcDbVertex
100
AcDb2dVertex
 10
-77.158898
 20
1445.05102
 30
0.000097
  0
VERTEX
  5
2FB
100
AcDbEntity
  8
_AA_PIEDRA
100
AcDbVertex
100
AcDb2dVertex
 10
-87.936216
 20
1451.236244
 30
0.000097
  0
VERTEX
  5
2FC
100
AcDbEntity
  8
_AA_PIEDRA
100
AcDbVertex
100
AcDb2dVertex
 10
-97.779139
 20
1456.573992
 30
0.000097
  0
VERTEX
  5
2FD
100
AcDbEntity
  8
_AA_PIEDRA
100
AcDbVertex
100
AcDb2dVertex
 10
-107.741465
 20
1461.663924
 30
0.000097
  0
VERTEX
  5
2FE
100
AcDbEntity
  8
_AA_PIEDRA
100
AcDbVertex
100
AcDb2dVertex
 10
-119.500346
 20
1467.260767
 30
0.000097
  0
VERTEX
  5
2FF
100
AcDbEntity
  8
_AA_PIEDRA
100
AcDbVertex
100
AcDb2dVertex
 10
-131.420039
 20
1472.503246
 30
0.000097
  0
VERTEX
  5
300
100
AcDbEntity
  8
_AA_PIEDRA
100
AcDbVertex
100
AcDb2dVertex
 10
-143.49063
 20
1477.404153
 30
0.000097
  0
VERTEX
  5
301
100
AcDbEntity
  8
_AA_PIEDRA
100
AcDbVertex
100
AcDb2dVertex
 10
-155.70091
 20
1481.998372
 30
0.000097
  0
VERTEX
  5
302
100
AcDbEntity
  8
_AA_PIEDRA
100
AcDbVertex
100
AcDb2dVertex
 10
-166.30741
 20
1485.734241
 30
0.000097
  0
VERTEX
  5
303
100
AcDbEntity
  8
_AA_PIEDRA
100
AcDbVertex
100
AcDb2dVertex
 10
-176.981077
 20
1489.285141
 30
0.000097
  0
VERTEX
  5
304
100
AcDbEntity
  8
_AA_PIEDRA
100
AcDbVertex
100
AcDb2dVertex
 10
-192.746927
 20
1494.186574
 30
0.000097
  0
VERTEX
  5
305
100
AcDbEntity
  8
_AA_PIEDRA
100
AcDbVertex
100
AcDb2dVertex
 10
-206.954951
 20
1498.247013
 30
0.000097
  0
VERTEX
  5
306
100
AcDbEntity
  8
_AA_PIEDRA
100
AcDbVertex
100
AcDb2dVertex
 10
-221.249139
 20
1501.973843
 30
0.000097
  0
VERTEX
  5
307
100
AcDbEntity
  8
_AA_PIEDRA
100
AcDbVertex
100
AcDb2dVertex
 10
-235.624686
 20
1505.339814
 30
0.000097
  0
VERTEX
  5
308
100
AcDbEntity
  8
_AA_PIEDRA
100
AcDbVertex
100
AcDb2dVertex
 10
-250.074191
 20
1508.306163
 30
0.000097
  0
VERTEX
  5
309
100
AcDbEntity
  8
_AA_PIEDRA
100
AcDbVertex
100
AcDb2dVertex
 10
-264.613364
 20
1510.832722
 30
0.000097
  0
VERTEX
  5
30A
100
AcDbEntity
  8
_AA_PIEDRA
100
AcDbVertex
100
AcDb2dVertex
 10
-271.875687
 20
1511.907484
 30
0.000097
  0
VERTEX
  5
30B
100
AcDbEntity
  8
_AA_PIEDRA
100
AcDbVertex
100
AcDb2dVertex
 10
-279.160459
 20
1512.851301
 30
0.000097
  0
VERTEX
  5
30C
100
AcDbEntity
  8
_AA_PIEDRA
100
AcDbVertex
100
AcDb2dVertex
 10
-289.555933
 20
1513.951116
 30
0.000097
  0
VERTEX
  5
30D
100
AcDbEntity
  8
_AA_PIEDRA
100
AcDbVertex
100
AcDb2dVertex
 10
-299.97139
 20
1514.73633
 30
0.000097
  0
VERTEX
  5
30E
100
AcDbEntity
  8
_AA_PIEDRA
100
AcDbVertex
100
AcDb2dVertex
 10
-306.695113
 20
1515.062586
 30
0.000097
  0
VERTEX
  5
30F
100
AcDbEntity
  8
_AA_PIEDRA
100
AcDbVertex
100
AcDb2dVertex
 10
-313.439519
 20
1515.248248
 30
0.000097
  0
VERTEX
  5
310
100
AcDbEntity
  8
_AA_PIEDRA
100
AcDbVertex
100
AcDb2dVertex
 10
-320.188998
 20
1515.296079
 30
0.000097
  0
VERTEX
  5
311
100
AcDbEntity
  8
_AA_PIEDRA
100
AcDbVertex
100
AcDb2dVertex
 10
-326.940662
 20
1515.209457
 30
0.000097
  0
VERTEX
  5
312
100
AcDbEntity
  8
_AA_PIEDRA
100
AcDbVertex
100
AcDb2dVertex
 10
-333.692294
 20
1514.992078
 30
0.000097
  0
VERTEX
  5
313
100
AcDbEntity
  8
_AA_PIEDRA
100
AcDbVertex
100
AcDb2dVertex
 10
-340.422062
 20
1514.649976
 30
0.000097
  0
VERTEX
  5
314
100
AcDbEntity
  8
_AA_PIEDRA
100
AcDbVertex
100
AcDb2dVertex
 10
-353.936798
 20
1513.605827
 30
0.000097
  0
VERTEX
  5
315
100
AcDbEntity
  8
_AA_PIEDRA
100
AcDbVertex
100
AcDb2dVertex
 10
-366.160597
 20
1512.279728
 30
0.000097
  0
VERTEX
  5
316
100
AcDbEntity
  8
_AA_PIEDRA
100
AcDbVertex
100
AcDb2dVertex
 10
-378.364536
 20
1510.630621
 30
0.000097
  0
VERTEX
  5
317
100
AcDbEntity
  8
_AA_PIEDRA
100
AcDbVertex
100
AcDb2dVertex
 10
-390.542241
 20
1508.698361
 30
0.000097
  0
VERTEX
  5
318
100
AcDbEntity
  8
_AA_PIEDRA
100
AcDbVertex
100
AcDb2dVertex
 10
-402.681441
 20
1506.524359
 30
0.000097
  0
VERTEX
  5
319
100
AcDbEntity
  8
_AA_PIEDRA
100
AcDbVertex
100
AcDb2dVertex
 10
-424.3711
 20
1502.140841
 30
0.000097
  0
VERTEX
  5
31A
100
AcDbEntity
  8
_AA_PIEDRA
100
AcDbVertex
100
AcDb2dVertex
 10
-445.962547
 20
1497.284142
 30
0.000097
  0
VERTEX
  5
31B
100
AcDbEntity
  8
_AA_PIEDRA
100
AcDbVertex
100
AcDb2dVertex
 10
-471.625862
 20
1490.938389
 30
0.000097
  0
VERTEX
  5
31C
100
AcDbEntity
  8
_AA_PIEDRA
100
AcDbVertex
100
AcDb2dVertex
 10
-497.149999
 20
1484.045201
 30
0.000097
  0
VERTEX
  5
31D
100
AcDbEntity
  8
_AA_PIEDRA
100
AcDbVertex
100
AcDb2dVertex
 10
-523.688202
 20
1476.299744
 30
0.000097
  0
VERTEX
  5
31E
100
AcDbEntity
  8
_AA_PIEDRA
100
AcDbVertex
100
AcDb2dVertex
 10
-570.519658
 20
1461.30906
 30
0.000097
  0
VERTEX
  5
31F
100
AcDbEntity
  8
_AA_PIEDRA
100
AcDbVertex
100
AcDb2dVertex
 10
-712.994532
 20
1411.691199
 30
0.000097
  0
VERTEX
  5
320
100
AcDbEntity
  8
_AA_PIEDRA
100
AcDbVertex
100
AcDb2dVertex
 10
-744.962671
 20
1401.443317
 30
0.000097
  0
SEQEND
  5
321
100
AcDbEntity
  8
_AA_PIEDRA
  0
POLYLINE
  5
322
100
AcDbEntity
  8
_AA_PIEDRA
100
AcDb2dPolyline
 66
     1
 10
0.0
 20
0.0
 30
0.000151
210
-0.0000000010515647
220
0.0
230
-1.0
  0
VERTEX
  5
323
100
AcDbEntity
  8
_AA_PIEDRA
100
AcDbVertex
100
AcDb2dVertex
 10
143.899107
 20
1166.012064
 30
0.000151
  0
VERTEX
  5
324
100
AcDbEntity
  8
_AA_PIEDRA
100
AcDbVertex
100
AcDb2dVertex
 10
110.082312
 20
1232.837834
 30
0.000151
  0
VERTEX
  5
325
100
AcDbEntity
  8
_AA_PIEDRA
100
AcDbVertex
100
AcDb2dVertex
 10
93.870157
 20
1263.132578
 30
0.000151
  0
SEQEND
  5
326
100
AcDbEntity
  8
_AA_PIEDRA
  0
LINE
  5
327
100
AcDbEntity
  8
_AA_PIEDRA
100
AcDbLine
 10
-139.100681
 20
1164.863598
 30
0.0
 11
-139.129837
 21
1144.012064
 31
0.0
210
0.0
220
1.0
230
0.0
  0
LINE
  5
328
100
AcDbEntity
  8
_AA_PIEDRA
100
AcDbLine
 10
-139.129837
 20
1144.012064
 30
0.0
 11
-143.929842
 21
1144.012064
 31
0.0
  0
LINE
  5
329
100
AcDbEntity
  8
_AA_VIDRIO
100
AcDbLine
 10
-139.129837
 20
1140.012064
 30
0.0
 11
-143.935435
 21
1140.012064
 31
0.0
  0
LINE
  5
32A
100
AcDbEntity
  8
_AA_VIDRIO
100
AcDbLine
 10
-139.13543
 20
1140.012064
 30
0.0
 11
-139.395406
 21
954.087635
 31
0.0
210
0.0
220
1.0
230
0.0
  0
LINE
  5
32B
100
AcDbEntity
  8
_AA_VIDRIO
100
AcDbLine
 10
-143.935435
 20
1140.012064
 30
0.0
 11
-144.195392
 21
954.101059
 31
0.0
210
0.0
220
1.0
230
0.0
  0
POLYLINE
  5
32C
100
AcDbEntity
  8
_AA_PIEDRA
100
AcDb2dPolyline
 66
     1
 10
0.0
 20
0.0
 30
0.000151
210
-0.0000000010515647
220
0.0
230
-1.0
  0
VERTEX
  5
32D
100
AcDbEntity
  8
_AA_PIEDRA
100
AcDbVertex
100
AcDb2dVertex
 10
139.100681
 20
1164.863598
 30
0.000151
  0
VERTEX
  5
32E
100
AcDbEntity
  8
_AA_PIEDRA
100
AcDbVertex
100
AcDb2dVertex
 10
105.82428
 20
1230.62149
 30
0.000151
  0
VERTEX
  5
32F
100
AcDbEntity
  8
_AA_PIEDRA
100
AcDbVertex
100
AcDb2dVertex
 10
98.670155
 20
1243.990003
 30
0.000151
  0
SEQEND
  5
330
100
AcDbEntity
  8
_AA_PIEDRA
  0
INSERT
  5
331
100
AcDbEntity
  8
_AA_PERFIL_AL
100
AcDbBlockReference
  2
MALU90OPACO
 10
-143.932666
 20
1141.992566
 30
-0.00006
 50
89.919884
1001
ACAD
1000
RTLwPs
1070
   128
  0
LINE
  5
338
100
AcDbEntity
  8
_AA_VIDRIO
100
AcDbLine
 10
-139.606398
 20
803.194578
 30
0.0
 11
-144.406403
 21
803.194578
 31
0.0
  0
LINE
  5
339
100
AcDbEntity
  8
_AA_VIDRIO
100
AcDbLine
 10
-139.611991
 20
799.194578
 30
0.0
 11
-144.411996
 21
799.194578
 31
0.0
  0
LINE
  5
33A
100
AcDbEntity
  8
_AA_VIDRIO
100
AcDbLine
 10
-139.611991
 20
799.194578
 30
0.0
 11
-139.74828
 21
701.726164
 31
0.0
210
0.0
220
1.0
230
0.0
  0
LINE
  5
33B
100
AcDbEntity
  8
_AA_VIDRIO
100
AcDbLine
 10
-144.548275
 20
701.732876
 30
0.0
 11
-139.74828
 21
701.726164
 31
0.0
  0
INSERT
  5
33C
100
AcDbEntity
  8
_AA_PERFIL_AL
100
AcDbBlockReference
  2
MALU90SEMITRP_OP
 10
-144.409227
 20
801.175076
 30
0.0
 50
89.919884
1001
ACAD
1000
RTLwPs
1070
   128
  0
INSERT
  5
33D
100
AcDbEntity
  8
_AA_PERFIL_AL
100
AcDbBlockReference
  2
MALU90SEMITRP
 10
-144.551099
 20
699.713379
 30
0.0
 50
89.919884
1001
ACAD
1000
RTLwPs
1070
   128
  0
LINE
  5
345
100
AcDbEntity
  8
_AA_VIDRIO
100
AcDbLine
 10
-94.496894
 20
797.371118
 30
0.0
 11
-94.245749
 21
755.850017
 31
0.0
210
0.0
220
1.0
230
0.0
  0
LINE
  5
346
100
AcDbEntity
  8
_AA_VIDRIO
100
AcDbLine
 10
-58.998564
 20
523.66314
 30
0.0
 11
-71.449535
 21
353.783798
 31
0.0
210
0.0
220
1.0
230
0.0
  0
LINE
  5
347
100
AcDbEntity
  8
_AA_VIDRIO
100
AcDbLine
 10
-72.214855
 20
343.341875
 30
0.0
 11
-74.060939
 21
318.154149
 31
0.0
210
0.0
220
1.0
230
0.0
  0
LINE
  5
348
100
AcDbEntity
  8
_AA_VIDRIO
100
AcDbLine
 10
-42.899569
 20
340.20714
 30
0.0
 11
-41.057608
 21
155.868403
 31
0.0
210
0.0
220
1.0
230
0.0
  0
INSERT
  5
349
100
AcDbEntity
  8
_AA_PERFIL_AL
100
AcDbBlockReference
  2
MALU90
 10
-99.275055
 20
801.0418
 30
0.0
 50
90.352372
1001
ACAD
1000
RTLwPs
1070
   128
  0
LINE
  5
34F
100
AcDbEntity
  8
_AA_VIDRIO
100
AcDbLine
 10
-94.496894
 20
797.371118
 30
0.0
 11
-99.2523
 21
797.341872
 31
0.0
  0
INSERT
  5
350
100
AcDbEntity
  8
_AA_PERFIL_AL
100
AcDbBlockReference
  2
MALU90
 10
-98.97915
 20
752.120838
 30
0.0
 50
90.352372
1001
ACAD
1000
RTLwPs
1070
   128
  0
LINE
  5
351
100
AcDbEntity
  8
_AA_VIDRIO
100
AcDbLine
 10
-94.20099
 20
748.450156
 30
0.0
 11
-98.956395
 21
748.42091
 31
0.0
  0
LINE
  5
352
100
AcDbEntity
  8
_AA_VIDRIO
100
AcDbLine
 10
-94.245749
 20
755.850017
 30
0.0
 11
-99.001905
 21
755.820767
 31
0.0
  0
LINE
  5
353
100
AcDbEntity
  8
_AA_VIDRIO
100
AcDbLine
 10
-94.20099
 20
748.450156
 30
0.0
 11
-93.036069
 21
555.857334
 31
0.0
210
0.0
220
1.0
230
0.0
  0
LINE
  5
354
100
AcDbEntity
  8
_AA_VIDRIO
100
AcDbLine
 10
-99.000899
 20
748.420636
 30
0.0
 11
-97.835978
 21
555.827814
 31
0.0
210
0.0
220
1.0
230
0.0
  0
INSERT
  5
355
100
AcDbEntity
  8
_AA_PERFIL_AL
100
AcDbBlockReference
  2
MALU90
 10
-97.769471
 20
552.128155
 30
0.0
 50
90.352372
1001
ACAD
1000
RTLwPs
1070
   128
  0
LINE
  5
356
100
AcDbEntity
  8
_AA_VIDRIO
100
AcDbLine
 10
-92.99131
 20
548.457473
 30
0.0
 11
-97.746716
 21
548.428227
 31
0.0
  0
LINE
  5
357
100
AcDbEntity
  8
_AA_VIDRIO
100
AcDbLine
 10
-93.036069
 20
555.857334
 30
0.0
 11
-97.792226
 21
555.828083
 31
0.0
  0
LINE
  5
358
100
AcDbEntity
  8
_AA_VIDRIO
100
AcDbLine
 10
-97.791219
 20
548.427953
 30
0.0
 11
-97.673971
 21
529.043599
 31
0.0
210
0.0
220
1.0
230
0.0
  0
LINE
  5
359
100
AcDbEntity
  8
_AA_VIDRIO
100
AcDbLine
 10
-92.99131
 20
548.457473
 30
0.0
 11
-92.874061
 21
529.073119
 31
0.0
210
0.0
220
1.0
230
0.0
  0
LINE
  5
35A
100
AcDbEntity
  8
_AA_VIDRIO
100
AcDbLine
 10
-92.874061
 20
529.073119
 30
0.0
 11
-97.673971
 21
529.043599
 31
0.0
  0
INSERT
  5
35B
100
AcDbEntity
  8
_AA_PERFIL_AL
100
AcDbBlockReference
  2
MALU90B
 10
-97.541198
 20
525.344351
 30
0.0
 41
-1.0
 50
90.352358
1001
ACAD
1000
RTLwPs
1070
   128
  0
LINE
  5
363
100
AcDbEntity
  8
_AA_VIDRIO
100
AcDbLine
 10
-102.528683
 20
523.294136
 30
0.0
 11
-97.728774
 21
523.323655
 31
0.0
  0
INSERT
  5
364
100
AcDbEntity
  8
_AA_PERFIL_AL
100
AcDbBlockReference
  2
MALU90SEMITRP
 10
-102.153511
 20
462.289463
 30
0.0
 50
90.352358
1001
ACAD
1000
RTLwPs
1070
   128
  0
LINE
  5
365
100
AcDbEntity
  8
_AA_VIDRIO
100
AcDbLine
 10
-102.165931
 20
464.308924
 30
0.0
 11
-97.366021
 21
464.338443
 31
0.0
  0
LINE
  5
366
100
AcDbEntity
  8
_AA_VIDRIO
100
AcDbLine
 10
-102.528683
 20
523.294136
 30
0.0
 11
-102.165931
 21
464.308924
 31
0.0
  0
LINE
  5
367
100
AcDbEntity
  8
_AA_VIDRIO
100
AcDbLine
 10
-97.366021
 20
464.338443
 30
0.0
 11
-97.728774
 21
523.323655
 31
0.0
  0
LINE
  5
368
100
AcDbEntity
  8
_AA_PERFIL_AC
100
AcDbLine
 10
-120.125698
 20
1146.959276
 30
-0.00006
 11
-100.119612
 21
1146.959276
 31
-0.00006
  0
LINE
  5
369
100
AcDbEntity
  8
_AA_PERFIL_AC
100
AcDbLine
 10
-120.125698
 20
1126.959276
 30
-0.00006
 11
-100.119612
 21
1126.959276
 31
-0.00006
  0
LINE
  5
36A
100
AcDbEntity
  8
_AA_ESTRUCTURA_HR
100
AcDbLine
 10
-93.870171
 20
1010.616506
 30
-0.000001
 11
-93.870171
 21
1146.959276
 31
-0.000001
1001
ACAD
1000
RTLwPs
1070
   128
  0
LINE
  5
36C
100
AcDbEntity
  8
_AA_ESTRUCTURA_HR
100
AcDbLine
 10
-78.870171
 20
1024.616506
 30
0.0
 11
-78.870171
 21
1146.959276
 31
-0.000001
1001
ACAD
1000
RTLwPs
1070
   128
  0
LINE
  5
36D
100
AcDbEntity
  8
_AA_ESTRUCTURA_HR
100
AcDbLine
 10
-93.870171
 20
1146.959276
 30
-0.00006
 11
-78.870171
 21
1146.959276
 31
-0.00006
1001
ACAD
1000
RTLwPs
1070
   128
  0
LINE
  5
36E
100
AcDbEntity
  8
_AA_PROYECCION2
100
AcDbLine
 10
-120.81624
 20
796.14208
 30
0.0
 11
-120.94413
 21
704.680368
 31
0.0
1001
ACAD
1000
RTLwPs
1070
   128
  0
LINE
  5
36F
100
AcDbEntity
  8
_AA_PERFIL_AL
100
AcDbLine
 10
-120.802257
 20
806.14207
 30
0.0
 11
-102.955736
 21
806.019258
 31
0.0
1001
ACAD
1000
RTLwPs
1070
   128
  0
LINE
  5
370
100
AcDbEntity
  8
_AA_PERFIL_AL
100
AcDbLine
 10
-120.81624
 20
796.14208
 30
0.0
 11
-102.894389
 21
796.019446
 31
0.0
1001
ACAD
1000
RTLwPs
1070
   128
  0
INSERT
  5
371
100
AcDbEntity
  8
_AA_PERFIL_AL
100
AcDbBlockReference
  2
MALU90OPACO
 10
-76.384313
 20
352.120567
 30
0.0
 50
85.808114
1001
ACAD
1000
RTLwPs
1070
   128
  0
LINE
  5
372
100
AcDbEntity
  8
_AA_VIDRIO
100
AcDbLine
 10
-77.002014
 20
343.692741
 30
0.0
 11
-72.214855
 21
343.341875
 31
0.0
  0
LINE
  5
373
100
AcDbEntity
  8
_AA_VIDRIO
100
AcDbLine
 10
-76.236694
 20
354.134664
 30
0.0
 11
-71.449534
 21
353.783798
 31
0.0
  0
INSERT
  5
374
100
AcDbEntity
  8
_AA_PERFIL_AL
100
AcDbBlockReference
  2
MALU90SEMITRP
 10
-78.995718
 20
316.490918
 30
0.0
 50
85.808114
1001
ACAD
1000
RTLwPs
1070
   128
  0
LINE
  5
375
100
AcDbEntity
  8
_AA_VIDRIO
100
AcDbLine
 10
-78.848099
 20
318.505014
 30
0.0
 11
-74.060939
 21
318.154149
 31
0.0
  0
LINE
  5
376
100
AcDbEntity
  8
_AA_PROYECCION2
100
AcDbLine
 10
-53.483548
 20
338.98051
 30
0.0
 11
-55.093366
 21
319.752447
 31
0.0
1001
ACAD
1000
RTLwPs
1070
   128
  0
INSERT
  5
377
100
AcDbEntity
  8
_AA_PERFIL_AL
100
AcDbBlockReference
  2
MALU90OPACO
 10
-144.198161
 20
952.120567
 30
0.0
 50
89.919884
1001
ACAD
1000
RTLwPs
1070
   128
  0
LINE
  5
378
100
AcDbEntity
  8
_AA_VIDRIO
100
AcDbLine
 10
-139.395333
 20
950.140064
 30
0.00006
 11
-144.200931
 21
950.140064
 31
0.00006
  0
LINE
  5
379
100
AcDbEntity
  8
_AA_VIDRIO
100
AcDbLine
 10
-139.389813
 20
954.087619
 30
0.00006
 11
-144.195392
 21
954.101059
 31
0.00006
  0
LINE
  5
37A
100
AcDbEntity
  8
_AA_VIDRIO
100
AcDbLine
 10
-139.400926
 20
950.140064
 30
0.0
 11
-139.606398
 21
803.194578
 31
0.0
210
0.0
220
1.0
230
0.0
  0
LINE
  5
37B
100
AcDbEntity
  8
_AA_VIDRIO
100
AcDbLine
 10
-144.200931
 20
950.140064
 30
0.0
 11
-144.406403
 21
803.194578
 31
0.0
210
0.0
220
1.0
230
0.0
  0
INSERT
  5
37C
100
AcDbEntity
  8
_AA_PERFIL_AL
100
AcDbBlockReference
  2
MALU90OPACO
 10
-63.638103
 20
526.028113
 30
0.0
 50
85.808114
1001
ACAD
1000
RTLwPs
1070
   128
  0
LINE
  5
37D
100
AcDbEntity
  8
_AA_VIDRIO
100
AcDbLine
 10
-63.785723
 20
524.014006
 30
0.00006
 11
-58.998564
 21
523.66314
 31
0.00006
  0
LINE
  5
37E
100
AcDbEntity
  8
_AA_PERFIL_AL
100
AcDbLine
 10
-73.972393
 20
530.489393
 30
0.0
 11
-57.488134
 21
530.59077
 31
0.0
1001
ACAD
1000
RTLwPs
1070
   128
  0
LINE
  5
37F
100
AcDbEntity
  8
_AA_PERFIL_AL
100
AcDbLine
 10
-73.910895
 20
520.489582
 30
0.0
 11
-64.039589
 21
520.550289
 31
0.0
1001
ACAD
1000
RTLwPs
1070
   128
  0
LINE
  5
380
100
AcDbEntity
  8
_AA_PROYECCION2
100
AcDbLine
 10
-78.584705
 20
467.434497
 30
0.0
 11
-78.910799
 21
520.458832
 31
0.0
1001
ACAD
1000
RTLwPs
1070
   128
  0
LINE
  5
381
100
AcDbEntity
  8
_AA_PROYECCION2
100
AcDbLine
 10
-51.787543
 20
362.120567
 30
0.0
 11
44.881351
 21
362.120567
 31
0.0
1001
ACAD
1000
RTLwPs
1070
   128
  0
INSERT
  5
382
100
AcDbEntity
  8
_AA_PERFIL_AL
100
AcDbBlockReference
  2
MALU90
 10
-47.724367
 20
343.877536
 30
0.0
 50
90.352372
1001
ACAD
1000
RTLwPs
1070
   128
  0
LINE
  5
383
100
AcDbEntity
  8
_AA_VIDRIO
100
AcDbLine
 10
-42.901703
 20
340.207127
 30
0.0
 11
-47.701612
 21
340.177607
 31
0.0
  0
LINE
  5
384
100
AcDbEntity
  8
_AA_PERFIL_AL
100
AcDbLine
 10
-53.483548
 20
338.98051
 30
0.0
 11
-51.343701
 21
338.855182
 31
0.0
1001
ACAD
1000
RTLwPs
1070
   128
  0
LINE
  5
385
100
AcDbEntity
  8
_AA_PERFIL_AL
100
AcDbLine
 10
-52.752578
 20
348.953758
 30
0.0
 11
-51.405048
 21
348.854994
 31
0.0
1001
ACAD
1000
RTLwPs
1070
   128
  0
LINE
  5
386
100
AcDbEntity
  8
_AA_PROYECCION2
100
AcDbLine
 10
-24.013113
 20
342.120567
 30
0.0
 11
44.881351
 21
342.120567
 31
0.0
1001
ACAD
1000
RTLwPs
1070
   128
  0
LINE
  5
387
100
AcDbEntity
  8
_AA_PROYECCION2
100
AcDbLine
 10
-24.222725
 20
362.120567
 30
0.0
 11
-20.375703
 21
-22.879433
 31
0.0
210
0.0
220
1.0
230
0.0
1001
ACAD
1000
RTLwPs
1070
   128
  0
LINE
  5
388
100
AcDbEntity
  8
_AA_PIEDRA
100
AcDbLine
 10
-750.046407
 20
-7.879433
 30
0.0
 11
1190.383344
 21
-7.879433
 31
0.0
  0
LINE
  5
389
100
AcDbEntity
  8
_AA_PROYECCION2
100
AcDbLine
 10
-4.221726
 20
362.120567
 30
0.0
 11
-0.374704
 21
-22.879433
 31
0.0
210
0.0
220
1.0
230
0.0
1001
ACAD
1000
RTLwPs
1070
   128
  0
POLYLINE
  5
38A
100
AcDbEntity
  8
_AA_ESTRUCTURA_HR
100
AcDb2dPolyline
 66
     1
 10
0.0
 20
0.0
 30
0.0
210
0.000000000018526
220
0.0
230
1.0
  0
VERTEX
  5
38B
100
AcDbEntity
  8
_AA_ESTRUCTURA_HR
100
AcDbVertex
100
AcDb2dVertex
 10
746.427938
 20
-22.879433
 30
0.0
  0
VERTEX
  5
38C
100
AcDbEntity
  8
_AA_ESTRUCTURA_HR
100
AcDbVertex
100
AcDb2dVertex
 10
-14.928342
 20
-22.879433
 30
0.0
  0
VERTEX
  5
38D
100
AcDbEntity
  8
_AA_ESTRUCTURA_HR
100
AcDbVertex
100
AcDb2dVertex
 10
-14.928342
 20
-77.879433
 30
0.0
  0
SEQEND
  5
38E
100
AcDbEntity
  8
_AA_ESTRUCTURA_HR
  0
POLYLINE
  5
38F
100
AcDbEntity
  8
_AA_ESTRUCTURA_HR
100
AcDb2dPolyline
 66
     1
 10
0.0
 20
0.0
 30
0.0
210
0.000000000018526
220
0.0
230
1.0
  0
VERTEX
  5
390
100
AcDbEntity
  8
_AA_ESTRUCTURA_HR
100
AcDbVertex
100
AcDb2dVertex
 10
-14.928342
 20
-77.879433
 30
0.0
  0
VERTEX
  5
391
100
AcDbEntity
  8
_AA_ESTRUCTURA_HR
100
AcDbVertex
100
AcDb2dVertex
 10
746.427939
 20
-77.879433
 30
0.0
  0
SEQEND
  5
392
100
AcDbEntity
  8
_AA_ESTRUCTURA_HR
  0
LINE
  5
393
100
AcDbEntity
  8
_AA_PERFIL_AC
100
AcDbLine
 10
-14.928342
 20
-22.879433
 30
0.0
 11
-20.375703
 21
-22.879433
 31
0.0
  0
INSERT
  5
394
100
AcDbEntity
  8
_AA_PERFIL_AL
100
AcDbBlockReference
  2
MALU90
 10
-45.820398
 20
152.120567
 30
0.0
 50
90.573235
1001
ACAD
1000
RTLwPs
1070
   128
  0
LINE
  5
395
100
AcDbEntity
  8
_AA_VIDRIO
100
AcDbLine
 10
-40.983621
 20
148.468776
 30
0.0
 11
-45.783381
 21
148.420753
 31
0.0
  0
LINE
  5
396
100
AcDbEntity
  8
_AA_VIDRIO
100
AcDbLine
 10
-41.05781
 20
155.868401
 30
0.0
 11
-45.857415
 21
155.82038
 31
0.0
  0
LINE
  5
397
100
AcDbEntity
  8
_AA_VIDRIO
100
AcDbLine
 10
-40.983669
 20
148.468775
 30
0.0
 11
-39.358154
 21
-14.208477
 31
0.0
210
0.0
220
1.0
230
0.0
  0
LINE
  5
398
100
AcDbEntity
  8
_AA_VIDRIO
100
AcDbLine
 10
-45.783428
 20
148.420753
 30
0.0
 11
-44.157914
 21
-14.256499
 31
0.0
210
0.0
220
1.0
230
0.0
  0
INSERT
  5
399
100
AcDbEntity
  8
_AA_PERFIL_AL
100
AcDbBlockReference
  2
MALU90
 10
-43.821945
 20
-47.879433
 30
0.0
 50
90.573235
1001
ACAD
1000
RTLwPs
1070
   128
  0
LINE
  5
39A
100
AcDbEntity
  8
_AA_VIDRIO
100
AcDbLine
 10
-39.059357
 20
-44.131599
 30
0.0
 11
-43.858962
 21
-44.17962
 31
0.0
  0
LINE
  5
39B
100
AcDbEntity
  8
_AA_CARTONYESO
100
AcDbLine
 10
-10.022428
 20
540.489393
 30
0.0
 11
-24.055565
 21
349.023196
 31
0.0
210
0.0
220
1.0
230
0.0
  0
LINE
  5
39C
100
AcDbEntity
  8
_AA_CARTONYESO
100
AcDbLine
 10
-75.606253
 20
806.18746
 30
0.0
 11
94.881351
 21
771.399379
 31
0.0
  0
LINE
  5
39D
100
AcDbEntity
  8
_AA_CARTONYESO
100
AcDbLine
 10
94.881351
 20
771.399379
 30
0.0
 11
94.881351
 21
736.399379
 31
0.0
  0
LINE
  5
39E
100
AcDbEntity
  8
_AA_CARTONYESO
100
AcDbLine
 10
-73.972393
 20
540.489393
 30
0.0
 11
-10.022428
 21
540.489393
 31
0.0
  0
LWPOLYLINE
  5
39F
100
AcDbEntity
  8
_AA_PERFIL_AC
100
AcDbPolyline
 90
        4
 70
   129
 43
0.0
 38
-0.000001
 10
-56.018441
 20
1010.616506
 10
-26.018441
 20
1010.616506
 10
-26.018441
 20
874.616506
 10
-56.018441
 20
874.616506
  0
LINE
  5
3A0
100
AcDbEntity
  8
_AA_ESTRUCTURA_HR
100
AcDbLine
 10
-78.870171
 20
1024.616506
 30
0.0
 11
-28.870171
 21
1024.616506
 31
-0.000001
  0
POLYLINE
  5
3A1
100
AcDbEntity
  8
_AA_ESTRUCTURA_HR
100
AcDb2dPolyline
 66
     1
 10
0.0
 20
0.0
 30
-0.000001
210
0.000000000018529
220
0.0
230
1.0
  0
VERTEX
  5
3A2
100
AcDbEntity
  8
_AA_ESTRUCTURA_HR
100
AcDbVertex
100
AcDb2dVertex
 10
-28.870171
 20
1024.616506
 30
-0.000001
  0
VERTEX
  5
3A3
100
AcDbEntity
  8
_AA_ESTRUCTURA_HR
100
AcDbVertex
100
AcDb2dVertex
 10
-11.528661
 20
1062.785502
 30
-0.000001
  0
VERTEX
  5
3A4
100
AcDbEntity
  8
_AA_ESTRUCTURA_HR
100
AcDbVertex
100
AcDb2dVertex
 10
28.062732
 20
1142.589228
 30
-0.000001
  0
VERTEX
  5
3A5
100
AcDbEntity
  8
_AA_ESTRUCTURA_HR
100
AcDbVertex
100
AcDb2dVertex
 10
47.184209
 20
1178.745866
 30
-0.000001
  0
VERTEX
  5
3A6
100
AcDbEntity
  8
_AA_ESTRUCTURA_HR
100
AcDbVertex
100
AcDb2dVertex
 10
56.655652
 20
1195.45727
 30
-0.000001
  0
VERTEX
  5
3A7
100
AcDbEntity
  8
_AA_ESTRUCTURA_HR
100
AcDbVertex
100
AcDb2dVertex
 10
60.56193
 20
1201.98312
 30
-0.000001
  0
VERTEX
  5
3A8
100
AcDbEntity
  8
_AA_ESTRUCTURA_HR
100
AcDbVertex
100
AcDb2dVertex
 10
64.023099
 20
1207.519435
 30
-0.000001
  0
VERTEX
  5
3A9
100
AcDbEntity
  8
_AA_ESTRUCTURA_HR
100
AcDbVertex
100
AcDb2dVertex
 10
65.342287
 20
1209.548721
 30
-0.000001
  0
VERTEX
  5
3AA
100
AcDbEntity
  8
_AA_ESTRUCTURA_HR
100
AcDbVertex
100
AcDb2dVertex
 10
66.906595
 20
1211.851629
 30
-0.000001
  0
VERTEX
  5
3AB
100
AcDbEntity
  8
_AA_ESTRUCTURA_HR
100
AcDbVertex
100
AcDb2dVertex
 10
67.407412
 20
1212.551349
 30
-0.000001
  0
VERTEX
  5
3AC
100
AcDbEntity
  8
_AA_ESTRUCTURA_HR
100
AcDbVertex
100
AcDb2dVertex
 10
67.92157
 20
1213.241225
 30
-0.000001
  0
VERTEX
  5
3AD
100
AcDbEntity
  8
_AA_ESTRUCTURA_HR
100
AcDbVertex
100
AcDb2dVertex
 10
68.877231
 20
1214.447317
 30
-0.000001
  0
VERTEX
  5
3AE
100
AcDbEntity
  8
_AA_ESTRUCTURA_HR
100
AcDbVertex
100
AcDb2dVertex
 10
77.510785
 20
1224.603664
 30
-0.000001
  0
VERTEX
  5
3AF
100
AcDbEntity
  8
_AA_ESTRUCTURA_HR
100
AcDbVertex
100
AcDb2dVertex
 10
99.171996
 20
1249.317704
 30
-0.000001
  0
VERTEX
  5
3B0
100
AcDbEntity
  8
_AA_ESTRUCTURA_HR
100
AcDbVertex
100
AcDb2dVertex
 10
109.771678
 20
1260.702029
 30
-0.000001
  0
VERTEX
  5
3B1
100
AcDbEntity
  8
_AA_ESTRUCTURA_HR
100
AcDbVertex
100
AcDb2dVertex
 10
114.891573
 20
1265.894159
 30
-0.000001
  0
VERTEX
  5
3B2
100
AcDbEntity
  8
_AA_ESTRUCTURA_HR
100
AcDbVertex
100
AcDb2dVertex
 10
121.13474
 20
1271.870707
 30
-0.000001
  0
VERTEX
  5
3B3
100
AcDbEntity
  8
_AA_ESTRUCTURA_HR
100
AcDbVertex
100
AcDb2dVertex
 10
124.094321
 20
1274.546701
 30
-0.000001
  0
VERTEX
  5
3B4
100
AcDbEntity
  8
_AA_ESTRUCTURA_HR
100
AcDbVertex
100
AcDb2dVertex
 10
126.714267
 20
1276.802927
 30
-0.000001
  0
VERTEX
  5
3B5
100
AcDbEntity
  8
_AA_ESTRUCTURA_HR
100
AcDbVertex
100
AcDb2dVertex
 10
128.197604
 20
1278.013511
 30
-0.000001
  0
VERTEX
  5
3B6
100
AcDbEntity
  8
_AA_ESTRUCTURA_HR
100
AcDbVertex
100
AcDb2dVertex
 10
129.229422
 20
1278.814681
 30
-0.000001
  0
VERTEX
  5
3B7
100
AcDbEntity
  8
_AA_ESTRUCTURA_HR
100
AcDbVertex
100
AcDb2dVertex
 10
129.753969
 20
1279.2037
 30
-0.000001
  0
VERTEX
  5
3B8
100
AcDbEntity
  8
_AA_ESTRUCTURA_HR
100
AcDbVertex
100
AcDb2dVertex
 10
130.285702
 20
1279.582713
 30
-0.000001
  0
VERTEX
  5
3B9
100
AcDbEntity
  8
_AA_ESTRUCTURA_HR
100
AcDbVertex
100
AcDb2dVertex
 10
131.111713
 20
1280.139315
 30
-0.000001
  0
VERTEX
  5
3BA
100
AcDbEntity
  8
_AA_ESTRUCTURA_HR
100
AcDbVertex
100
AcDb2dVertex
 10
131.953123
 20
1280.672632
 30
-0.000001
  0
VERTEX
  5
3BB
100
AcDbEntity
  8
_AA_ESTRUCTURA_HR
100
AcDbVertex
100
AcDb2dVertex
 10
133.013315
 20
1281.30849
 30
-0.000001
  0
VERTEX
  5
3BC
100
AcDbEntity
  8
_AA_ESTRUCTURA_HR
100
AcDbVertex
100
AcDb2dVertex
 10
135.645401
 20
1282.793873
 30
-0.000001
  0
VERTEX
  5
3BD
100
AcDbEntity
  8
_AA_ESTRUCTURA_HR
100
AcDbVertex
100
AcDb2dVertex
 10
163.948761
 20
1298.058614
 30
-0.000001
  0
VERTEX
  5
3BE
100
AcDbEntity
  8
_AA_ESTRUCTURA_HR
100
AcDbVertex
100
AcDb2dVertex
 10
171.859888
 20
1302.175795
 30
-0.000001
  0
VERTEX
  5
3BF
100
AcDbEntity
  8
_AA_ESTRUCTURA_HR
100
AcDbVertex
100
AcDb2dVertex
 10
177.386045
 20
1304.897236
 30
-0.000001
  0
VERTEX
  5
3C0
100
AcDbEntity
  8
_AA_ESTRUCTURA_HR
100
AcDbVertex
100
AcDb2dVertex
 10
182.966905
 20
1307.504603
 30
-0.000001
  0
VERTEX
  5
3C1
100
AcDbEntity
  8
_AA_ESTRUCTURA_HR
100
AcDbVertex
100
AcDb2dVertex
 10
188.320984
 20
1309.861728
 30
-0.000001
  0
VERTEX
  5
3C2
100
AcDbEntity
  8
_AA_ESTRUCTURA_HR
100
AcDbVertex
100
AcDb2dVertex
 10
193.734152
 20
1312.079073
 30
-0.000001
  0
VERTEX
  5
3C3
100
AcDbEntity
  8
_AA_ESTRUCTURA_HR
100
AcDbVertex
100
AcDb2dVertex
 10
198.078187
 20
1313.721564
 30
-0.000001
  0
VERTEX
  5
3C4
100
AcDbEntity
  8
_AA_ESTRUCTURA_HR
100
AcDbVertex
100
AcDb2dVertex
 10
203.078925
 20
1315.452214
 30
-0.000001
  0
VERTEX
  5
3C5
100
AcDbEntity
  8
_AA_ESTRUCTURA_HR
100
AcDbVertex
100
AcDb2dVertex
 10
209.494855
 20
1317.470823
 30
-0.000001
  0
VERTEX
  5
3C6
100
AcDbEntity
  8
_AA_ESTRUCTURA_HR
100
AcDbVertex
100
AcDb2dVertex
 10
215.957181
 20
1319.337754
 30
-0.000001
  0
VERTEX
  5
3C7
100
AcDbEntity
  8
_AA_ESTRUCTURA_HR
100
AcDbVertex
100
AcDb2dVertex
 10
240.190135
 20
1325.637686
 30
-0.000001
  0
VERTEX
  5
3C8
100
AcDbEntity
  8
_AA_ESTRUCTURA_HR
100
AcDbVertex
100
AcDb2dVertex
 10
253.634152
 20
1328.872698
 30
-0.000001
  0
VERTEX
  5
3C9
100
AcDbEntity
  8
_AA_ESTRUCTURA_HR
100
AcDbVertex
100
AcDb2dVertex
 10
267.985552
 20
1332.028213
 30
-0.000001
  0
VERTEX
  5
3CA
100
AcDbEntity
  8
_AA_ESTRUCTURA_HR
100
AcDbVertex
100
AcDb2dVertex
 10
278.313862
 20
1333.998429
 30
-0.000001
  0
VERTEX
  5
3CB
100
AcDbEntity
  8
_AA_ESTRUCTURA_HR
100
AcDbVertex
100
AcDb2dVertex
 10
284.216049
 20
1334.968961
 30
-0.000001
  0
VERTEX
  5
3CC
100
AcDbEntity
  8
_AA_ESTRUCTURA_HR
100
AcDbVertex
100
AcDb2dVertex
 10
291.263076
 20
1335.934656
 30
-0.000001
  0
VERTEX
  5
3CD
100
AcDbEntity
  8
_AA_ESTRUCTURA_HR
100
AcDbVertex
100
AcDb2dVertex
 10
294.665123
 20
1336.308019
 30
-0.000001
  0
VERTEX
  5
3CE
100
AcDbEntity
  8
_AA_ESTRUCTURA_HR
100
AcDbVertex
100
AcDb2dVertex
 10
298.074381
 20
1336.607072
 30
-0.000001
  0
VERTEX
  5
3CF
100
AcDbEntity
  8
_AA_ESTRUCTURA_HR
100
AcDbVertex
100
AcDb2dVertex
 10
301.931444
 20
1336.841608
 30
-0.000001
  0
VERTEX
  5
3D0
100
AcDbEntity
  8
_AA_ESTRUCTURA_HR
100
AcDbVertex
100
AcDb2dVertex
 10
305.023362
 20
1336.947716
 30
-0.000001
  0
VERTEX
  5
3D1
100
AcDbEntity
  8
_AA_ESTRUCTURA_HR
100
AcDbVertex
100
AcDb2dVertex
 10
308.116894
 20
1336.985091
 30
-0.000001
  0
VERTEX
  5
3D2
100
AcDbEntity
  8
_AA_ESTRUCTURA_HR
100
AcDbVertex
100
AcDb2dVertex
 10
312.742571
 20
1336.923637
 30
-0.000001
  0
VERTEX
  5
3D3
100
AcDbEntity
  8
_AA_ESTRUCTURA_HR
100
AcDbVertex
100
AcDb2dVertex
 10
317.364984
 20
1336.735667
 30
-0.000001
  0
VERTEX
  5
3D4
100
AcDbEntity
  8
_AA_ESTRUCTURA_HR
100
AcDbVertex
100
AcDb2dVertex
 10
324.131131
 20
1336.262769
 30
-0.000001
  0
VERTEX
  5
3D5
100
AcDbEntity
  8
_AA_ESTRUCTURA_HR
100
AcDbVertex
100
AcDb2dVertex
 10
330.881109
 20
1335.592822
 30
-0.000001
  0
VERTEX
  5
3D6
100
AcDbEntity
  8
_AA_ESTRUCTURA_HR
100
AcDbVertex
100
AcDb2dVertex
 10
341.508568
 20
1334.220335
 30
-0.000001
  0
VERTEX
  5
3D7
100
AcDbEntity
  8
_AA_ESTRUCTURA_HR
100
AcDbVertex
100
AcDb2dVertex
 10
355.716976
 20
1331.908806
 30
-0.000001
  0
VERTEX
  5
3D8
100
AcDbEntity
  8
_AA_ESTRUCTURA_HR
100
AcDbVertex
100
AcDb2dVertex
 10
373.599952
 20
1328.438523
 30
-0.000001
  0
VERTEX
  5
3D9
100
AcDbEntity
  8
_AA_ESTRUCTURA_HR
100
AcDbVertex
100
AcDb2dVertex
 10
392.525885
 20
1324.242317
 30
-0.000001
  0
VERTEX
  5
3DA
100
AcDbEntity
  8
_AA_ESTRUCTURA_HR
100
AcDbVertex
100
AcDb2dVertex
 10
426.391552
 20
1315.630538
 30
-0.000001
  0
VERTEX
  5
3DB
100
AcDbEntity
  8
_AA_ESTRUCTURA_HR
100
AcDbVertex
100
AcDb2dVertex
 10
444.053687
 20
1310.693349
 30
-0.000001
  0
VERTEX
  5
3DC
100
AcDbEntity
  8
_AA_ESTRUCTURA_HR
100
AcDbVertex
100
AcDb2dVertex
 10
472.349617
 20
1302.167669
 30
-0.000001
  0
VERTEX
  5
3DD
100
AcDbEntity
  8
_AA_ESTRUCTURA_HR
100
AcDbVertex
100
AcDb2dVertex
 10
523.028497
 20
1285.10624
 30
-0.000001
  0
VERTEX
  5
3DE
100
AcDbEntity
  8
_AA_ESTRUCTURA_HR
100
AcDbVertex
100
AcDb2dVertex
 10
644.475586
 20
1242.171524
 30
-0.000001
  0
VERTEX
  5
3DF
100
AcDbEntity
  8
_AA_ESTRUCTURA_HR
100
AcDbVertex
100
AcDb2dVertex
 10
681.162381
 20
1230.280722
 30
-0.000001
  0
VERTEX
  5
3E0
100
AcDbEntity
  8
_AA_ESTRUCTURA_HR
100
AcDbVertex
100
AcDb2dVertex
 10
723.763607
 20
1217.323727
 30
-0.000001
  0
VERTEX
  5
3E1
100
AcDbEntity
  8
_AA_ESTRUCTURA_HR
100
AcDbVertex
100
AcDb2dVertex
 10
746.427939
 20
1210.909948
 30
-0.000001
  0
SEQEND
  5
3E2
100
AcDbEntity
  8
_AA_ESTRUCTURA_HR
  0
LINE
  5
3E3
100
AcDbEntity
  8
_AA_PERFIL_AC
100
AcDbLine
 10
-93.870171
 20
1010.616506
 30
0.0
 11
-21.112945
 21
1010.616506
 31
-0.000001
  0
POLYLINE
  5
3E4
100
AcDbEntity
  8
_AA_PERFIL_AC
100
AcDb2dPolyline
 66
     1
 10
0.0
 20
0.0
 30
-0.000001
210
0.0000000000185368
220
0.0
230
1.0
  0
VERTEX
  5
3E5
100
AcDbEntity
  8
_AA_PERFIL_AC
100
AcDbVertex
100
AcDb2dVertex
 10
-21.112945
 20
1010.616506
 30
-0.000001
  0
VERTEX
  5
3E6
100
AcDbEntity
  8
_AA_PERFIL_AC
100
AcDbVertex
100
AcDb2dVertex
 10
6.180055
 20
1070.487367
 30
-0.000001
  0
VERTEX
  5
3E7
100
AcDbEntity
  8
_AA_PERFIL_AC
100
AcDbVertex
100
AcDb2dVertex
 10
49.375774
 20
1156.299337
 30
-0.000001
  0
VERTEX
  5
3E8
100
AcDbEntity
  8
_AA_PERFIL_AC
100
AcDbVertex
100
AcDb2dVertex
 10
59.013311
 20
1174.156452
 30
-0.000001
  0
VERTEX
  5
3E9
100
AcDbEntity
  8
_AA_PERFIL_AC
100
AcDbVertex
100
AcDb2dVertex
 10
67.859686
 20
1189.57914
 30
-0.000001
  0
VERTEX
  5
3EA
100
AcDbEntity
  8
_AA_PERFIL_AC
100
AcDbVertex
100
AcDb2dVertex
 10
71.788934
 20
1196.012325
 30
-0.000001
  0
VERTEX
  5
3EB
100
AcDbEntity
  8
_AA_PERFIL_AC
100
AcDbVertex
100
AcDb2dVertex
 10
73.856011
 20
1199.219663
 30
-0.000001
  0
VERTEX
  5
3EC
100
AcDbEntity
  8
_AA_PERFIL_AC
100
AcDbVertex
100
AcDb2dVertex
 10
74.493355
 20
1200.139813
 30
-0.000001
  0
VERTEX
  5
3ED
100
AcDbEntity
  8
_AA_PERFIL_AC
100
AcDbVertex
100
AcDb2dVertex
 10
74.788296
 20
1200.543401
 30
-0.000001
  0
VERTEX
  5
3EE
100
AcDbEntity
  8
_AA_PERFIL_AC
100
AcDbVertex
100
AcDb2dVertex
 10
75.090326
 20
1200.941732
 30
-0.000001
  0
VERTEX
  5
3EF
100
AcDbEntity
  8
_AA_PERFIL_AC
100
AcDbVertex
100
AcDb2dVertex
 10
76.047871
 20
1202.133479
 30
-0.000001
  0
VERTEX
  5
3F0
100
AcDbEntity
  8
_AA_PERFIL_AC
100
AcDbVertex
100
AcDb2dVertex
 10
91.012901
 20
1219.92703
 30
-0.000001
  0
VERTEX
  5
3F1
100
AcDbEntity
  8
_AA_PERFIL_AC
100
AcDbVertex
100
AcDb2dVertex
 10
108.878747
 20
1240.42652
 30
-0.000001
  0
VERTEX
  5
3F2
100
AcDbEntity
  8
_AA_PERFIL_AC
100
AcDbVertex
100
AcDb2dVertex
 10
116.536525
 20
1248.720981
 30
-0.000001
  0
VERTEX
  5
3F3
100
AcDbEntity
  8
_AA_PERFIL_AC
100
AcDbVertex
100
AcDb2dVertex
 10
120.843866
 20
1253.174567
 30
-0.000001
  0
VERTEX
  5
3F4
100
AcDbEntity
  8
_AA_PERFIL_AC
100
AcDbVertex
100
AcDb2dVertex
 10
125.233331
 20
1257.547279
 30
-0.000001
  0
VERTEX
  5
3F5
100
AcDbEntity
  8
_AA_PERFIL_AC
100
AcDbVertex
100
AcDb2dVertex
 10
131.506239
 20
1263.486375
 30
-0.000001
  0
VERTEX
  5
3F6
100
AcDbEntity
  8
_AA_PERFIL_AC
100
AcDbVertex
100
AcDb2dVertex
 10
133.304852
 20
1265.101131
 30
-0.000001
  0
VERTEX
  5
3F7
100
AcDbEntity
  8
_AA_PERFIL_AC
100
AcDbVertex
100
AcDb2dVertex
 10
135.135221
 20
1266.679698
 30
-0.000001
  0
VERTEX
  5
3F8
100
AcDbEntity
  8
_AA_PERFIL_AC
100
AcDbVertex
100
AcDb2dVertex
 10
136.056722
 20
1267.441373
 30
-0.000001
  0
VERTEX
  5
3F9
100
AcDbEntity
  8
_AA_PERFIL_AC
100
AcDbVertex
100
AcDb2dVertex
 10
136.997693
 20
1268.178618
 30
-0.000001
  0
VERTEX
  5
3FA
100
AcDbEntity
  8
_AA_PERFIL_AC
100
AcDbVertex
100
AcDb2dVertex
 10
137.456975
 20
1268.517897
 30
-0.000001
  0
VERTEX
  5
3FB
100
AcDbEntity
  8
_AA_PERFIL_AC
100
AcDbVertex
100
AcDb2dVertex
 10
137.925638
 20
1268.843919
 30
-0.000001
  0
VERTEX
  5
3FC
100
AcDbEntity
  8
_AA_PERFIL_AC
100
AcDbVertex
100
AcDb2dVertex
 10
138.310936
 20
1269.094437
 30
-0.000001
  0
VERTEX
  5
3FD
100
AcDbEntity
  8
_AA_PERFIL_AC
100
AcDbVertex
100
AcDb2dVertex
 10
138.701556
 20
1269.33677
 30
-0.000001
  0
VERTEX
  5
3FE
100
AcDbEntity
  8
_AA_PERFIL_AC
100
AcDbVertex
100
AcDb2dVertex
 10
140.358972
 20
1270.304354
 30
-0.000001
  0
VERTEX
  5
3FF
100
AcDbEntity
  8
_AA_PERFIL_AC
100
AcDbVertex
100
AcDb2dVertex
 10
144.91198
 20
1272.767022
 30
-0.000001
  0
VERTEX
  5
400
100
AcDbEntity
  8
_AA_PERFIL_AC
100
AcDbVertex
100
AcDb2dVertex
 10
176.858438
 20
1289.533161
 30
-0.000001
  0
VERTEX
  5
401
100
AcDbEntity
  8
_AA_PERFIL_AC
100
AcDbVertex
100
AcDb2dVertex
 10
181.831457
 20
1291.971856
 30
-0.000001
  0
VERTEX
  5
402
100
AcDbEntity
  8
_AA_PERFIL_AC
100
AcDbVertex
100
AcDb2dVertex
 10
189.606808
 20
1295.542505
 30
-0.000001
  0
VERTEX
  5
403
100
AcDbEntity
  8
_AA_PERFIL_AC
100
AcDbVertex
100
AcDb2dVertex
 10
193.041944
 20
1297.01399
 30
-0.000001
  0
VERTEX
  5
404
100
AcDbEntity
  8
_AA_PERFIL_AC
100
AcDbVertex
100
AcDb2dVertex
 10
196.503868
 20
1298.421198
 30
-0.000001
  0
VERTEX
  5
405
100
AcDbEntity
  8
_AA_PERFIL_AC
100
AcDbVertex
100
AcDb2dVertex
 10
199.857402
 20
1299.706329
 30
-0.000001
  0
VERTEX
  5
406
100
AcDbEntity
  8
_AA_PERFIL_AC
100
AcDbVertex
100
AcDb2dVertex
 10
203.356839
 20
1300.968085
 30
-0.000001
  0
VERTEX
  5
407
100
AcDbEntity
  8
_AA_PERFIL_AC
100
AcDbVertex
100
AcDb2dVertex
 10
206.880094
 20
1302.161784
 30
-0.000001
  0
VERTEX
  5
408
100
AcDbEntity
  8
_AA_PERFIL_AC
100
AcDbVertex
100
AcDb2dVertex
 10
210.925363
 20
1303.444206
 30
-0.000001
  0
VERTEX
  5
409
100
AcDbEntity
  8
_AA_PERFIL_AC
100
AcDbVertex
100
AcDb2dVertex
 10
215.907289
 20
1304.912348
 30
-0.000001
  0
VERTEX
  5
40A
100
AcDbEntity
  8
_AA_PERFIL_AC
100
AcDbVertex
100
AcDb2dVertex
 10
235.111502
 20
1310.021691
 30
-0.000001
  0
VERTEX
  5
40B
100
AcDbEntity
  8
_AA_PERFIL_AC
100
AcDbVertex
100
AcDb2dVertex
 10
255.345171
 20
1315.003667
 30
-0.000001
  0
VERTEX
  5
40C
100
AcDbEntity
  8
_AA_PERFIL_AC
100
AcDbVertex
100
AcDb2dVertex
 10
269.147623
 20
1318.084088
 30
-0.000001
  0
VERTEX
  5
40D
100
AcDbEntity
  8
_AA_PERFIL_AC
100
AcDbVertex
100
AcDb2dVertex
 10
275.992418
 20
1319.448798
 30
-0.000001
  0
VERTEX
  5
40E
100
AcDbEntity
  8
_AA_PERFIL_AC
100
AcDbVertex
100
AcDb2dVertex
 10
282.633204
 20
1320.627801
 30
-0.000001
  0
VERTEX
  5
40F
100
AcDbEntity
  8
_AA_PERFIL_AC
100
AcDbVertex
100
AcDb2dVertex
 10
287.451049
 20
1321.373361
 30
-0.000001
  0
VERTEX
  5
410
100
AcDbEntity
  8
_AA_PERFIL_AC
100
AcDbVertex
100
AcDb2dVertex
 10
292.28496
 20
1322.004884
 30
-0.000001
  0
VERTEX
  5
411
100
AcDbEntity
  8
_AA_PERFIL_AC
100
AcDbVertex
100
AcDb2dVertex
 10
294.030773
 20
1322.199661
 30
-0.000001
  0
VERTEX
  5
412
100
AcDbEntity
  8
_AA_PERFIL_AC
100
AcDbVertex
100
AcDb2dVertex
 10
297.72424
 20
1322.541905
 30
-0.000001
  0
VERTEX
  5
413
100
AcDbEntity
  8
_AA_PERFIL_AC
100
AcDbVertex
100
AcDb2dVertex
 10
301.263081
 20
1322.763589
 30
-0.000001
  0
VERTEX
  5
414
100
AcDbEntity
  8
_AA_PERFIL_AC
100
AcDbVertex
100
AcDb2dVertex
 10
304.806979
 20
1322.881103
 30
-0.000001
  0
VERTEX
  5
415
100
AcDbEntity
  8
_AA_PERFIL_AC
100
AcDbVertex
100
AcDb2dVertex
 10
308.586067
 20
1322.89796
 30
-0.000001
  0
VERTEX
  5
416
100
AcDbEntity
  8
_AA_PERFIL_AC
100
AcDbVertex
100
AcDb2dVertex
 10
312.364385
 20
1322.813779
 30
-0.000001
  0
VERTEX
  5
417
100
AcDbEntity
  8
_AA_PERFIL_AC
100
AcDbVertex
100
AcDb2dVertex
 10
316.551744
 20
1322.616272
 30
-0.000001
  0
VERTEX
  5
418
100
AcDbEntity
  8
_AA_PERFIL_AC
100
AcDbVertex
100
AcDb2dVertex
 10
320.733562
 20
1322.322614
 30
-0.000001
  0
VERTEX
  5
419
100
AcDbEntity
  8
_AA_PERFIL_AC
100
AcDbVertex
100
AcDb2dVertex
 10
328.614009
 20
1321.550184
 30
-0.000001
  0
VERTEX
  5
41A
100
AcDbEntity
  8
_AA_PERFIL_AC
100
AcDbVertex
100
AcDb2dVertex
 10
333.562203
 20
1320.944696
 30
-0.000001
  0
VERTEX
  5
41B
100
AcDbEntity
  8
_AA_PERFIL_AC
100
AcDbVertex
100
AcDb2dVertex
 10
340.388336
 20
1319.985183
 30
-0.000001
  0
VERTEX
  5
41C
100
AcDbEntity
  8
_AA_PERFIL_AC
100
AcDbVertex
100
AcDb2dVertex
 10
348.897579
 20
1318.618326
 30
-0.000001
  0
VERTEX
  5
41D
100
AcDbEntity
  8
_AA_PERFIL_AC
100
AcDbVertex
100
AcDb2dVertex
 10
357.381481
 20
1317.100403
 30
-0.000001
  0
VERTEX
  5
41E
100
AcDbEntity
  8
_AA_PERFIL_AC
100
AcDbVertex
100
AcDb2dVertex
 10
378.378539
 20
1312.827584
 30
-0.000001
  0
VERTEX
  5
41F
100
AcDbEntity
  8
_AA_PERFIL_AC
100
AcDbVertex
100
AcDb2dVertex
 10
399.849092
 20
1307.781064
 30
-0.000001
  0
VERTEX
  5
420
100
AcDbEntity
  8
_AA_PERFIL_AC
100
AcDbVertex
100
AcDb2dVertex
 10
415.086275
 20
1303.841799
 30
-0.000001
  0
VERTEX
  5
421
100
AcDbEntity
  8
_AA_PERFIL_AC
100
AcDbVertex
100
AcDb2dVertex
 10
448.305312
 20
1294.484267
 30
-0.000001
  0
VERTEX
  5
422
100
AcDbEntity
  8
_AA_PERFIL_AC
100
AcDbVertex
100
AcDb2dVertex
 10
483.932434
 20
1283.298228
 30
-0.000001
  0
VERTEX
  5
423
100
AcDbEntity
  8
_AA_PERFIL_AC
100
AcDbVertex
100
AcDb2dVertex
 10
649.596533
 20
1225.298149
 30
-0.000001
  0
VERTEX
  5
424
100
AcDbEntity
  8
_AA_PERFIL_AC
100
AcDbVertex
100
AcDb2dVertex
 10
725.218115
 20
1201.915035
 30
-0.000001
  0
VERTEX
  5
425
100
AcDbEntity
  8
_AA_PERFIL_AC
100
AcDbVertex
100
AcDb2dVertex
 10
746.427939
 20
1196.007759
 30
-0.000001
  0
SEQEND
  5
426
100
AcDbEntity
  8
_AA_PERFIL_AC
  0
LWPOLYLINE
  5
427
100
AcDbEntity
  8
_AA_PERFIL_AC
100
AcDbPolyline
 90
        4
 70
   129
 43
0.0
 38
0.0
 10
44.881351
 20
1011.370784
 10
74.881351
 20
1011.370784
 10
74.493355
 20
1200.139813
 10
44.881351
 20
1147.370784
  0
INSERT
  5
428
100
AcDbEntity
  8
_AA_PERFIL_AL
100
AcDbBlockReference
  2
MALU90
 10
-44.120742
 20
-17.956311
 30
0.0
 50
90.573235
1001
ACAD
1000
RTLwPs
1070
   128
  0
LINE
  5
429
100
AcDbEntity
  8
_AA_PROYECCION2
100
AcDbLine
 10
-20.371905
 20
-22.718951
 30
0.0
 11
-20.173154
 21
-42.642574
 31
0.0
1001
ACAD
1000
RTLwPs
1070
   128
  0
LINE
  5
42A
100
AcDbEntity
  8
_AA_VIDRIO
100
AcDbLine
 10
-39.283965
 20
-21.608102
 30
0.0
 11
-44.083725
 21
-21.656124
 31
0.0
  0
LINE
  5
42B
100
AcDbEntity
  8
_AA_VIDRIO
100
AcDbLine
 10
-39.358154
 20
-14.208477
 30
0.0
 11
-44.157759
 21
-14.256498
 31
0.0
  0
LINE
  5
42C
100
AcDbEntity
  8
_AA_VIDRIO
100
AcDbLine
 10
-39.284215
 20
-21.608104
 30
0.0
 11
-39.059155
 21
-44.131597
 31
0.0
210
0.0
220
1.0
230
0.0
  0
LINE
  5
42D
100
AcDbEntity
  8
_AA_VIDRIO
100
AcDbLine
 10
-44.083975
 20
-21.656127
 30
0.0
 11
-43.858914
 21
-44.179619
 31
0.0
210
0.0
220
1.0
230
0.0
  0
LINE
  5
42E
100
AcDbEntity
  8
_AA_PROYECCION4
  6
DOT2
 48
0.01
100
AcDbLine
 10
-56.018441
 20
1002.486642
 30
-0.000001
 11
-26.018441
 21
1002.486642
 31
-0.000001
1001
ACAD
1000
RTLwPs
1070
   128
  0
LINE
  5
431
100
AcDbEntity
  8
_AA_PROYECCION4
  6
DOT2
 48
0.01
100
AcDbLine
 10
-56.018441
 20
982.486642
 30
-0.000001
 11
-26.018441
 21
982.486642
 31
-0.000001
1001
ACAD
1000
RTLwPs
1070
   128
  0
LWPOLYLINE
  5
432
100
AcDbEntity
  8
_AA_PERFIL_AC
100
AcDbPolyline
 90
        5
 70
   128
 43
0.0
 38
-0.00006
 10
-120.125698
 20
1126.959276
 10
-120.125698
 20
1146.959276
 10
-100.119612
 20
1146.959276
 10
-100.119612
 20
1126.959276
 10
-120.125698
 20
1126.959276
  0
LWPOLYLINE
  5
433
100
AcDbEntity
  8
_AA_PERFIL_AC
100
AcDbPolyline
 90
        5
 70
   128
 43
0.0
 38
-0.000001
 10
-120.7224
 20
1002.486642
 10
-120.762457
 20
982.486642
 10
-100.220411
 20
982.486642
 10
-100.220411
 20
1002.560993
 10
-120.7224
 20
1002.486642
  0
LWPOLYLINE
  5
434
100
AcDbEntity
  8
_AA_PERFIL_AC
100
AcDbPolyline
 90
        5
 70
   128
 43
0.0
 38
0.0
 10
24.881351
 20
1002.486642
 10
44.881351
 20
1002.486642
 10
44.881351
 20
982.486642
 10
25.066723
 20
982.486642
 10
24.881351
 20
1002.486642
  0
LWPOLYLINE
  5
435
100
AcDbEntity
  8
_AA_PERFIL_AC
100
AcDbPolyline
 90
        5
 70
   128
 43
0.0
 10
-75.217951
 20
742.120567
 10
-75.338839
 20
762.120567
 10
-55.338474
 20
762.120567
 10
-55.217586
 20
742.120567
 10
-75.217951
 20
742.120567
  0
LWPOLYLINE
  5
436
100
AcDbEntity
  8
_AA_PERFIL_AC
100
AcDbPolyline
 90
        5
 70
   128
 43
0.0
 38
-0.000001
 10
-76.52043
 20
1002.486642
 10
-76.560487
 20
982.486642
 10
-56.018441
 20
982.486642
 10
-56.018441
 20
1002.560993
 10
-76.52043
 20
1002.486642
  0
LWPOLYLINE
  5
437
100
AcDbEntity
  8
_AA_PERFIL_AC
100
AcDbPolyline
 90
        5
 70
   128
 43
0.0
 10
24.880986
 20
742.120567
 10
24.760098
 20
762.120567
 10
44.760464
 20
762.120567
 10
44.881351
 20
742.120567
 10
24.880986
 20
742.120567
  0
LWPOLYLINE
  5
438
100
AcDbEntity
  8
_AA_PERFIL_AC
100
AcDbPolyline
 90
        5
 70
   128
 43
0.0
 10
24.880986
 20
342.120567
 10
24.760098
 20
362.120567
 10
44.760464
 20
362.120567
 10
44.881351
 20
342.120567
 10
24.880986
 20
342.120567
  0
LWPOLYLINE
  5
439
100
AcDbEntity
  8
_AA_PERFIL_AC
100
AcDbPolyline
 90
        5
 70
   128
 43
0.0
 10
-24.043172
 20
342.120567
 10
-24.16406
 20
362.120567
 10
-4.163695
 20
362.120567
 10
-4.042807
 20
342.120567
 10
-24.043172
 20
342.120567
  0
LWPOLYLINE
  5
43A
100
AcDbEntity
  8
_AA_PERFIL_AC
100
AcDbPolyline
 90
        5
 70
   128
 43
0.0
 10
-23.872073
 20
742.120567
 10
-22.470333
 20
762.120567
 10
-2.416686
 20
762.120567
 10
-3.871708
 20
742.120567
 10
-23.872073
 20
742.120567
  0
LINE
  5
7E2
100
AcDbEntity
  8
EP
100
AcDbLine
 10
59.881351
 20
-22.879433
 30
0.0
 11
59.881351
 21
1079.370784
 31
0.0
  0
LINE
  5
7E3
100
AcDbEntity
  8
_AA_EJES
  6
DASHDOT
100
AcDbLine
 10
2181.953164
 20
1828.853575
 30
0.0
 11
5164.516636
 21
1828.853575
 31
0.0
  0
LINE
  5
7E4
100
AcDbEntity
  8
_AA_EJES
  6
DASHDOT
100
AcDbLine
 10
2181.953164
 20
1428.853575
 30
0.0
 11
5164.516636
 21
1428.853575
 31
0.0
  0
LINE
  5
7E5
100
AcDbEntity
  8
_AA_EJES
  6
DASHDOT
100
AcDbLine
 10
2181.953164
 20
1028.853575
 30
0.0
 11
5164.516636
 21
1028.853575
 31
0.0
  0
LINE
  5
7E6
100
AcDbEntity
  8
_AA_EJES
  6
DASHDOT
100
AcDbLine
 10
2181.953164
 20
628.853575
 30
0.0
 11
5164.516636
 21
628.853575
 31
0.0
  0
LINE
  5
7E7
100
AcDbEntity
  8
_AA_EJES
  6
DASHDOT
100
AcDbLine
 10
2161.955164
 20
668.853575
 30
0.0
 11
5144.518636
 21
668.853575
 31
0.0
  0
POLYLINE
  5
7ED
100
AcDbEntity
  8
_AA_PIEDRA
100
AcDb2dPolyline
 66
     1
 10
0.0
 20
0.0
 30
0.000166
210
-0.0000000158086069
220
0.0000007520987885
230
0.9999999999997172
1001
ACAD
1000
RTLwPs
1070
   128
  0
VERTEX
  5
7EE
100
AcDbEntity
  8
_AA_PIEDRA
100
AcDbVertex
100
AcDb2dVertex
 10
715.271564
 20
231.496085
 30
0.000166
  0
VERTEX
  5
7EF
100
AcDbEntity
  8
_AA_PIEDRA
100
AcDbVertex
100
AcDb2dVertex
 10
129.757035
 20
219.182806
 30
0.000166
  0
SEQEND
  5
7F0
100
AcDbEntity
  8
_AA_PIEDRA
  0
LINE
  5
7FF
100
AcDbEntity
  8
SEC-FS-VIGAS_CAJON
100
AcDbLine
 10
3011.959602
 20
1864.931017
 30
0.0
 11
3011.959602
 21
1726.917561
 31
0.0
210
-0.0000000000000175
220
1.0
230
0.0
1001
ACAD
1000
RTLwPs
1070
   128
  0
LINE
  5
800
100
AcDbEntity
  8
SEC-FS-VIGAS_CAJON
100
AcDbLine
 10
2958.921982
 20
1861.852465
 30
0.0
 11
2958.921982
 21
1728.229539
 31
0.0
210
-0.0000000000000175
220
1.0
230
0.0
1001
ACAD
1000
RTLwPs
1070
   128
  0
LINE
  5
806
100
AcDbEntity
  8
SEC-FS-VIGAS_CAJON
100
AcDbLine
 10
3011.959602
 20
1726.917561
 30
0.0
 11
2958.921982
 21
1728.229539
 31
0.0
210
-0.0000000000000175
220
1.0
230
0.0
1001
ACAD
1000
RTLwPs
1070
   128
  0
LINE
  5
807
100
AcDbEntity
  8
_AA_EJES
100
AcDbLine
 10
2882.119977
 20
1828.853575
 30
0.0
 11
2882.119977
 21
1028.853575
 31
0.0
  0
LINE
  5
808
100
AcDbEntity
  8
_AA_EJES
100
AcDbLine
 10
2857.119977
 20
1828.853575
 30
0.0
 11
2857.119977
 21
668.853575
 31
0.0
  0
LINE
  5
809
100
AcDbEntity
  8
_AA_EJES
100
AcDbLine
 10
2756.999719
 20
1828.853575
 30
0.0
 11
2756.999719
 21
668.853575
 31
0.0
  0
LINE
  5
80D
100
AcDbEntity
  8
_AA_EJES
100
AcDbLine
 10
2882.119977
 20
1264.098138
 30
0.0
 11
2882.119977
 21
668.853575
 31
0.0
  0
LINE
  5
8E0
100
AcDbEntity
  8
ESI
100
AcDbLine
 10
34.875898
 20
-22.879433
 30
0.0
 11
34.875898
 21
1079.370784
 31
0.0
  0
LINE
  5
8E1
100
AcDbEntity
  8
MVB
100
AcDbLine
 10
34.875898
 20
1079.370784
 30
0.0
 11
59.881351
 21
1079.370784
 31
0.0
1001
ACAD
1000
RTLwPs
1070
   128
  0
INSERT
  5
8E2
100
AcDbEntity
  8
EP
100
AcDbBlockReference
  2
VB2
 10
59.881351
 20
1079.370784
 30
0.0
  0
LINE
  5
8E3
100
AcDbEntity
  8
MEP
100
AcDbLine
 10
34.875898
 20
752.120567
 30
0.0
 11
59.881351
 21
752.120567
 31
0.0
  0
INSERT
  5
8E4
100
AcDbEntity
  8
EP
100
AcDbBlockReference
  2
VIGATPRIM
 10
59.881351
 20
752.120567
 30
0.0
  0
LINE
  5
8E6
100
AcDbEntity
  8
ESM
100
AcDbLine
 10
-64.816574
 20
752.120567
 30
0.0
 11
34.875898
 21
752.120567
 31
0.0
1001
ACAD
1000
RTLwPs
1070
   128
  0
LINE
  5
8E8
100
AcDbEntity
  8
ESE
100
AcDbLine
 10
-110.122655
 20
1136.959276
 30
0.0
 11
-110.795372
 21
801.078814
 31
-0.000001
1001
ACAD
1000
RTLwPs
1070
   128
  0
LINE
  5
8EA
100
AcDbEntity
  8
ESM
100
AcDbLine
 10
-110.412012
 20
992.486642
 30
-0.000001
 11
-66.269436
 21
992.486642
 31
-0.000001
1001
ACAD
1000
RTLwPs
1070
   128
  0
LINE
  5
8EC
100
AcDbEntity
  8
ESE
100
AcDbLine
 10
-66.269436
 20
992.486642
 30
-0.000001
 11
-63.45486
 21
526.834323
 31
-0.000001
1001
ACAD
1000
RTLwPs
1070
   128
  0
LINE
  5
8EE
100
AcDbEntity
  8
MVB
100
AcDbLine
 10
-65.968002
 20
942.616506
 30
-0.000001
 11
-41.018441
 21
942.616506
 31
-0.000001
1001
ACAD
1000
RTLwPs
1070
   128
  0
INSERT
  5
8EF
100
AcDbEntity
  8
EP
100
AcDbBlockReference
  2
VB
 10
-41.018441
 20
942.616506
 30
-0.000001
  0
LINE
  5
8F1
100
AcDbEntity
  8
ESE
100
AcDbLine
 10
-110.795372
 20
801.078814
 30
-0.000001
 11
-65.111986
 21
800.994459
 31
0.0
  0
LINE
  5
8F3
100
AcDbEntity
  8
ESE
100
AcDbLine
 10
-13.17102
 20
752.120567
 30
0.0
 11
-42.488231
 21
352.120567
 31
0.0
210
0.0
220
1.0
230
0.0
1001
ACAD
1000
RTLwPs
1070
   128
  0
LINE
  5
8F5
100
AcDbEntity
  8
ESE
100
AcDbLine
 10
-63.45486
 20
526.834323
 30
0.000028
 11
-29.879388
 21
524.153892
 31
0.000004
  0
LINE
  5
8F7
100
AcDbEntity
  8
ESE
100
AcDbLine
 10
-14.103434
 20
352.120567
 30
0.0
 11
-10.356334
 21
-22.879433
 31
0.0
210
0.0
220
1.0
230
0.0
1001
ACAD
1000
RTLwPs
1070
   128
  0
LINE
  5
8F8
100
AcDbEntity
  8
ESM
100
AcDbLine
 10
-42.488231
 20
352.120567
 30
0.0
 11
34.875898
 21
352.120567
 31
0.0
1001
ACAD
1000
RTLwPs
1070
   128
  0
LINE
  5
8F9
100
AcDbEntity
  8
VR
100
AcDbLine
 10
-41.018441
 20
942.616506
 30
-0.000001
 11
59.881351
 21
1079.370784
 31
0.0
  0
INSERT
  5
8FA
100
AcDbEntity
  8
EP
100
AcDbBlockReference
  2
VIGATSECUN
 10
34.875898
 20
352.120567
 30
0.0
  0
LINE
  5
8FB
100
AcDbEntity
  8
PEP
100
AcDbLine
 10
59.881351
 20
352.120567
 30
0.0
 11
34.875898
 21
352.120567
 31
0.0
  0
LINE
  5
8FC
100
AcDbEntity
  8
PEP
100
AcDbLine
 10
59.881351
 20
552.120567
 30
0.0
 11
34.875898
 21
552.120567
 31
0.0
  0
LINE
  5
8FD
100
AcDbEntity
  8
PEP
100
AcDbLine
 10
59.881351
 20
152.120567
 30
0.0
 11
34.875898
 21
152.120567
 31
0.0
  0
INSERT
  5
8FE
100
AcDbEntity
  8
EP
100
AcDbBlockReference
  2
APOYOINFERIOR
 10
34.875898
 20
-22.879433
 30
0.0
  0
INSERT
  5
8FF
100
AcDbEntity
  8
EP
100
AcDbBlockReference
  2
APOYOINFERIOR
 10
-10.356334
 20
-22.879433
 30
0.0
  0
INSERT
  5
900
100
AcDbEntity
  8
EP
100
AcDbBlockReference
  2
APOYOPRINCIPAL
 10
59.881351
 20
-22.879433
 30
0.0
  0
INSERT
  5
901
100
AcDbEntity
  8
EP
100
AcDbBlockReference
  2
VIGATSECUN
 10
-14.103434
 20
352.120567
 30
0.0
  0
INSERT
  5
902
100
AcDbEntity
  8
EP
100
AcDbBlockReference
  2
VIGATSECUN
 10
34.875898
 20
752.120567
 30
0.0
  0
INSERT
  5
903
100
AcDbEntity
  8
EP
100
AcDbBlockReference
  2
VIGATSECUN
 10
-13.17102
 20
752.120567
 30
0.0
  0
INSERT
  5
904
100
AcDbEntity
  8
EP
100
AcDbBlockReference
  2
VIGATSECUN
 10
-64.816574
 20
752.120567
 30
0.0
  0
INSERT
  5
905
100
AcDbEntity
  8
EP
100
AcDbBlockReference
  2
VIGATSECUN
 10
-110.412012
 20
992.486642
 30
-0.000001
  0
INSERT
  5
906
100
AcDbEntity
  8
EP
100
AcDbBlockReference
  2
VIGATSECUN
 10
-66.269436
 20
992.486642
 30
-0.000001
  0
INSERT
  5
907
100
AcDbEntity
  8
EP
100
AcDbBlockReference
  2
VIGATSECUN
 10
-110.122655
 20
1136.959276
 30
-0.00006
  0
ENDSEC
  0
SECTION
  2
OBJECTS
  0
DICTIONARY
  5
25B
102
{ACAD_XDICTIONARY
360
25C
102
}
100
AcDbDictionary
  3
ACAD_GROUP
350
257
  3
ACAD_MLINESTYLE
350
258
  0
DICTIONARY
  5
24B
100
AcDbDictionary
280
     1
  3
ACAD_XREC_ROUNDTRIP
360
24C
  0
DICTIONARY
  5
24E
100
AcDbDictionary
280
     1
  3
ACAD_XREC_ROUNDTRIP
360
24F
  0
DICTIONARY
  5
9
100
AcDbDictionary
280
     1
  3
ACAD_XREC_ROUNDTRIP
360
A
  0
DICTIONARY
  5
13
100
AcDbDictionary
280
     1
  3
ACAD_LAYERFILTERS
360
14
  3
ACAD_LAYERSTATES
360
244
  0
DICTIONARY
  5
247
100
AcDbDictionary
280
     1
  3
ACAD_XREC_ROUNDTRIP
360
248
  0
DICTIONARY
  5
263
100
AcDbDictionary
280
     1
  3
ACAD_XREC_ROUNDTRIP
360
264
  0
DICTIONARY
  5
5DD
100
AcDbDictionary
280
     1
  3
ACAD_XREC_ROUNDTRIP
360
5DE
  0
DICTIONARY
  5
3
100
AcDbDictionary
280
     1
  3
ACAD_LAYOUTSELFREF
360
4
  3
ACAD_SORTENTS
360
5
  0
DICTIONARY
  5
E
100
AcDbDictionary
280
     1
  3
ACAD_LAYOUTSELFREF
360
F
  0
DICTIONARY
  5
334
100
AcDbDictionary
280
     1
  3
ACAD_XREC_ROUNDTRIP
360
335
  0
DICTIONARY
  5
341
100
AcDbDictionary
280
     1
  3
ACAD_XREC_ROUNDTRIP
360
342
  0
DICTIONARY
  5
27F
100
AcDbDictionary
280
     1
  3
ACAD_XREC_ROUNDTRIP
360
280
  0
DICTIONARY
  5
25C
100
AcDbDictionary
280
     1
  3
ACAD_XREC_ROUNDTRIP
360
25D
  0
DICTIONARY
  5
257
102
{ACAD_REACTORS
330
25B
102
}
100
AcDbDictionary
  0
DICTIONARY
  5
258
102
{ACAD_XDICTIONARY
360
259
102
}
102
{ACAD_REACTORS
330
25B
102
}
100
AcDbDictionary
  3
STANDARD
350
261
  0
XRECORD
  5
24C
102
{ACAD_REACTORS
330
24B
102
}
100
AcDbXrecord
102
EXTNAMES
  1
BYBLOCK
  2
ByBlock
  0
XRECORD
  5
24F
102
{ACAD_REACTORS
330
24E
102
}
100
AcDbXrecord
102
EXTNAMES
  1
BYLAYER
  2
ByLayer
  0
XRECORD
  5
A
102
{ACAD_REACTORS
330
9
102
}
100
AcDbXrecord
102
EXTNAMES
  1
CONTINUOUS
  2
Continuous
  0
DICTIONARY
  5
14
102
{ACAD_XDICTIONARY
360
15
102
}
102
{ACAD_REACTORS
330
13
102
}
100
AcDbDictionary
280
     1
  3
-
360
17
  3
-0
360
18
  3
-1
360
19
  3
-2
360
1A
  3
-3
360
1B
  3
-DETALLES
360
1C
  3
__
360
1D
  3
_AA_
360
1E
  3
_P00
360
1F
  3
0-
360
20
  3
00
360
21
  3
00TRF
360
22
  3
01
360
23
  3
01-TEXT
360
24
  3
02
360
25
  3
02-TERRES
360
26
  3
03
360
27
  3
03-FONAMENTS
360
28
  3
04
360
29
  3
04-ESTRUCTURA
360
2A
  3
04CUBIERTAS
360
2B
  3
05
360
2C
  3
06
360
2D
  3
06-
360
2E
  3
07
360
2F
  3
07-
360
30
  3
08-
360
31
  3
09-
360
32
  3
1
360
33
  3
1-
360
34
  3
1_TOPOGRAFICO
360
35
  3
10-
360
36
  3
100
360
37
  3
11
360
38
  3
11-
360
39
  3
12
360
3A
  3
13-
360
3B
  3
135
360
3C
  3
14-
360
3D
  3
15
360
3E
  3
16-
360
3F
  3
17-
360
40
  3
177
360
41
  3
2
360
42
  3
2_PLAN_ESPECIAL
360
43
  3
200
360
44
  3
26
360
45
  3
28
360
46
  3
3_CENTRO
360
47
  3
3D
360
48
  3
3D_LAYERS
360
49
  3
4_PARKING
360
4A
  3
40
360
4B
  3
48
360
4C
  3
50
360
4D
  3
500
360
4E
  3
8
360
4F
  3
84
360
50
  3
904
360
51
  3
96
360
52
  3
9838FP
360
53
  3
A
360
54
  3
A-FLOR
360
55
  3
A-RCP
360
56
  3
A_
360
57
  3
A1
360
58
  3
A2
360
59
  3
A3
360
5A
  3
A4
360
5B
  3
AA_
360
5C
  3
AA_FT
360
5D
  3
AAA
360
5E
  3
ABOVE
360
5F
  3
ACOMETIDA-SERGAS
360
60
  3
ACT
360
61
  3
ACTI
360
62
  3
ACTIVADAS
360
63
  3
ACTIVAS
360
64
  3
AE
360
65
  3
AGUA
360
66
  3
AIRE
360
67
  3
ALÇAT
360
68
  3
ALERO
360
69
  3
ALL
360
6A
  3
ALL_FROZEN
360
6B
  3
ALLE-SCHÜCO-LAYER
360
6C
  3
ALLE-SICHTBAREN-LAYER
360
6D
  3
ALT
360
6E
  3
ALZADOS
360
6F
  3
AMARILLO
360
70
  3
AMS
360
71
  3
AN
360
72
  3
ANT-H
360
73
  3
AP
360
74
  3
AQ
360
75
  3
AQ-
360
76
  3
AR2N
360
77
  3
ARBRES
360
78
  3
ARCH
360
79
  3
ARCHITECTURAL
360
7A
  3
AREA
360
7B
  3
AREAS
360
7C
  3
ARQUETAS
360
7D
  3
ARQUITECTURA
360
7E
  3
B1
360
7F
  3
B1_A
360
80
  3
B1_C
360
81
  3
B1_R
360
82
  3
B1_T
360
83
  3
B1_W
360
84
  3
B2
360
85
  3
B3
360
86
  3
B4
360
87
  3
BARRACONES
360
88
  3
BASE
360
89
  3
BB
360
8A
  3
BIND
360
8B
  3
BLOQ
360
8C
  3
BLOQUEADA
360
8D
  3
BLOQUEADAS
360
8E
  3
BLUE
360
8F
  3
BOMA
360
90
  3
BORDE
360
91
  3
BORING
360
92
  3
BUS
360
93
  3
C
360
94
  3
C-
360
95
  3
C1
360
96
  3
C2
360
97
  3
C3
360
98
  3
C4
360
99
  3
C5
360
9A
  3
C6
360
9B
  3
CÁMARA
360
9C
  3
CAPA_0
360
9D
  3
CAPAS_ACTIVADAS
360
9E
  3
CAPAS_DESACTIVADAS
360
9F
  3
CAPAS_P1
360
A0
  3
CAR
360
A1
  3
CARCYCLE
360
A2
  3
CARPINTERIA
360
A3
  3
CARRITALYBASE
360
A4
  3
CARRIZOS3FINAL
360
A5
  3
CARTO
360
A6
  3
CARTOGRAFIA
360
A7
  3
CB_LAYERS
360
A8
  3
CEILING
360
A9
  3
CEL
360
AA
  3
CEL-RAS
360
AB
  3
CIAN
360
AC
  3
CLAD
360
AD
  3
CLG
360
AE
  3
CLMN
360
AF
  3
CLNG
360
B0
  3
COLOR
360
B1
  3
COLOR-8
360
B2
  3
COLOR_8
360
B3
  3
COLOR_9
360
B4
  3
COLS
360
B5
  3
COM
360
B6
  3
COMUNES
360
B7
  3
CONTOURS1
360
B8
  3
CORE
360
B9
  3
COTA
360
BA
  3
COTAINT
360
BB
  3
COTAS
360
BC
  3
COTAS-ACABADOS
360
BD
  3
COTAS_ACABADOS
360
BE
  3
COTES
360
BF
  3
COULEUR
360
C0
  3
CPI
360
C1
  3
CUBICAL
360
C2
  3
CUBIERTA
360
C3
  3
CURVA
360
C4
  3
CYAN
360
C5
  3
CYCL
360
C6
  3
CYCLE
360
C7
  3
D1
360
C8
  3
D2
360
C9
  3
D3
360
CA
  3
D4
360
CB
  3
D5
360
CC
  3
DEL_DIBUJO
360
CD
  3
DEMO
360
CE
  3
DES
360
CF
  3
DESACTIVAS
360
D0
  3
DETAIL
360
D1
  3
DETAILS
360
D2
  3
DETALLE
360
D3
  3
DETALLES
360
D4
  3
DIB
360
D5
  3
DIM
360
D6
  3
DIMENSIONAL_CONTROL
360
D7
  3
DIMS
360
D8
  3
DOOR
360
D9
  3
DOORS
360
DA
  3
DREN
360
DB
  3
DRENAGEM
360
DC
  3
DUCT
360
DD
  3
DUST
360
DE
  3
E
360
DF
  3
E1
360
E0
  3
E3
360
E1
  3
EIXOS
360
E2
  3
EJE
360
E3
  3
ELECT
360
E4
  3
ELEV
360
E5
  3
ELLIPSE
360
E6
  3
ENSE
360
E7
  3
ENTORN
360
E8
  3
ENTRADA
360
E9
  3
ENTRAMADO-FACHADAS
360
EA
  3
ENVIRONMENTAL
360
EB
  3
EQ
360
EC
  3
EQPM
360
ED
  3
EQU
360
EE
  3
ESCALA_1-50
360
EF
  3
ESCALATOR
360
F0
  3
ESCALERA
360
F1
  3
ESPAI_VERD
360
F2
  3
ESPLANADE
360
F3
  3
ESQUEMAS
360
F4
  3
ESTRU00
360
F5
  3
ESTRUCTURA
360
F6
  3
ESTRUCTURAS
360
F7
  3
EXHS
360
F8
  3
EXIS
360
F9
  3
EXISTING
360
FA
  3
EXISTING_PROPERTY_LINE
360
FB
  3
EXISTING_TOPOGRAPHY
360
FC
  3
EXISTING_UTILITIES
360
FD
  3
EXTERIOR
360
FE
  3
F1
360
FF
  3
F2
360
100
  3
FACE
360
101
  3
FACE-CORE
360
102
  3
FACHADA
360
103
  3
FACHADAS
360
104
  3
FALL
360
105
  3
FALLOS
360
106
  3
FANCOIL
360
107
  3
FECALES
360
108
  3
FF200M
360
109
  3
FIN
360
10A
  3
FINISH
360
10B
  3
FIRE
360
10C
  3
FIX
360
10D
  3
FLOOR
360
10E
  3
FM
360
10F
  3
FREEZE
360
110
  3
FREEZED
360
111
  3
FROZEN
360
112
  3
FURN
360
113
  3
FURNITURE
360
114
  3
FUS
360
115
  3
GAS
360
116
  3
GEL
360
117
  3
GEOTECHNICAL
360
118
  3
GILLTEMP
360
119
  3
GREEN
360
11A
  3
GRID
360
11B
  3
GRIS8
360
11C
  3
GRIS9
360
11D
  3
GRISES
360
11E
  3
GRO
360
11F
  3
GRP
360
120
  3
H-
360
121
  3
HA
360
122
  3
HA-GENE-AR
360
123
  3
HAOU
360
124
  3
HATCH
360
125
  3
HATCH-SHADE
360
126
  3
HIDDEN
360
127
  3
HOJAS
360
128
  3
I
360
129
  3
IDEN
360
12A
  3
IL
360
12B
  3
ILUM
360
12C
  3
IMG
360
12D
  3
INAC
360
12E
  3
INS
360
12F
  3
INST_TECHO
360
130
  3
INSTALACION_TECHO
360
131
  3
INSTALACIONES_TECHO
360
132
  3
INTERIOR
360
133
  3
INU
360
134
  3
INUTIIL
360
135
  3
JALONAMIENTO
360
136
  3
K52
360
137
  3
KAYDIRAKLAR
360
138
  3
KEY
360
139
  3
KONSOLLAR
360
13A
  3
LABEL
360
13B
  3
LANDSCAPING
360
13C
  3
LAS-UTILES
360
13D
  3
LAURA
360
13E
  3
LAYERS_IN_THIS_DRAWING
360
13F
  3
LAYO
360
140
  3
LAZY
360
141
  3
LEVEL_1
360
142
  3
LEVEL_8
360
143
  3
LGA
360
144
  3
LIGHTING
360
145
  3
LIM
360
146
  3
LIMPIO
360
147
  3
LINE_WIGHT
360
148
  3
LINEA_FINA
360
149
  3
LINEA_GRUESA
360
14A
  3
LINEAS_REFERENCIA
360
14B
  3
LINES
360
14C
  3
LLUMS
360
14D
  3
LOCK
360
14E
  3
LOCKER
360
14F
  3
LOT
360
150
  3
LUNAR
360
151
  3
LUNAR2
360
152
  3
LVL
360
153
  3
MAGENTA
360
154
  3
MARCOS
360
155
  3
MATAS
360
156
  3
MATERIALS
360
157
  3
MECH
360
158
  3
MEDIA_TENSION
360
159
  3
MEDICAL
360
15A
  3
MEUS
360
15B
  3
MEXT
360
15C
  3
MEZZ
360
15D
  3
MILL
360
15E
  3
MOBILIARIO
360
15F
  3
MUEBLEPERIMETRAL
360
160
  3
MUEBLES
360
161
  3
MZ
360
162
  3
N
360
163
  3
N-CLAV
360
164
  3
NAME
360
165
  3
NEAL
360
166
  3
NELF
360
167
  3
NEW
360
168
  3
NO_XREF
360
169
  3
NOREF
360
16A
  3
NORMAL
360
16B
  3
NOTE
360
16C
  3
NOTES
360
16D
  3
NPLT
360
16E
  3
NUEVA
360
16F
  3
NUEVA_IMPLANTACIÓN
360
170
  3
NUEVAS
360
171
  3
NUEVOS-SERVICIOS
360
172
  3
NUM
360
173
  3
OCULT
360
174
  3
OFF
360
175
  3
OFF_ALL_XREF_LAYERS
360
176
  3
OFFSITE_GRADING
360
177
  3
OFFSITE_ROADWAY_IMP_
360
178
  3
OFFSITE_STORM
360
179
  3
OFFSITE_STRIPING___TRAFFIC
360
17A
  3
OFICINES
360
17B
  3
OI
360
17C
  3
ON
360
17D
  3
OU
360
17E
  3
OU-AREA
360
17F
  3
OUTY
360
180
  3
OVER
360
181
  3
P
360
182
  3
P-1
360
183
  3
P-2
360
184
  3
P00
360
185
  3
P01
360
186
  3
P02
360
187
  3
P03
360
188
  3
P05
360
189
  3
P1
360
18A
  3
P1401
360
18B
  3
P14P-2
360
18C
  3
P14P00
360
18D
  3
P2
360
18E
  3
P3
360
18F
  3
P4
360
190
  3
P5
360
191
  3
PA
360
192
  3
PARCELA
360
193
  3
PARKING
360
194
  3
PARTITIONS
360
195
  3
PASILLO
360
196
  3
PATT
360
197
  3
PAU
360
198
  3
PAVER
360
199
  3
PB
360
19A
  3
PEPE
360
19B
  3
PFPLAN
360
19C
  3
PIANOS
360
19D
  3
PIEZA_DE_CRISTAL
360
19E
  3
PILARES
360
19F
  3
PILARESZ2
360
1A0
  3
PIPES
360
1A1
  3
PIPES1
360
1A2
  3
PIPING_PLAN2
360
1A3
  3
PL
360
1A4
  3
PLAKALAR
360
1A5
  3
PLAN
360
1A6
  3
PLAN-PARCIAL
360
1A7
  3
PLANT
360
1A8
  3
PLANTA_BAJA
360
1A9
  3
PLANTA_BAJA_ACT
360
1AA
  3
PLANTA_SUBSUELO
360
1AB
  3
PLANTA_TÉCNICA
360
1AC
  3
PLANTAS
360
1AD
  3
PLANTS
360
1AE
  3
PLOT
360
1AF
  3
PLOTEO
360
1B0
  3
PLUVIALES
360
1B1
  3
PN10
360
1B2
  3
POLILINEAS
360
1B3
  3
PONT
360
1B4
  3
POOL
360
1B5
  3
POPOPO
360
1B6
  3
POZOS_AGUA
360
1B7
  3
POZOS_FECALES
360
1B8
  3
POZOS_PLUVIALES
360
1B9
  3
PQ
360
1BA
  3
PR
360
1BB
  3
PROGEST
360
1BC
  3
PROJ-URBANITZACIO
360
1BD
  3
PROP
360
1BE
  3
PROPOSED_DRAINAGE_DESIGN
360
1BF
  3
PROPOSED_EASEMENT
360
1C0
  3
PROPOSED_GRADING
360
1C1
  3
PROPOSED_SITE_LAYOUT
360
1C2
  3
PROPOSED_STORM_PIPES
360
1C3
  3
PROPOSED_STRIPING
360
1C4
  3
PROPOSED_UTILITIES
360
1C5
  3
PROYECCCIONES
360
1C6
  3
PRUEBA
360
1C7
  3
PRUEBA3
360
1C8
  3
PUERTAS
360
1C9
  3
RAIL
360
1CA
  3
RCP
360
1CB
  3
RE
360
1CC
  3
RED
360
1CD
  3
REFERENCIA
360
1CE
  3
RELLENO
360
1CF
  3
RELLENOS
360
1D0
  3
REPLANTEO
360
1D1
  3
RIEGO
360
1D2
  3
RMTAGS
360
1D3
  3
ROOF
360
1D4
  3
ROOM
360
1D5
  3
ROTULACION
360
1D6
  3
S
360
1D7
  3
S1
360
1D8
  3
S2
360
1D9
  3
SAA
360
1DA
  3
SANEAMIENTO
360
1DB
  3
SAU
360
1DC
  3
SAU3
360
1DD
  3
SAU5
360
1DE
  3
SCALE200
360
1DF
  3
SE
360
1E0
  3
SE100
360
1E1
  3
SECC
360
1E2
  3
SECCIO
360
1E3
  3
SECCION
360
1E4
  3
SEDIMENT_CONTROL
360
1E5
  3
SEGUNDA
360
1E6
  3
SEGUNDABIS
360
1E7
  3
SENY_HORIT
360
1E8
  3
SERVI
360
1E9
  3
SHADE
360
1EA
  3
SHELL
360
1EB
  3
SILL
360
1EC
  3
SILLAS
360
1ED
  3
SITE
360
1EE
  3
SITE-LOCATION
360
1EF
  3
SOLADOS
360
1F0
  3
SOLO_CAPA
360
1F1
  3
SPACE_PLANNING
360
1F2
  3
STB_LAYERS
360
1F3
  3
STR
360
1F4
  3
STRUCTURAL
360
1F5
  3
STRUCTURE
360
1F6
  3
SU
360
1F7
  3
SUELO
360
1F8
  3
SUP01
360
1F9
  3
SUP02
360
1FA
  3
SUP03
360
1FB
  3
SUP04
360
1FC
  3
SUPERFICIES
360
1FD
  3
SURVEY_WORKING_FILES
360
1FE
  3
T
360
1FF
  3
T_A
360
200
  3
T_C
360
201
  3
TAJEAS
360
202
  3
TALLERES
360
203
  3
TAQUIMETRICO
360
204
  3
TECHOS
360
205
  3
TELE
360
206
  3
TEMP
360
207
  3
TEMPORARY_LAYERS
360
208
  3
TEST
360
209
  3
TEXT
360
20A
  3
TEXTO
360
20B
  3
THAWED
360
20C
  3
TIM
360
20D
  3
TITLE
360
20E
  3
TMP
360
20F
  3
TOPO
360
210
  3
TOPOGRAFIA
360
211
  3
TRABAJO
360
212
  3
TRAM
360
213
  3
TRAMA
360
214
  3
TRAMA-FAÇANA
360
215
  3
TRAMAS
360
216
  3
TRAMES
360
217
  3
TREAD
360
218
  3
TRUSS
360
219
  3
TT
360
21A
  3
TUB
360
21B
  3
TUBE
360
21C
  3
U
360
21D
  3
UISKAS
360
21E
  3
UNI
360
21F
  3
UP
360
220
  3
URB
360
221
  3
URBAN
360
222
  3
URBANIZACION
360
223
  3
USOS_MUEBLES
360
224
  3
UTILIZADAS
360
225
  3
VDOT
360
226
  3
VESTUARIOS_ENTRADA
360
227
  3
VISTAS
360
228
  3
VMULT
360
229
  3
VP
360
22A
  3
VPORTS
360
22B
  3
VRB_LAYERS
360
22C
  3
W
360
22D
  3
WALL
360
22E
  3
WALLS
360
22F
  3
WDW
360
230
  3
WE
360
231
  3
WETLANDS
360
232
  3
WHITE
360
233
  3
WINDOW
360
234
  3
X
360
235
  3
X-BRIDGE
360
236
  3
X-LEV-1
360
237
  3
X-LEV-3
360
238
  3
X-LEV-4
360
239
  3
X-LEV2
360
23A
  3
X-SITE
360
23B
  3
XREF
360
23C
  3
YARDIMLAR
360
23D
  3
YELLOW
360
23E
  3
YO
360
23F
  3
YUZEYLER
360
240
  3
YÜZEYLER
360
241
  3
Z
360
242
  3
ZZ
360
243
  0
DICTIONARY
  5
244
102
{ACAD_REACTORS
330
13
102
}
100
AcDbDictionary
  0
XRECORD
  5
248
102
{ACAD_REACTORS
330
247
102
}
100
AcDbXrecord
102
EXTNAMES
  1
STANDARD
  2
Standard
  0
XRECORD
  5
264
102
{ACAD_REACTORS
330
263
102
}
100
AcDbXrecord
102
EXTNAMES
  1
COPIA_DE_DIM-100
  2
Copia de DIM-100
102
ACADR14ROUNDTRIP
1000
DSTYLE
1002
{
1070
   342
340
265
1002
}
  0
XRECORD
  5
5DE
102
{ACAD_REACTORS
330
5DD
102
}
100
AcDbXrecord
102
ACADR14ROUNDTRIP
1000
DSTYLE
1002
{
1070
   342
340
265
1002
}
  0
XRECORD
  5
4
102
{ACAD_REACTORS
330
3
102
}
100
AcDbXrecord
340
2
  0
SORTENTSTABLE
  5
5
102
{ACAD_REACTORS
330
3
102
}
100
AcDbSortentsTable
330
2
  0
XRECORD
  5
F
102
{ACAD_REACTORS
330
E
102
}
100
AcDbXrecord
340
D
  0
XRECORD
  5
335
102
{ACAD_REACTORS
330
334
102
}
100
AcDbXrecord
102
EXTNAMES
  1
MALU90OPACO
  2
MALU90opaco
  0
XRECORD
  5
342
102
{ACAD_REACTORS
330
341
102
}
100
AcDbXrecord
102
EXTNAMES
  1
MALU90SEMITRP
  2
MALU90semitrp
  0
XRECORD
  5
280
102
{ACAD_REACTORS
330
27F
102
}
100
AcDbXrecord
102
EXTNAMES
  1
MALU90SEMITRP_OP
  2
MALU90semitrp+op
  0
XRECORD
  5
25D
102
{ACAD_REACTORS
330
25C
102
}
100
AcDbXrecord
102
EXTNAMES
  1
ACDBVARIABLEDICTIONARY
  2
AcDbVariableDictionary
  0
DICTIONARY
  5
259
100
AcDbDictionary
280
     1
  3
ACAD_XREC_ROUNDTRIP
360
25A
  0
MLINESTYLE
  5
261
102
{ACAD_REACTORS
330
258
102
}
100
AcDbMlineStyle
  2
STANDARD
 70
     0
  3

 62
     0
 51
90.0
 52
90.0
 71
     2
 49
0.5
 62
   256
  6
BYLAYER
 49
-0.5
 62
   256
  6
BYLAYER
  0
DICTIONARY
  5
15
100
AcDbDictionary
280
     1
  3
ACAD_XREC_ROUNDTRIP
360
16
  0
XRECORD
  5
17
102
{ACAD_REACTORS
330
14
102
}
100
AcDbXrecord
  1
-
  1
*
  1
*
  1
*
 70
     0
  1
*
  1
*
  0
XRECORD
  5
18
102
{ACAD_REACTORS
330
14
102
}
100
AcDbXrecord
  1
-0
  1
0*
  1
*
  1
*
 70
     0
  1
*
  1
*
  0
XRECORD
  5
19
102
{ACAD_REACTORS
330
14
102
}
100
AcDbXrecord
  1
-1
  1
*-1
  1
*
  1
*
 70
     0
  1
*
  1
*
  0
XRECORD
  5
1A
102
{ACAD_REACTORS
330
14
102
}
100
AcDbXrecord
  1
-2
  1
*-2
  1
*
  1
*
 70
     0
  1
*
  1
*
  0
XRECORD
  5
1B
102
{ACAD_REACTORS
330
14
102
}
100
AcDbXrecord
  1
-3
  1
*-3
  1
*
  1
*
 70
     0
  1
*
  1
*
  0
XRECORD
  5
1C
102
{ACAD_REACTORS
330
14
102
}
100
AcDbXrecord
  1
-detalles
  1
-det*
  1
*
  1
*
 70
     0
  1
*
  1
*
  0
XRECORD
  5
1D
102
{ACAD_REACTORS
330
14
102
}
100
AcDbXrecord
  1
++
  1
*++*
  1
*
  1
*
 70
     0
  1
*
  1
*
  0
XRECORD
  5
1E
102
{ACAD_REACTORS
330
14
102
}
100
AcDbXrecord
  1
_AA_
  1
_AA_*
  1
*
  1
*
 70
     0
  1
*
  1
*
  0
XRECORD
  5
1F
102
{ACAD_REACTORS
330
14
102
}
100
AcDbXrecord
  1
_p00
  1
*
  1
*
  1
*
 70
     0
  1
*
  1
*
  0
XRECORD
  5
20
102
{ACAD_REACTORS
330
14
102
}
100
AcDbXrecord
  1
0-
  1
0-*
  1
*
  1
*
 70
     0
  1
*
  1
*
  0
XRECORD
  5
21
102
{ACAD_REACTORS
330
14
102
}
100
AcDbXrecord
  1
00
  1
*p00
  1
*
  1
*
 70
     0
  1
*
  1
*
  0
XRECORD
  5
22
102
{ACAD_REACTORS
330
14
102
}
100
AcDbXrecord
  1
00trf
  1
00trf*
  1
*
  1
*
 70
     0
  1
*
  1
*
  0
XRECORD
  5
23
102
{ACAD_REACTORS
330
14
102
}
100
AcDbXrecord
  1
01
  1
*p01
  1
*
  1
*
 70
     0
  1
*
  1
*
  0
XRECORD
  5
24
102
{ACAD_REACTORS
330
14
102
}
100
AcDbXrecord
  1
01-TEXT
  1
01-*
  1
*
  1
*
 70
     0
  1
*
  1
*
  0
XRECORD
  5
25
102
{ACAD_REACTORS
330
14
102
}
100
AcDbXrecord
  1
02
  1
*p02
  1
*
  1
*
 70
     0
  1
*
  1
*
  0
XRECORD
  5
26
102
{ACAD_REACTORS
330
14
102
}
100
AcDbXrecord
  1
02-TERRES
  1
02-*
  1
*
  1
*
 70
     0
  1
*
  1
*
  0
XRECORD
  5
27
102
{ACAD_REACTORS
330
14
102
}
100
AcDbXrecord
  1
03
  1
*p03
  1
*
  1
*
 70
     0
  1
*
  1
*
  0
XRECORD
  5
28
102
{ACAD_REACTORS
330
14
102
}
100
AcDbXrecord
  1
03-FONAMENTS
  1
03-*
  1
*
  1
*
 70
     0
  1
*
  1
*
  0
XRECORD
  5
29
102
{ACAD_REACTORS
330
14
102
}
100
AcDbXrecord
  1
04
  1
*04
  1
*
  1
*
 70
     0
  1
*
  1
*
  0
XRECORD
  5
2A
102
{ACAD_REACTORS
330
14
102
}
100
AcDbXrecord
  1
04-ESTRUCTURA
  1
04-*
  1
*
  1
*
 70
     0
  1
*
  1
*
  0
XRECORD
  5
2B
102
{ACAD_REACTORS
330
14
102
}
100
AcDbXrecord
  1
04cubiertas
  1
*04
  1
*
  1
*
 70
     0
  1
*
  1
*
  0
XRECORD
  5
2C
102
{ACAD_REACTORS
330
14
102
}
100
AcDbXrecord
  1
05
  1
*05
  1
*
  1
*
 70
     0
  1
*
  1
*
  0
XRECORD
  5
2D
102
{ACAD_REACTORS
330
14
102
}
100
AcDbXrecord
  1
06
  1
*06
  1
*
  1
*
 70
     0
  1
*
  1
*
  0
XRECORD
  5
2E
102
{ACAD_REACTORS
330
14
102
}
100
AcDbXrecord
  1
06-
  1
06-*
  1
*
  1
*
 70
     0
  1
*
  1
*
  0
XRECORD
  5
2F
102
{ACAD_REACTORS
330
14
102
}
100
AcDbXrecord
  1
07
  1
*07
  1
*
  1
*
 70
     0
  1
*
  1
*
  0
XRECORD
  5
30
102
{ACAD_REACTORS
330
14
102
}
100
AcDbXrecord
  1
07-
  1
07-*
  1
*
  1
*
 70
     0
  1
*
  1
*
  0
XRECORD
  5
31
102
{ACAD_REACTORS
330
14
102
}
100
AcDbXrecord
  1
08-
  1
08-*
  1
*
  1
*
 70
     0
  1
*
  1
*
  0
XRECORD
  5
32
102
{ACAD_REACTORS
330
14
102
}
100
AcDbXrecord
  1
09-
  1
09-*
  1
*
  1
*
 70
     0
  1
*
  1
*
  0
XRECORD
  5
33
102
{ACAD_REACTORS
330
14
102
}
100
AcDbXrecord
  1
1
  1
p*
  1
*
  1
*
 70
     0
  1
*
  1
*
  0
XRECORD
  5
34
102
{ACAD_REACTORS
330
14
102
}
100
AcDbXrecord
  1
1-
  1
*
  1
*
  1
*
 70
     0
  1
*
  1
*
  0
XRECORD
  5
35
102
{ACAD_REACTORS
330
14
102
}
100
AcDbXrecord
  1
1_TOPOGRAFICO
  1
*
  1
ROJO
  1
*
 70
     0
  1
*
  1
*
  0
XRECORD
  5
36
102
{ACAD_REACTORS
330
14
102
}
100
AcDbXrecord
  1
10-
  1
10-*
  1
*
  1
*
 70
     0
  1
*
  1
*
  0
XRECORD
  5
37
102
{ACAD_REACTORS
330
14
102
}
100
AcDbXrecord
  1
100
  1
100*
  1
*
  1
*
 70
     0
  1
*
  1
*
  0
XRECORD
  5
38
102
{ACAD_REACTORS
330
14
102
}
100
AcDbXrecord
  1
11
  1
6_*
  1
*
  1
*
 70
     0
  1
*
  1
*
  0
XRECORD
  5
39
102
{ACAD_REACTORS
330
14
102
}
100
AcDbXrecord
  1
11-
  1
11-*
  1
*
  1
*
 70
     0
  1
*
  1
*
  0
XRECORD
  5
3A
102
{ACAD_REACTORS
330
14
102
}
100
AcDbXrecord
  1
12
  1
12-*
  1
*
  1
*
 70
     0
  1
*
  1
*
  0
XRECORD
  5
3B
102
{ACAD_REACTORS
330
14
102
}
100
AcDbXrecord
  1
13-
  1
13-*
  1
*
  1
*
 70
     0
  1
*
  1
*
  0
XRECORD
  5
3C
102
{ACAD_REACTORS
330
14
102
}
100
AcDbXrecord
  1
135
  1
*
  1
135
  1
*
 70
     0
  1
*
  1
*
  0
XRECORD
  5
3D
102
{ACAD_REACTORS
330
14
102
}
100
AcDbXrecord
  1
14-
  1
14-*
  1
*
  1
*
 70
     0
  1
*
  1
*
  0
XRECORD
  5
3E
102
{ACAD_REACTORS
330
14
102
}
100
AcDbXrecord
  1
15
  1
15-*
  1
*
  1
*
 70
     0
  1
*
  1
*
  0
XRECORD
  5
3F
102
{ACAD_REACTORS
330
14
102
}
100
AcDbXrecord
  1
16-
  1
16-*
  1
*
  1
*
 70
     0
  1
*
  1
*
  0
XRECORD
  5
40
102
{ACAD_REACTORS
330
14
102
}
100
AcDbXrecord
  1
17-
  1
17-*
  1
*
  1
*
 70
     0
  1
*
  1
*
  0
XRECORD
  5
41
102
{ACAD_REACTORS
330
14
102
}
100
AcDbXrecord
  1
177
  1
*
  1
177
  1
*
 70
     0
  1
*
  1
*
  0
XRECORD
  5
42
102
{ACAD_REACTORS
330
14
102
}
100
AcDbXrecord
  1
2
  1
*
  1
2
  1
*
 70
     0
  1
*
  1
*
  0
XRECORD
  5
43
102
{ACAD_REACTORS
330
14
102
}
100
AcDbXrecord
  1
2_PLAN ESPECIAL
  1
*
  1
VERDE
  1
*
 70
     0
  1
*
  1
*
  0
XRECORD
  5
44
102
{ACAD_REACTORS
330
14
102
}
100
AcDbXrecord
  1
200
  1
*200*
  1
*
  1
*
 70
     0
  1
*
  1
*
  0
XRECORD
  5
45
102
{ACAD_REACTORS
330
14
102
}
100
AcDbXrecord
  1
26
  1
*26*
  1
*
  1
*
 70
     0
  1
*
  1
*
  0
XRECORD
  5
46
102
{ACAD_REACTORS
330
14
102
}
100
AcDbXrecord
  1
28
  1
*28*
  1
*
  1
*
 70
     0
  1
*
  1
*
  0
XRECORD
  5
47
102
{ACAD_REACTORS
330
14
102
}
100
AcDbXrecord
  1
3_CENTRO
  1
*
  1
AZUL
  1
*
 70
     0
  1
*
  1
*
  0
XRECORD
  5
48
102
{ACAD_REACTORS
330
14
102
}
100
AcDbXrecord
  1
3d
  1
3d*
  1
*
  1
*
 70
     0
  1
*
  1
*
  0
XRECORD
  5
49
102
{ACAD_REACTORS
330
14
102
}
100
AcDbXrecord
  1
3D LAYERS
  1
A3D*,0*,a-const*
  1
*
  1
*
 70
     0
  1
*
  1
*
  0
XRECORD
  5
4A
102
{ACAD_REACTORS
330
14
102
}
100
AcDbXrecord
  1
4_PARKING
  1
*
  1
BLANCO
  1
*
 70
     0
  1
*
  1
*
  0
XRECORD
  5
4B
102
{ACAD_REACTORS
330
14
102
}
100
AcDbXrecord
  1
40
  1
*
  1
40
  1
*
 70
     0
  1
*
  1
*
  0
XRECORD
  5
4C
102
{ACAD_REACTORS
330
14
102
}
100
AcDbXrecord
  1
48
  1
*48
  1
*
  1
*
 70
     0
  1
*
  1
*
  0
XRECORD
  5
4D
102
{ACAD_REACTORS
330
14
102
}
100
AcDbXrecord
  1
50
  1
*50*
  1
*
  1
*
 70
     0
  1
*
  1
*
  0
XRECORD
  5
4E
102
{ACAD_REACTORS
330
14
102
}
100
AcDbXrecord
  1
500
  1
*500*
  1
*
  1
*
 70
     0
  1
*
  1
*
  0
XRECORD
  5
4F
102
{ACAD_REACTORS
330
14
102
}
100
AcDbXrecord
  1
8
  1
*
  1
*8
  1
*
 70
     0
  1
*
  1
*
  0
XRECORD
  5
50
102
{ACAD_REACTORS
330
14
102
}
100
AcDbXrecord
  1
84
  1
*84*
  1
*
  1
*
 70
     0
  1
*
  1
*
  0
XRECORD
  5
51
102
{ACAD_REACTORS
330
14
102
}
100
AcDbXrecord
  1
904
  1
*
  1
*
  1
*
 70
     0
  1
*
  1
*
  0
XRECORD
  5
52
102
{ACAD_REACTORS
330
14
102
}
100
AcDbXrecord
  1
96
  1
*96
  1
*
  1
*
 70
     0
  1
*
  1
*
  0
XRECORD
  5
53
102
{ACAD_REACTORS
330
14
102
}
100
AcDbXrecord
  1
9838FP
  1
*9838FP*
  1
*
  1
*
 70
     0
  1
*
  1
*
  0
XRECORD
  5
54
102
{ACAD_REACTORS
330
14
102
}
100
AcDbXrecord
  1
A
  1
A*
  1
*
  1
*
 70
     0
  1
*
  1
*
  0
XRECORD
  5
55
102
{ACAD_REACTORS
330
14
102
}
100
AcDbXrecord
  1
A-Flor
  1
*|A-Flor*
  1
*
  1
*
 70
     0
  1
*
  1
*
  0
XRECORD
  5
56
102
{ACAD_REACTORS
330
14
102
}
100
AcDbXrecord
  1
A-RCP
  1
A-RCP*
  1
*
  1
*
 70
     0
  1
*
  1
*
  0
XRECORD
  5
57
102
{ACAD_REACTORS
330
14
102
}
100
AcDbXrecord
  1
a_
  1
a_*
  1
*
  1
*
 70
     0
  1
*
  1
*
  0
XRECORD
  5
58
102
{ACAD_REACTORS
330
14
102
}
100
AcDbXrecord
  1
A1
  1
A1*
  1
*
  1
*
 70
     0
  1
*
  1
*
  0
XRECORD
  5
59
102
{ACAD_REACTORS
330
14
102
}
100
AcDbXrecord
  1
A2
  1
A2*
  1
*
  1
*
 70
     0
  1
*
  1
*
  0
XRECORD
  5
5A
102
{ACAD_REACTORS
330
14
102
}
100
AcDbXrecord
  1
A3
  1
A3*
  1
*
  1
*
 70
     0
  1
*
  1
*
  0
XRECORD
  5
5B
102
{ACAD_REACTORS
330
14
102
}
100
AcDbXrecord
  1
A4
  1
A4*
  1
*
  1
*
 70
     0
  1
*
  1
*
  0
XRECORD
  5
5C
102
{ACAD_REACTORS
330
14
102
}
100
AcDbXrecord
  1
AA_
  1
AA_*
  1
*
  1
*
 70
     0
  1
*
  1
*
  0
XRECORD
  5
5D
102
{ACAD_REACTORS
330
14
102
}
100
AcDbXrecord
  1
AA_ft
  1
*
  1
*
  1
*
 70
     0
  1
*
  1
*
  0
XRECORD
  5
5E
102
{ACAD_REACTORS
330
14
102
}
100
AcDbXrecord
  1
aaa
  1
*
  1
*
  1
*
 70
    12
  1
*
  1
*
  0
XRECORD
  5
5F
102
{ACAD_REACTORS
330
14
102
}
100
AcDbXrecord
  1
above
  1
*above*
  1
*
  1
*
 70
     0
  1
*
  1
*
  0
XRECORD
  5
60
102
{ACAD_REACTORS
330
14
102
}
100
AcDbXrecord
  1
ACOMETIDA-SERGAS
  1
*_AC
  1
*
  1
*
 70
     0
  1
*
  1
*
  0
XRECORD
  5
61
102
{ACAD_REACTORS
330
14
102
}
100
AcDbXrecord
  1
act
  1
*
  1
*
  1
*
 70
     1
  1
*
  1
*
  0
XRECORD
  5
62
102
{ACAD_REACTORS
330
14
102
}
100
AcDbXrecord
  1
ACTI
  1
*
  1
*
  1
*
 70
     1
  1
*
  1
*
  0
XRECORD
  5
63
102
{ACAD_REACTORS
330
14
102
}
100
AcDbXrecord
  1
Activadas
  1
*
  1
*
  1
*
 70
     1
  1
*
  1
*
  0
XRECORD
  5
64
102
{ACAD_REACTORS
330
14
102
}
100
AcDbXrecord
  1
ACTIVAS
  1
*
  1
*
  1
*
 70
     1
  1
*
  1
*
  0
XRECORD
  5
65
102
{ACAD_REACTORS
330
14
102
}
100
AcDbXrecord
  1
ae
  1
*ae*
  1
*
  1
*
 70
     0
  1
*
  1
*
  0
XRECORD
  5
66
102
{ACAD_REACTORS
330
14
102
}
100
AcDbXrecord
  1
Agua
  1
Agua*
  1
*
  1
*
 70
     0
  1
*
  1
*
  0
XRECORD
  5
67
102
{ACAD_REACTORS
330
14
102
}
100
AcDbXrecord
  1
AIRE
  1
AI*
  1
*
  1
*
 70
     0
  1
*
  1
*
  0
XRECORD
  5
68
102
{ACAD_REACTORS
330
14
102
}
100
AcDbXrecord
  1
ALÇAT
  1
ALÇAT*
  1
*
  1
*
 70
     0
  1
*
  1
*
  0
XRECORD
  5
69
102
{ACAD_REACTORS
330
14
102
}
100
AcDbXrecord
  1
alero
  1
alero*
  1
*
  1
*
 70
     0
  1
*
  1
*
  0
XRECORD
  5
6A
102
{ACAD_REACTORS
330
14
102
}
100
AcDbXrecord
  1
ALL
  1
*
  1
*
  1
*
 70
     0
  1
*
  1
*
  0
XRECORD
  5
6B
102
{ACAD_REACTORS
330
14
102
}
100
AcDbXrecord
  1
all frozen
  1
*
  1
*
  1
*
 70
     4
  1
*
  1
*
  0
XRECORD
  5
6C
102
{ACAD_REACTORS
330
14
102
}
100
AcDbXrecord
  1
alle-schüco-layer
  1
0s*
  1
*
  1
*
 70
     0
  1
*
  1
*
  0
XRECORD
  5
6D
102
{ACAD_REACTORS
330
14
102
}
100
AcDbXrecord
  1
alle-sichtbaren-layer
  1
*
  1
*
  1
*
 70
    13
  1
*
  1
*
  0
XRECORD
  5
6E
102
{ACAD_REACTORS
330
14
102
}
100
AcDbXrecord
  1
ALT
  1
*ALT*
  1
*
  1
*
 70
     0
  1
*
  1
*
  0
XRECORD
  5
6F
102
{ACAD_REACTORS
330
14
102
}
100
AcDbXrecord
  1
ALZADOS
  1
A-*
  1
*
  1
*
 70
     0
  1
*
  1
*
  0
XRECORD
  5
70
102
{ACAD_REACTORS
330
14
102
}
100
AcDbXrecord
  1
amarillo
  1
*
  1
2
  1
*
 70
     0
  1
*
  1
*
  0
XRECORD
  5
71
102
{ACAD_REACTORS
330
14
102
}
100
AcDbXrecord
  1
ams
  1
*ams*
  1
*
  1
*
 70
     0
  1
*
  1
*
  0
XRECORD
  5
72
102
{ACAD_REACTORS
330
14
102
}
100
AcDbXrecord
  1
an
  1
*an_*
  1
*
  1
*
 70
     0
  1
*
  1
*
  0
XRECORD
  5
73
102
{ACAD_REACTORS
330
14
102
}
100
AcDbXrecord
  1
ANT-H
  1
ANT-H*
  1
*
  1
*
 70
     0
  1
*
  1
*
  0
XRECORD
  5
74
102
{ACAD_REACTORS
330
14
102
}
100
AcDbXrecord
  1
AP
  1
A*
  1
*
  1
*
 70
     0
  1
*
  1
*
  0
XRECORD
  5
75
102
{ACAD_REACTORS
330
14
102
}
100
AcDbXrecord
  1
aq
  1
aq*
  1
*
  1
*
 70
     0
  1
*
  1
*
  0
XRECORD
  5
76
102
{ACAD_REACTORS
330
14
102
}
100
AcDbXrecord
  1
aq-
  1
aq-*
  1
*
  1
*
 70
     0
  1
*
  1
*
  0
XRECORD
  5
77
102
{ACAD_REACTORS
330
14
102
}
100
AcDbXrecord
  1
ar2n
  1
**ar2n*
  1
*
  1
*
 70
     0
  1
*
  1
*
  0
XRECORD
  5
78
102
{ACAD_REACTORS
330
14
102
}
100
AcDbXrecord
  1
arbres
  1
*arb*
  1
*
  1
*
 70
     0
  1
*
  1
*
  0
XRECORD
  5
79
102
{ACAD_REACTORS
330
14
102
}
100
AcDbXrecord
  1
ARCH
  1
UMP*
  1
*
  1
*
 70
     4
  1
*
  1
*
  0
XRECORD
  5
7A
102
{ACAD_REACTORS
330
14
102
}
100
AcDbXrecord
  1
Architectural
  1
a*
  1
*
  1
*
 70
     0
  1
*
  1
*
  0
XRECORD
  5
7B
102
{ACAD_REACTORS
330
14
102
}
100
AcDbXrecord
  1
area
  1
*area*
  1
*
  1
*
 70
     0
  1
*
  1
*
  0
XRECORD
  5
7C
102
{ACAD_REACTORS
330
14
102
}
100
AcDbXrecord
  1
AREAS
  1
AREA*.*
  1
*
  1
*
 70
     0
  1
*
  1
*
  0
XRECORD
  5
7D
102
{ACAD_REACTORS
330
14
102
}
100
AcDbXrecord
  1
Arquetas
  1
Arquetas*
  1
*
  1
*
 70
     0
  1
*
  1
*
  0
XRECORD
  5
7E
102
{ACAD_REACTORS
330
14
102
}
100
AcDbXrecord
  1
ARQUITECTURA
  1
ARQ*
  1
*
  1
*
 70
     0
  1
*
  1
*
  0
XRECORD
  5
7F
102
{ACAD_REACTORS
330
14
102
}
100
AcDbXrecord
  1
b1
  1
b1_*
  1
*
  1
*
 70
     0
  1
*
  1
*
  0
XRECORD
  5
80
102
{ACAD_REACTORS
330
14
102
}
100
AcDbXrecord
  1
B1.A
  1
B1.A*
  1
*
  1
*
 70
     0
  1
*
  1
*
  0
XRECORD
  5
81
102
{ACAD_REACTORS
330
14
102
}
100
AcDbXrecord
  1
B1.C
  1
B1.C*
  1
*
  1
*
 70
     0
  1
*
  1
*
  0
XRECORD
  5
82
102
{ACAD_REACTORS
330
14
102
}
100
AcDbXrecord
  1
B1.R
  1
B1.R*
  1
*
  1
*
 70
     0
  1
*
  1
*
  0
XRECORD
  5
83
102
{ACAD_REACTORS
330
14
102
}
100
AcDbXrecord
  1
B1.T
  1
B1.T*
  1
*
  1
*
 70
     0
  1
*
  1
*
  0
XRECORD
  5
84
102
{ACAD_REACTORS
330
14
102
}
100
AcDbXrecord
  1
B1.W
  1
B1.W*
  1
*
  1
*
 70
     0
  1
*
  1
*
  0
XRECORD
  5
85
102
{ACAD_REACTORS
330
14
102
}
100
AcDbXrecord
  1
B2
  1
B2*
  1
*
  1
*
 70
     0
  1
*
  1
*
  0
XRECORD
  5
86
102
{ACAD_REACTORS
330
14
102
}
100
AcDbXrecord
  1
B3
  1
B3*
  1
*
  1
*
 70
     0
  1
*
  1
*
  0
XRECORD
  5
87
102
{ACAD_REACTORS
330
14
102
}
100
AcDbXrecord
  1
B4
  1
B4*
  1
*
  1
*
 70
     0
  1
*
  1
*
  0
XRECORD
  5
88
102
{ACAD_REACTORS
330
14
102
}
100
AcDbXrecord
  1
barracones
  1
barracones*
  1
*
  1
*
 70
     0
  1
*
  1
*
  0
XRECORD
  5
89
102
{ACAD_REACTORS
330
14
102
}
100
AcDbXrecord
  1
base
  1
357-b|*
  1
*
  1
*
 70
     0
  1
*
  1
*
  0
XRECORD
  5
8A
102
{ACAD_REACTORS
330
14
102
}
100
AcDbXrecord
  1
BB
  1
BB*
  1
*
  1
*
 70
     0
  1
*
  1
*
  0
XRECORD
  5
8B
102
{ACAD_REACTORS
330
14
102
}
100
AcDbXrecord
  1
BIND
  1
*$0$*
  1
*
  1
*
 70
     0
  1
*
  1
*
  0
XRECORD
  5
8C
102
{ACAD_REACTORS
330
14
102
}
100
AcDbXrecord
  1
bloq
  1
*
  1
*
  1
*
 70
   259
  1
*
  1
*
  0
XRECORD
  5
8D
102
{ACAD_REACTORS
330
14
102
}
100
AcDbXrecord
  1
bloqueada
  1
*
  1
*
  1
*
 70
   256
  1
*
  1
*
  0
XRECORD
  5
8E
102
{ACAD_REACTORS
330
14
102
}
100
AcDbXrecord
  1
bloqueadas
  1
*
  1
*
  1
*
 70
   256
  1
*
  1
*
  0
XRECORD
  5
8F
102
{ACAD_REACTORS
330
14
102
}
100
AcDbXrecord
  1
blue
  1
*
  1
blue
  1
*
 70
     0
  1
*
  1
*
  0
XRECORD
  5
90
102
{ACAD_REACTORS
330
14
102
}
100
AcDbXrecord
  1
boma
  1
*boma*
  1
*
  1
*
 70
     0
  1
*
  1
*
  0
XRECORD
  5
91
102
{ACAD_REACTORS
330
14
102
}
100
AcDbXrecord
  1
BORDE
  1
*|169104
  1
*
  1
*
 70
     0
  1
*
  1
*
  0
XRECORD
  5
92
102
{ACAD_REACTORS
330
14
102
}
100
AcDbXrecord
  1
boring
  1
*boring*
  1
*
  1
*
 70
     0
  1
*
  1
*
  0
XRECORD
  5
93
102
{ACAD_REACTORS
330
14
102
}
100
AcDbXrecord
  1
BUS
  1
BU**
  1
*
  1
*
 70
     0
  1
*
  1
*
  0
XRECORD
  5
94
102
{ACAD_REACTORS
330
14
102
}
100
AcDbXrecord
  1
C
  1
C*
  1
*
  1
*
 70
     0
  1
*
  1
*
  0
XRECORD
  5
95
102
{ACAD_REACTORS
330
14
102
}
100
AcDbXrecord
  1
c-
  1
c-*
  1
*
  1
*
 70
     0
  1
*
  1
*
  0
XRECORD
  5
96
102
{ACAD_REACTORS
330
14
102
}
100
AcDbXrecord
  1
C1
  1
C1*
  1
*
  1
*
 70
     0
  1
*
  1
*
  0
XRECORD
  5
97
102
{ACAD_REACTORS
330
14
102
}
100
AcDbXrecord
  1
C2
  1
C2*
  1
*
  1
*
 70
     0
  1
*
  1
*
  0
XRECORD
  5
98
102
{ACAD_REACTORS
330
14
102
}
100
AcDbXrecord
  1
C3
  1
C3*
  1
*
  1
*
 70
     0
  1
*
  1
*
  0
XRECORD
  5
99
102
{ACAD_REACTORS
330
14
102
}
100
AcDbXrecord
  1
C4
  1
C4*
  1
*
  1
*
 70
     0
  1
*
  1
*
  0
XRECORD
  5
9A
102
{ACAD_REACTORS
330
14
102
}
100
AcDbXrecord
  1
C5
  1
C5*
  1
*
  1
*
 70
     0
  1
*
  1
*
  0
XRECORD
  5
9B
102
{ACAD_REACTORS
330
14
102
}
100
AcDbXrecord
  1
C6
  1
C6*
  1
*
  1
*
 70
     0
  1
*
  1
*
  0
XRECORD
  5
9C
102
{ACAD_REACTORS
330
14
102
}
100
AcDbXrecord
  1
CÁMARA
  1
CÁMARAS*
  1
*
  1
*
 70
     0
  1
*
  1
*
  0
XRECORD
  5
9D
102
{ACAD_REACTORS
330
14
102
}
100
AcDbXrecord
  1
capa 0
  1
0
  1
*
  1
*
 70
     0
  1
*
  1
*
  0
XRECORD
  5
9E
102
{ACAD_REACTORS
330
14
102
}
100
AcDbXrecord
  1
capas activadas
  1
*
  1
*
  1
*
 70
     1
  1
*
  1
*
  0
XRECORD
  5
9F
102
{ACAD_REACTORS
330
14
102
}
100
AcDbXrecord
  1
capas desactivadas
  1
*
  1
*
  1
*
 70
     3
  1
*
  1
*
  0
XRECORD
  5
A0
102
{ACAD_REACTORS
330
14
102
}
100
AcDbXrecord
  1
capas p1
  1
p1*
  1
*
  1
*
 70
     0
  1
*
  1
*
  0
XRECORD
  5
A1
102
{ACAD_REACTORS
330
14
102
}
100
AcDbXrecord
  1
car
  1
*car*
  1
*
  1
*
 70
     0
  1
*
  1
*
  0
XRECORD
  5
A2
102
{ACAD_REACTORS
330
14
102
}
100
AcDbXrecord
  1
CARCYCLE
  1
*CARCYCLE*
  1
*
  1
*
 70
     0
  1
*
  1
*
  0
XRECORD
  5
A3
102
{ACAD_REACTORS
330
14
102
}
100
AcDbXrecord
  1
CARPINTERIA
  1
CARP*
  1
*
  1
*
 70
     0
  1
*
  1
*
  0
XRECORD
  5
A4
102
{ACAD_REACTORS
330
14
102
}
100
AcDbXrecord
  1
CARRITALYBASE
  1
*
  1
*
  1
*
 70
     0
  1
*
  1
*
  0
XRECORD
  5
A5
102
{ACAD_REACTORS
330
14
102
}
100
AcDbXrecord
  1
CARRIZOS3FINAL
  1
*
  1
*
  1
*
 70
     0
  1
*
  1
*
  0
XRECORD
  5
A6
102
{ACAD_REACTORS
330
14
102
}
100
AcDbXrecord
  1
CARTO
  1
CART*
  1
*
  1
*
 70
     0
  1
*
  1
*
  0
XRECORD
  5
A7
102
{ACAD_REACTORS
330
14
102
}
100
AcDbXrecord
  1
cartografia
  1
*
  1
8,9
  1
*
 70
     0
  1
*
  1
*
  0
XRECORD
  5
A8
102
{ACAD_REACTORS
330
14
102
}
100
AcDbXrecord
  1
CB_LAYERS
  1
CB*
  1
*
  1
*
 70
     0
  1
*
  1
*
  0
XRECORD
  5
A9
102
{ACAD_REACTORS
330
14
102
}
100
AcDbXrecord
  1
CEILING
  1
*CEIL*
  1
*
  1
*
 70
     0
  1
*
  1
*
  0
XRECORD
  5
AA
102
{ACAD_REACTORS
330
14
102
}
100
AcDbXrecord
  1
cel
  1
cel*
  1
*
  1
*
 70
     0
  1
*
  1
*
  0
XRECORD
  5
AB
102
{ACAD_REACTORS
330
14
102
}
100
AcDbXrecord
  1
cel-ras
  1
cel*
  1
*
  1
*
 70
     0
  1
*
  1
*
  0
XRECORD
  5
AC
102
{ACAD_REACTORS
330
14
102
}
100
AcDbXrecord
  1
cian
  1
*
  1
4
  1
*
 70
    12
  1
*
  1
*
  0
XRECORD
  5
AD
102
{ACAD_REACTORS
330
14
102
}
100
AcDbXrecord
  1
CLAD
  1
*CLAD*
  1
*
  1
*
 70
     0
  1
*
  1
*
  0
XRECORD
  5
AE
102
{ACAD_REACTORS
330
14
102
}
100
AcDbXrecord
  1
clg
  1
*clg*
  1
*
  1
*
 70
     0
  1
*
  1
*
  0
XRECORD
  5
AF
102
{ACAD_REACTORS
330
14
102
}
100
AcDbXrecord
  1
clmn
  1
*clmn*
  1
*
  1
*
 70
     0
  1
*
  1
*
  0
XRECORD
  5
B0
102
{ACAD_REACTORS
330
14
102
}
100
AcDbXrecord
  1
CLNG
  1
*CLNG*
  1
*
  1
*
 70
     0
  1
*
  1
*
  0
XRECORD
  5
B1
102
{ACAD_REACTORS
330
14
102
}
100
AcDbXrecord
  1
color
  1
*
  1
2
  1
*
 70
     0
  1
*
  1
*
  0
XRECORD
  5
B2
102
{ACAD_REACTORS
330
14
102
}
100
AcDbXrecord
  1
color-8
  1
*
  1
8
  1
*
 70
     0
  1
*
  1
*
  0
XRECORD
  5
B3
102
{ACAD_REACTORS
330
14
102
}
100
AcDbXrecord
  1
COLOR 8
  1
*
  1
8
  1
*
 70
     0
  1
*
  1
*
  0
XRECORD
  5
B4
102
{ACAD_REACTORS
330
14
102
}
100
AcDbXrecord
  1
color 9
  1
*
  1
9
  1
*
 70
     0
  1
*
  1
*
  0
XRECORD
  5
B5
102
{ACAD_REACTORS
330
14
102
}
100
AcDbXrecord
  1
COLS
  1
*COLS*
  1
*
  1
*
 70
     0
  1
*
  1
*
  0
XRECORD
  5
B6
102
{ACAD_REACTORS
330
14
102
}
100
AcDbXrecord
  1
com
  1
*com*
  1
*
  1
*
 70
     0
  1
*
  1
*
  0
XRECORD
  5
B7
102
{ACAD_REACTORS
330
14
102
}
100
AcDbXrecord
  1
COMUNES
  1
PBP1P2P3P4PaPqS1S2_G*
  1
*
  1
*
 70
     0
  1
*
  1
*
  0
XRECORD
  5
B8
102
{ACAD_REACTORS
330
14
102
}
100
AcDbXrecord
  1
contours1
  1
*con*
  1
*
  1
*
 70
     0
  1
*
  1
*
  0
XRECORD
  5
B9
102
{ACAD_REACTORS
330
14
102
}
100
AcDbXrecord
  1
CORE
  1
*CORE
  1
*
  1
*
 70
     0
  1
*
  1
*
  0
XRECORD
  5
BA
102
{ACAD_REACTORS
330
14
102
}
100
AcDbXrecord
  1
Cota
  1
*189703*
  1
*
  1
*
 70
     0
  1
*
  1
*
  0
XRECORD
  5
BB
102
{ACAD_REACTORS
330
14
102
}
100
AcDbXrecord
  1
COTAINT
  1
*COTAINT,*TERRAINT
  1
*
  1
*
 70
     0
  1
*
  1
*
  0
XRECORD
  5
BC
102
{ACAD_REACTORS
330
14
102
}
100
AcDbXrecord
  1
COTAS
  1
*
  1
*
  1
*
 70
     0
  1
*
  1
*
  0
XRECORD
  5
BD
102
{ACAD_REACTORS
330
14
102
}
100
AcDbXrecord
  1
COTAS-ACABADOS
  1
*_CA
  1
*
  1
*
 70
     0
  1
*
  1
*
  0
XRECORD
  5
BE
102
{ACAD_REACTORS
330
14
102
}
100
AcDbXrecord
  1
COTAS_ACABADOS
  1
*_CA
  1
*
  1
*
 70
     0
  1
*
  1
*
  0
XRECORD
  5
BF
102
{ACAD_REACTORS
330
14
102
}
100
AcDbXrecord
  1
COTES
  1
*COT*
  1
*
  1
*
 70
     0
  1
*
  1
*
  0
XRECORD
  5
C0
102
{ACAD_REACTORS
330
14
102
}
100
AcDbXrecord
  1
couleur
  1
couleur*
  1
*
  1
*
 70
     0
  1
*
  1
*
  0
XRECORD
  5
C1
102
{ACAD_REACTORS
330
14
102
}
100
AcDbXrecord
  1
CPI
  1
CPI*
  1
*
  1
*
 70
     0
  1
*
  1
*
  0
XRECORD
  5
C2
102
{ACAD_REACTORS
330
14
102
}
100
AcDbXrecord
  1
CUBICAL
  1
*CUB*
  1
*
  1
*
 70
     0
  1
*
  1
*
  0
XRECORD
  5
C3
102
{ACAD_REACTORS
330
14
102
}
100
AcDbXrecord
  1
CUBIERTA
  1
*P03
  1
*
  1
*
 70
     0
  1
*
  1
*
  0
XRECORD
  5
C4
102
{ACAD_REACTORS
330
14
102
}
100
AcDbXrecord
  1
curva
  1
*cur*
  1
*
  1
*
 70
     0
  1
*
  1
*
  0
XRECORD
  5
C5
102
{ACAD_REACTORS
330
14
102
}
100
AcDbXrecord
  1
CYAN
  1
*
  1
*CYAN
  1
*
 70
     0
  1
*
  1
*
  0
XRECORD
  5
C6
102
{ACAD_REACTORS
330
14
102
}
100
AcDbXrecord
  1
cycl
  1
*cycl*
  1
*
  1
*
 70
     0
  1
*
  1
*
  0
XRECORD
  5
C7
102
{ACAD_REACTORS
330
14
102
}
100
AcDbXrecord
  1
CYCLE
  1
*CYCL*
  1
*
  1
*
 70
     0
  1
*
  1
*
  0
XRECORD
  5
C8
102
{ACAD_REACTORS
330
14
102
}
100
AcDbXrecord
  1
D1
  1
D1*
  1
*
  1
*
 70
     0
  1
*
  1
*
  0
XRECORD
  5
C9
102
{ACAD_REACTORS
330
14
102
}
100
AcDbXrecord
  1
D2
  1
D2*
  1
*
  1
*
 70
     0
  1
*
  1
*
  0
XRECORD
  5
CA
102
{ACAD_REACTORS
330
14
102
}
100
AcDbXrecord
  1
D3
  1
D3*
  1
*
  1
*
 70
     0
  1
*
  1
*
  0
XRECORD
  5
CB
102
{ACAD_REACTORS
330
14
102
}
100
AcDbXrecord
  1
D4
  1
D4*
  1
*
  1
*
 70
     0
  1
*
  1
*
  0
XRECORD
  5
CC
102
{ACAD_REACTORS
330
14
102
}
100
AcDbXrecord
  1
D5
  1
D5*
  1
*
  1
*
 70
     0
  1
*
  1
*
  0
XRECORD
  5
CD
102
{ACAD_REACTORS
330
14
102
}
100
AcDbXrecord
  1
Del dibujo
  1
*
  1
*
  1
*
 70
   768
  1
*
  1
*
  0
XRECORD
  5
CE
102
{ACAD_REACTORS
330
14
102
}
100
AcDbXrecord
  1
demo
  1
*-demo-*
  1
*
  1
*
 70
  3415
  1
*
  1
*
  0
XRECORD
  5
CF
102
{ACAD_REACTORS
330
14
102
}
100
AcDbXrecord
  1
des
  1
*
  1
*
  1
*
 70
     4
  1
*
  1
*
  0
XRECORD
  5
D0
102
{ACAD_REACTORS
330
14
102
}
100
AcDbXrecord
  1
DESACTIVAS
  1
*
  1
*
  1
*
 70
     3
  1
*
  1
*
  0
XRECORD
  5
D1
102
{ACAD_REACTORS
330
14
102
}
100
AcDbXrecord
  1
DETAIL
  1
D-*
  1
*
  1
*
 70
     0
  1
*
  1
*
  0
XRECORD
  5
D2
102
{ACAD_REACTORS
330
14
102
}
100
AcDbXrecord
  1
DETAILS
  1
D-*
  1
*
  1
*
 70
     0
  1
*
  1
*
  0
XRECORD
  5
D3
102
{ACAD_REACTORS
330
14
102
}
100
AcDbXrecord
  1
detalle
  1
d-*
  1
*
  1
*
 70
     0
  1
*
  1
*
  0
XRECORD
  5
D4
102
{ACAD_REACTORS
330
14
102
}
100
AcDbXrecord
  1
detalles
  1
det*
  1
*
  1
*
 70
     0
  1
*
  1
*
  0
XRECORD
  5
D5
102
{ACAD_REACTORS
330
14
102
}
100
AcDbXrecord
  1
DIB
  1
*DIB*
  1
*
  1
*
 70
     0
  1
*
  1
*
  0
XRECORD
  5
D6
102
{ACAD_REACTORS
330
14
102
}
100
AcDbXrecord
  1
DIM
  1
*DIM*
  1
*
  1
*
 70
     0
  1
*
  1
*
  0
XRECORD
  5
D7
102
{ACAD_REACTORS
330
14
102
}
100
AcDbXrecord
  1
Dimensional Control
  1
*di*|*
  1
*
  1
*
 70
     0
  1
*
  1
*
  0
XRECORD
  5
D8
102
{ACAD_REACTORS
330
14
102
}
100
AcDbXrecord
  1
dims
  1
*dim*
  1
*
  1
*
 70
     0
  1
*
  1
*
  0
XRECORD
  5
D9
102
{ACAD_REACTORS
330
14
102
}
100
AcDbXrecord
  1
DOOR
  1
*D*R*
  1
*
  1
*
 70
     0
  1
*
  1
*
  0
XRECORD
  5
DA
102
{ACAD_REACTORS
330
14
102
}
100
AcDbXrecord
  1
doors
  1
*door*
  1
*
  1
*
 70
     0
  1
*
  1
*
  0
XRECORD
  5
DB
102
{ACAD_REACTORS
330
14
102
}
100
AcDbXrecord
  1
DREN
  1
DREN*
  1
*
  1
*
 70
     0
  1
*
  1
*
  0
XRECORD
  5
DC
102
{ACAD_REACTORS
330
14
102
}
100
AcDbXrecord
  1
drenagem
  1
-d-*,-DRENAGEM
  1
*
  1
*
 70
     0
  1
*
  1
*
  0
XRECORD
  5
DD
102
{ACAD_REACTORS
330
14
102
}
100
AcDbXrecord
  1
DUCT
  1
*DUCT*
  1
CYAN
  1
*
 70
     0
  1
*
  1
*
  0
XRECORD
  5
DE
102
{ACAD_REACTORS
330
14
102
}
100
AcDbXrecord
  1
dust
  1
*dust
  1
*
  1
*
 70
     0
  1
*
  1
*
  0
XRECORD
  5
DF
102
{ACAD_REACTORS
330
14
102
}
100
AcDbXrecord
  1
E
  1
E*
  1
*
  1
*
 70
     0
  1
*
  1
*
  0
XRECORD
  5
E0
102
{ACAD_REACTORS
330
14
102
}
100
AcDbXrecord
  1
E1
  1
E1*
  1
*
  1
*
 70
     0
  1
*
  1
*
  0
XRECORD
  5
E1
102
{ACAD_REACTORS
330
14
102
}
100
AcDbXrecord
  1
E3
  1
E3*
  1
*
  1
*
 70
     1
  1
*
  1
*
  0
XRECORD
  5
E2
102
{ACAD_REACTORS
330
14
102
}
100
AcDbXrecord
  1
eixos
  1
*eix*
  1
*
  1
*
 70
     0
  1
*
  1
*
  0
XRECORD
  5
E3
102
{ACAD_REACTORS
330
14
102
}
100
AcDbXrecord
  1
eje
  1
e*
  1
*
  1
*
 70
     0
  1
*
  1
*
  0
XRECORD
  5
E4
102
{ACAD_REACTORS
330
14
102
}
100
AcDbXrecord
  1
elect
  1
*electrical*
  1
*
  1
*
 70
     0
  1
*
  1
*
  0
XRECORD
  5
E5
102
{ACAD_REACTORS
330
14
102
}
100
AcDbXrecord
  1
ELEV
  1
*ELEV*
  1
*
  1
*
 70
     0
  1
*
  1
*
  0
XRECORD
  5
E6
102
{ACAD_REACTORS
330
14
102
}
100
AcDbXrecord
  1
ellipse
  1
*ellip*
  1
*
  1
*
 70
     0
  1
*
  1
*
  0
XRECORD
  5
E7
102
{ACAD_REACTORS
330
14
102
}
100
AcDbXrecord
  1
ENSE
  1
*
  1
*
  1
*
 70
     1
  1
*
  1
*
  0
XRECORD
  5
E8
102
{ACAD_REACTORS
330
14
102
}
100
AcDbXrecord
  1
entorn
  1
entorn*
  1
*
  1
*
 70
     0
  1
*
  1
*
  0
XRECORD
  5
E9
102
{ACAD_REACTORS
330
14
102
}
100
AcDbXrecord
  1
ENTRADA
  1
*_EE
  1
*
  1
*
 70
     0
  1
*
  1
*
  0
XRECORD
  5
EA
102
{ACAD_REACTORS
330
14
102
}
100
AcDbXrecord
  1
Entramado-Fachadas
  1
e-per*
  1
*
  1
*
 70
     0
  1
*
  1
*
  0
XRECORD
  5
EB
102
{ACAD_REACTORS
330
14
102
}
100
AcDbXrecord
  1
Environmental
  1
*en*|*
  1
*
  1
*
 70
     0
  1
*
  1
*
  0
XRECORD
  5
EC
102
{ACAD_REACTORS
330
14
102
}
100
AcDbXrecord
  1
eq
  1
*eq*
  1
*
  1
*
 70
     0
  1
*
  1
*
  0
XRECORD
  5
ED
102
{ACAD_REACTORS
330
14
102
}
100
AcDbXrecord
  1
EQPM
  1
A*
  1
*
  1
*
 70
     0
  1
*
  1
*
  0
XRECORD
  5
EE
102
{ACAD_REACTORS
330
14
102
}
100
AcDbXrecord
  1
EQU
  1
*EQ*
  1
*
  1
*
 70
     0
  1
*
  1
*
  0
XRECORD
  5
EF
102
{ACAD_REACTORS
330
14
102
}
100
AcDbXrecord
  1
escala 1-50
  1
*050-*
  1
*
  1
*
 70
     0
  1
*
  1
*
  0
XRECORD
  5
F0
102
{ACAD_REACTORS
330
14
102
}
100
AcDbXrecord
  1
escalator
  1
*esc*
  1
*
  1
*
 70
     0
  1
*
  1
*
  0
XRECORD
  5
F1
102
{ACAD_REACTORS
330
14
102
}
100
AcDbXrecord
  1
ESCALERA
  1
ESCAL*
  1
*
  1
*
 70
     0
  1
*
  1
*
  0
XRECORD
  5
F2
102
{ACAD_REACTORS
330
14
102
}
100
AcDbXrecord
  1
ESPAI VERD
  1
*P2*
  1
*
  1
*
 70
     0
  1
*
  1
*
  0
XRECORD
  5
F3
102
{ACAD_REACTORS
330
14
102
}
100
AcDbXrecord
  1
Esplanade
  1
x-e*
  1
*
  1
*
 70
     0
  1
*
  1
*
  0
XRECORD
  5
F4
102
{ACAD_REACTORS
330
14
102
}
100
AcDbXrecord
  1
ESQUEMAS
  1
ESQUEMA*
  1
*
  1
*
 70
     0
  1
*
  1
*
  0
XRECORD
  5
F5
102
{ACAD_REACTORS
330
14
102
}
100
AcDbXrecord
  1
estru00
  1
estru*00
  1
*
  1
*
 70
     0
  1
*
  1
*
  0
XRECORD
  5
F6
102
{ACAD_REACTORS
330
14
102
}
100
AcDbXrecord
  1
ESTRUCTURA
  1
EST*
  1
*
  1
*
 70
     0
  1
*
  1
*
  0
XRECORD
  5
F7
102
{ACAD_REACTORS
330
14
102
}
100
AcDbXrecord
  1
estructuras
  1
e-*
  1
*
  1
*
 70
     0
  1
*
  1
*
  0
XRECORD
  5
F8
102
{ACAD_REACTORS
330
14
102
}
100
AcDbXrecord
  1
EXHS
  1
*EXHS*
  1
CYAN
  1
*
 70
     0
  1
*
  1
*
  0
XRECORD
  5
F9
102
{ACAD_REACTORS
330
14
102
}
100
AcDbXrecord
  1
EXIS
  1
EXIS*
  1
*
  1
*
 70
     0
  1
*
  1
*
  0
XRECORD
  5
FA
102
{ACAD_REACTORS
330
14
102
}
100
AcDbXrecord
  1
Existing
  1
*X*
  1
*
  1
*
 70
     0
  1
*
  1
*
  0
XRECORD
  5
FB
102
{ACAD_REACTORS
330
14
102
}
100
AcDbXrecord
  1
Existing Property Line
  1
*pr*|*
  1
*
  1
*
 70
     0
  1
*
  1
*
  0
XRECORD
  5
FC
102
{ACAD_REACTORS
330
14
102
}
100
AcDbXrecord
  1
Existing Topography
  1
*ex*|*
  1
*
  1
*
 70
     0
  1
*
  1
*
  0
XRECORD
  5
FD
102
{ACAD_REACTORS
330
14
102
}
100
AcDbXrecord
  1
Existing Utilities
  1
*eu*|*
  1
*
  1
*
 70
     0
  1
*
  1
*
  0
XRECORD
  5
FE
102
{ACAD_REACTORS
330
14
102
}
100
AcDbXrecord
  1
exterior
  1
exterior*
  1
*
  1
*
 70
     0
  1
*
  1
*
  0
XRECORD
  5
FF
102
{ACAD_REACTORS
330
14
102
}
100
AcDbXrecord
  1
F1
  1
*F1
  1
*
  1
*
 70
     0
  1
*
  1
*
  0
XRECORD
  5
100
102
{ACAD_REACTORS
330
14
102
}
100
AcDbXrecord
  1
F2
  1
*F2
  1
*
  1
*
 70
     0
  1
*
  1
*
  0
XRECORD
  5
101
102
{ACAD_REACTORS
330
14
102
}
100
AcDbXrecord
  1
face
  1
*.face
  1
*
  1
*
 70
     0
  1
*
  1
*
  0
XRECORD
  5
102
102
{ACAD_REACTORS
330
14
102
}
100
AcDbXrecord
  1
face-core
  1
*.face-core
  1
*
  1
*
 70
     0
  1
*
  1
*
  0
XRECORD
  5
103
102
{ACAD_REACTORS
330
14
102
}
100
AcDbXrecord
  1
FACHADA
  1
*_FA
  1
*
  1
*
 70
     0
  1
*
  1
*
  0
XRECORD
  5
104
102
{ACAD_REACTORS
330
14
102
}
100
AcDbXrecord
  1
FACHADAS
  1
FACHADA,CARPIN,EJES,TEJADO,PROFORJA,ESCALERA
  1
*
  1
*
 70
     0
  1
*
  1
*
  0
XRECORD
  5
105
102
{ACAD_REACTORS
330
14
102
}
100
AcDbXrecord
  1
fall
  1
*fall*
  1
*
  1
*
 70
     0
  1
*
  1
*
  0
XRECORD
  5
106
102
{ACAD_REACTORS
330
14
102
}
100
AcDbXrecord
  1
FALLOS
  1
FALLOS*
  1
*
  1
*
 70
     0
  1
*
  1
*
  0
XRECORD
  5
107
102
{ACAD_REACTORS
330
14
102
}
100
AcDbXrecord
  1
fancoil
  1
f-*
  1
*
  1
*
 70
     0
  1
*
  1
*
  0
XRECORD
  5
108
102
{ACAD_REACTORS
330
14
102
}
100
AcDbXrecord
  1
Fecales
  1
Fecales*
  1
*
  1
*
 70
     0
  1
*
  1
*
  0
XRECORD
  5
109
102
{ACAD_REACTORS
330
14
102
}
100
AcDbXrecord
  1
ff200m
  1
*050-*,*020-*,*d0-*
  1
*
  1
*
 70
     0
  1
*
  1
*
  0
XRECORD
  5
10A
102
{ACAD_REACTORS
330
14
102
}
100
AcDbXrecord
  1
FIN
  1
*FIN*
  1
*
  1
*
 70
     0
  1
*
  1
*
  0
XRECORD
  5
10B
102
{ACAD_REACTORS
330
14
102
}
100
AcDbXrecord
  1
FINISH
  1
A*
  1
*
  1
*
 70
     0
  1
*
  1
*
  0
XRECORD
  5
10C
102
{ACAD_REACTORS
330
14
102
}
100
AcDbXrecord
  1
fire
  1
*fire*
  1
*
  1
*
 70
     0
  1
*
  1
*
  0
XRECORD
  5
10D
102
{ACAD_REACTORS
330
14
102
}
100
AcDbXrecord
  1
FIX
  1
*FIX*
  1
*
  1
*
 70
     0
  1
*
  1
*
  0
XRECORD
  5
10E
102
{ACAD_REACTORS
330
14
102
}
100
AcDbXrecord
  1
Floor
  1
A-Flor*
  1
*
  1
*
 70
     0
  1
*
  1
*
  0
XRECORD
  5
10F
102
{ACAD_REACTORS
330
14
102
}
100
AcDbXrecord
  1
FM
  1
FM*
  1
*
  1
*
 70
     0
  1
*
  1
*
  0
XRECORD
  5
110
102
{ACAD_REACTORS
330
14
102
}
100
AcDbXrecord
  1
freeze
  1
*
  1
*
  1
*
 70
     4
  1
*
  1
*
  0
XRECORD
  5
111
102
{ACAD_REACTORS
330
14
102
}
100
AcDbXrecord
  1
freezed
  1
*
  1
*
  1
*
 70
     4
  1
*
  1
*
  0
XRECORD
  5
112
102
{ACAD_REACTORS
330
14
102
}
100
AcDbXrecord
  1
Frozen
  1
*
  1
*
  1
*
 70
     4
  1
*
  1
*
  0
XRECORD
  5
113
102
{ACAD_REACTORS
330
14
102
}
100
AcDbXrecord
  1
furn
  1
*furn*
  1
*
  1
*
 70
     0
  1
*
  1
*
  0
XRECORD
  5
114
102
{ACAD_REACTORS
330
14
102
}
100
AcDbXrecord
  1
FURNITURE
  1
*FUR*
  1
*
  1
*
 70
     0
  1
*
  1
*
  0
XRECORD
  5
115
102
{ACAD_REACTORS
330
14
102
}
100
AcDbXrecord
  1
fus
  1
*fus*
  1
*
  1
*
 70
     1
  1
*
  1
*
  0
XRECORD
  5
116
102
{ACAD_REACTORS
330
14
102
}
100
AcDbXrecord
  1
Gas
  1
Gas*
  1
*
  1
*
 70
     0
  1
*
  1
*
  0
XRECORD
  5
117
102
{ACAD_REACTORS
330
14
102
}
100
AcDbXrecord
  1
gel
  1
*
  1
*
  1
*
 70
    12
  1
*
  1
*
  0
XRECORD
  5
118
102
{ACAD_REACTORS
330
14
102
}
100
AcDbXrecord
  1
Geotechnical
  1
*ge*|*
  1
*
  1
*
 70
     0
  1
*
  1
*
  0
XRECORD
  5
119
102
{ACAD_REACTORS
330
14
102
}
100
AcDbXrecord
  1
gilltemp
  1
*
  1
*
  1
*
 70
     0
  1
*
  1
*
  0
XRECORD
  5
11A
102
{ACAD_REACTORS
330
14
102
}
100
AcDbXrecord
  1
green
  1
*
  1
3
  1
*
 70
    12
  1
*
  1
*
  0
XRECORD
  5
11B
102
{ACAD_REACTORS
330
14
102
}
100
AcDbXrecord
  1
grid
  1
*grid*
  1
*
  1
*
 70
     0
  1
*
  1
*
  0
XRECORD
  5
11C
102
{ACAD_REACTORS
330
14
102
}
100
AcDbXrecord
  1
gris8
  1
*
  1
8
  1
*
 70
    12
  1
*
  1
*
  0
XRECORD
  5
11D
102
{ACAD_REACTORS
330
14
102
}
100
AcDbXrecord
  1
gris9
  1
*
  1
9
  1
*
 70
     0
  1
*
  1
*
  0
XRECORD
  5
11E
102
{ACAD_REACTORS
330
14
102
}
100
AcDbXrecord
  1
grises
  1
h*
  1
*
  1
*
 70
     0
  1
*
  1
*
  0
XRECORD
  5
11F
102
{ACAD_REACTORS
330
14
102
}
100
AcDbXrecord
  1
gro
  1
*gro*
  1
*
  1
*
 70
     0
  1
*
  1
*
  0
XRECORD
  5
120
102
{ACAD_REACTORS
330
14
102
}
100
AcDbXrecord
  1
GRP
  1
*GPR*
  1
*
  1
*
 70
     0
  1
*
  1
*
  0
XRECORD
  5
121
102
{ACAD_REACTORS
330
14
102
}
100
AcDbXrecord
  1
h-
  1
h-*
  1
*
  1
*
 70
     0
  1
*
  1
*
  0
XRECORD
  5
122
102
{ACAD_REACTORS
330
14
102
}
100
AcDbXrecord
  1
HA
  1
*HA*
  1
*
  1
*
 70
     0
  1
*
  1
*
  0
XRECORD
  5
123
102
{ACAD_REACTORS
330
14
102
}
100
AcDbXrecord
  1
HA-GENE-AR
  1
*HA-GENE-AR
  1
*
  1
*
 70
     0
  1
*
  1
*
  0
XRECORD
  5
124
102
{ACAD_REACTORS
330
14
102
}
100
AcDbXrecord
  1
HAOU
  1
HA*,OU-AREA*
  1
*
  1
*
 70
     0
  1
*
  1
*
  0
XRECORD
  5
125
102
{ACAD_REACTORS
330
14
102
}
100
AcDbXrecord
  1
hatch
  1
*HATCH*
  1
*
  1
*
 70
     0
  1
*
  1
*
  0
XRECORD
  5
126
102
{ACAD_REACTORS
330
14
102
}
100
AcDbXrecord
  1
HATCH-SHADE
  1
HATCH*,*SHADE*
  1
*
  1
*
 70
     0
  1
*
  1
*
  0
XRECORD
  5
127
102
{ACAD_REACTORS
330
14
102
}
100
AcDbXrecord
  1
Hidden
  1
*-hd
  1
*
  1
*
 70
     0
  1
*
  1
*
  0
XRECORD
  5
128
102
{ACAD_REACTORS
330
14
102
}
100
AcDbXrecord
  1
hojas
  1
*hojas
  1
*
  1
*
 70
     0
  1
*
  1
*
  0
XRECORD
  5
129
102
{ACAD_REACTORS
330
14
102
}
100
AcDbXrecord
  1
I
  1
I*
  1
*
  1
*
 70
     0
  1
*
  1
*
  0
XRECORD
  5
12A
102
{ACAD_REACTORS
330
14
102
}
100
AcDbXrecord
  1
IDEN
  1
*IDEN
  1
*
  1
*
 70
     0
  1
*
  1
*
  0
XRECORD
  5
12B
102
{ACAD_REACTORS
330
14
102
}
100
AcDbXrecord
  1
il
  1
*
  1
*
  1
*
 70
    48
  1
*
  1
*
  0
XRECORD
  5
12C
102
{ACAD_REACTORS
330
14
102
}
100
AcDbXrecord
  1
ilum
  1
i-*
  1
*
  1
*
 70
     0
  1
*
  1
*
  0
XRECORD
  5
12D
102
{ACAD_REACTORS
330
14
102
}
100
AcDbXrecord
  1
img
  1
*img*
  1
*
  1
*
 70
     0
  1
*
  1
*
  0
XRECORD
  5
12E
102
{ACAD_REACTORS
330
14
102
}
100
AcDbXrecord
  1
inac
  1
*
  1
*
  1
*
 70
     4
  1
*
  1
*
  0
XRECORD
  5
12F
102
{ACAD_REACTORS
330
14
102
}
100
AcDbXrecord
  1
INS
  1
*INS*
  1
*
  1
*
 70
     0
  1
*
  1
*
  0
XRECORD
  5
130
102
{ACAD_REACTORS
330
14
102
}
100
AcDbXrecord
  1
INST_TECHO
  1
*TECHO
  1
*
  1
*
 70
     0
  1
*
  1
*
  0
XRECORD
  5
131
102
{ACAD_REACTORS
330
14
102
}
100
AcDbXrecord
  1
INSTALACION_TECHO
  1
*TECHO
  1
*
  1
*
 70
     0
  1
*
  1
*
  0
XRECORD
  5
132
102
{ACAD_REACTORS
330
14
102
}
100
AcDbXrecord
  1
INSTALACIONES_TECHO
  1
*_T
  1
*
  1
*
 70
     0
  1
*
  1
*
  0
XRECORD
  5
133
102
{ACAD_REACTORS
330
14
102
}
100
AcDbXrecord
  1
INTERIOR
  1
*I-*
  1
*
  1
*
 70
     0
  1
*
  1
*
  0
XRECORD
  5
134
102
{ACAD_REACTORS
330
14
102
}
100
AcDbXrecord
  1
INU
  1
*
  1
*
  1
*
 70
     4
  1
*
  1
*
  0
XRECORD
  5
135
102
{ACAD_REACTORS
330
14
102
}
100
AcDbXrecord
  1
INUTIIL
  1
*
  1
*
  1
*
 70
     1
  1
*
  1
*
  0
XRECORD
  5
136
102
{ACAD_REACTORS
330
14
102
}
100
AcDbXrecord
  1
jalonamiento
  1
*iento
  1
*
  1
*
 70
     0
  1
*
  1
*
  0
XRECORD
  5
137
102
{ACAD_REACTORS
330
14
102
}
100
AcDbXrecord
  1
k52
  1
*
  1
*
  1
*
 70
     0
  1
*
  1
*
  0
XRECORD
  5
138
102
{ACAD_REACTORS
330
14
102
}
100
AcDbXrecord
  1
KAYDIRAKLAR
  1
KAY-*
  1
*
  1
*
 70
     0
  1
*
  1
*
  0
XRECORD
  5
139
102
{ACAD_REACTORS
330
14
102
}
100
AcDbXrecord
  1
KEY
  1
*KEY*
  1
*
  1
*
 70
     0
  1
*
  1
*
  0
XRECORD
  5
13A
102
{ACAD_REACTORS
330
14
102
}
100
AcDbXrecord
  1
KONSOLLAR
  1
KONSOL*
  1
*
  1
*
 70
     0
  1
*
  1
*
  0
XRECORD
  5
13B
102
{ACAD_REACTORS
330
14
102
}
100
AcDbXrecord
  1
LABEL
  1
*
  1
C*
  1
*
 70
     3
  1
*
  1
*
  0
XRECORD
  5
13C
102
{ACAD_REACTORS
330
14
102
}
100
AcDbXrecord
  1
Landscaping
  1
*la*|*
  1
*
  1
*
 70
     0
  1
*
  1
*
  0
XRECORD
  5
13D
102
{ACAD_REACTORS
330
14
102
}
100
AcDbXrecord
  1
LAS-UTILES
  1
*
  1
*
  1
*
 70
    12
  1
*
  1
*
  0
XRECORD
  5
13E
102
{ACAD_REACTORS
330
14
102
}
100
AcDbXrecord
  1
LAURA
  1
L*
  1
*
  1
*
 70
     0
  1
*
  1
*
  0
XRECORD
  5
13F
102
{ACAD_REACTORS
330
14
102
}
100
AcDbXrecord
  1
Layers In This Drawing
  1
~*|*
  1
*
  1
*
 70
     0
  1
*
  1
*
  0
XRECORD
  5
140
102
{ACAD_REACTORS
330
14
102
}
100
AcDbXrecord
  1
layo
  1
*layo*
  1
*
  1
*
 70
     0
  1
*
  1
*
  0
XRECORD
  5
141
102
{ACAD_REACTORS
330
14
102
}
100
AcDbXrecord
  1
LAZY
  1
*LAZY*
  1
*
  1
*
 70
     0
  1
*
  1
*
  0
XRECORD
  5
142
102
{ACAD_REACTORS
330
14
102
}
100
AcDbXrecord
  1
LEVEL 1
  1
*BP01*
  1
*
  1
*
 70
     0
  1
*
  1
*
  0
XRECORD
  5
143
102
{ACAD_REACTORS
330
14
102
}
100
AcDbXrecord
  1
LEVEL 8
  1
*BP08*
  1
*
  1
*
 70
     0
  1
*
  1
*
  0
XRECORD
  5
144
102
{ACAD_REACTORS
330
14
102
}
100
AcDbXrecord
  1
LGA
  1
1,2,3,4,R
  1
*
  1
*
 70
     0
  1
*
  1
*
  0
XRECORD
  5
145
102
{ACAD_REACTORS
330
14
102
}
100
AcDbXrecord
  1
Lighting
  1
*lt*|*
  1
*
  1
*
 70
     0
  1
*
  1
*
  0
XRECORD
  5
146
102
{ACAD_REACTORS
330
14
102
}
100
AcDbXrecord
  1
lim
  1
lim*
  1
*
  1
*
 70
     0
  1
*
  1
*
  0
XRECORD
  5
147
102
{ACAD_REACTORS
330
14
102
}
100
AcDbXrecord
  1
LIMPIO
  1
*|020400,*|169104,*|168116,*|189703,*|168154,*|028112,*|168153,*|168114,*|167458,*|167458,*|145502,*|060370,*|021154,*|160302,*|110308,*|140102,*|160305,*|168123
  1
*
  1
*
 70
     0
  1
*
  1
*
  0
XRECORD
  5
148
102
{ACAD_REACTORS
330
14
102
}
100
AcDbXrecord
  1
line wight
  1
lw*
  1
*
  1
*
 70
     0
  1
*
  1
*
  0
XRECORD
  5
149
102
{ACAD_REACTORS
330
14
102
}
100
AcDbXrecord
  1
linea fina
  1
*20200
  1
*
  1
*
 70
     0
  1
*
  1
*
  0
XRECORD
  5
14A
102
{ACAD_REACTORS
330
14
102
}
100
AcDbXrecord
  1
LINEA GRUESA
  1
*20400
  1
*
  1
*
 70
     0
  1
*
  1
*
  0
XRECORD
  5
14B
102
{ACAD_REACTORS
330
14
102
}
100
AcDbXrecord
  1
LINEAS_REFERENCIA
  1
LINEAS_REF*
  1
*
  1
*
 70
     0
  1
*
  1
*
  0
XRECORD
  5
14C
102
{ACAD_REACTORS
330
14
102
}
100
AcDbXrecord
  1
LINES
  1
* LINE
  1
*
  1
*
 70
     0
  1
*
  1
*
  0
XRECORD
  5
14D
102
{ACAD_REACTORS
330
14
102
}
100
AcDbXrecord
  1
llums
  1
i-*
  1
*
  1
*
 70
     0
  1
*
  1
*
  0
XRECORD
  5
14E
102
{ACAD_REACTORS
330
14
102
}
100
AcDbXrecord
  1
LOCK
  1
*
  1
*
  1
*
 70
   256
  1
*
  1
*
  0
XRECORD
  5
14F
102
{ACAD_REACTORS
330
14
102
}
100
AcDbXrecord
  1
LOCKER
  1
*LOCKER*
  1
*
  1
*
 70
     0
  1
*
  1
*
  0
XRECORD
  5
150
102
{ACAD_REACTORS
330
14
102
}
100
AcDbXrecord
  1
lot
  1
p*lot*
  1
*
  1
*
 70
     0
  1
*
  1
*
  0
XRECORD
  5
151
102
{ACAD_REACTORS
330
14
102
}
100
AcDbXrecord
  1
LUNAR
  1
*
  1
*
  1
*
 70
    48
  1
*
  1
*
  0
XRECORD
  5
152
102
{ACAD_REACTORS
330
14
102
}
100
AcDbXrecord
  1
LUNAR2
  1
*
  1
*
  1
*
 70
    12
  1
*
  1
*
  0
XRECORD
  5
153
102
{ACAD_REACTORS
330
14
102
}
100
AcDbXrecord
  1
lvl
  1
*lvl*
  1
*
  1
*
 70
     0
  1
*
  1
*
  0
XRECORD
  5
154
102
{ACAD_REACTORS
330
14
102
}
100
AcDbXrecord
  1
Magenta
  1
*
  1
6
  1
Hidden
 70
    12
  1
*
  1
*
  0
XRECORD
  5
155
102
{ACAD_REACTORS
330
14
102
}
100
AcDbXrecord
  1
MARCOS
  1
MARCO*
  1
*
  1
*
 70
     0
  1
*
  1
*
  0
XRECORD
  5
156
102
{ACAD_REACTORS
330
14
102
}
100
AcDbXrecord
  1
MATAS
  1
*matas
  1
*
  1
*
 70
     0
  1
*
  1
*
  0
XRECORD
  5
157
102
{ACAD_REACTORS
330
14
102
}
100
AcDbXrecord
  1
MATERIALS
  1
M-*
  1
*
  1
*
 70
     0
  1
*
  1
*
  0
XRECORD
  5
158
102
{ACAD_REACTORS
330
14
102
}
100
AcDbXrecord
  1
mech
  1
m-*
  1
*
  1
*
 70
     0
  1
*
  1
*
  0
XRECORD
  5
159
102
{ACAD_REACTORS
330
14
102
}
100
AcDbXrecord
  1
Media Tension
  1
Media*
  1
*
  1
*
 70
     0
  1
*
  1
*
  0
XRECORD
  5
15A
102
{ACAD_REACTORS
330
14
102
}
100
AcDbXrecord
  1
Medical
  1
p-mdgs-*
  1
*
  1
*
 70
     0
  1
*
  1
*
  0
XRECORD
  5
15B
102
{ACAD_REACTORS
330
14
102
}
100
AcDbXrecord
  1
MEUS
  1
G-*
  1
*
  1
*
 70
     0
  1
*
  1
*
  0
XRECORD
  5
15C
102
{ACAD_REACTORS
330
14
102
}
100
AcDbXrecord
  1
MEXT
  1
*M_EXT*
  1
*
  1
*
 70
     0
  1
*
  1
*
  0
XRECORD
  5
15D
102
{ACAD_REACTORS
330
14
102
}
100
AcDbXrecord
  1
mezz
  1
*mezz*
  1
*
  1
*
 70
     0
  1
*
  1
*
  0
XRECORD
  5
15E
102
{ACAD_REACTORS
330
14
102
}
100
AcDbXrecord
  1
mill
  1
*mill*
  1
*
  1
*
 70
     0
  1
*
  1
*
  0
XRECORD
  5
15F
102
{ACAD_REACTORS
330
14
102
}
100
AcDbXrecord
  1
MOBILIARIO
  1
MOB*
  1
*
  1
*
 70
     0
  1
*
  1
*
  0
XRECORD
  5
160
102
{ACAD_REACTORS
330
14
102
}
100
AcDbXrecord
  1
MUEBLEPERIMETRAL
  1
*_MU
  1
*
  1
*
 70
     0
  1
*
  1
*
  0
XRECORD
  5
161
102
{ACAD_REACTORS
330
14
102
}
100
AcDbXrecord
  1
MUEBLES
  1
*MUEBLES
  1
*
  1
*
 70
     0
  1
*
  1
*
  0
XRECORD
  5
162
102
{ACAD_REACTORS
330
14
102
}
100
AcDbXrecord
  1
mz
  1
*mz
  1
*
  1
*
 70
     0
  1
*
  1
*
  0
XRECORD
  5
163
102
{ACAD_REACTORS
330
14
102
}
100
AcDbXrecord
  1
N
  1
n*
  1
*
  1
*
 70
     0
  1
*
  1
*
  0
XRECORD
  5
164
102
{ACAD_REACTORS
330
14
102
}
100
AcDbXrecord
  1
n-clav
  1
*n-clav*
  1
*
  1
*
 70
     0
  1
*
  1
*
  0
XRECORD
  5
165
102
{ACAD_REACTORS
330
14
102
}
100
AcDbXrecord
  1
NAME
  1
*RM*
  1
*
  1
*
 70
     0
  1
*
  1
*
  0
XRECORD
  5
166
102
{ACAD_REACTORS
330
14
102
}
100
AcDbXrecord
  1
neal
  1
neal*|*
  1
*
  1
*
 70
     0
  1
*
  1
*
  0
XRECORD
  5
167
102
{ACAD_REACTORS
330
14
102
}
100
AcDbXrecord
  1
nelf
  1
*nelf*
  1
*
  1
*
 70
     0
  1
*
  1
*
  0
XRECORD
  5
168
102
{ACAD_REACTORS
330
14
102
}
100
AcDbXrecord
  1
NEW
  1
NEW-*
  1
*
  1
*
 70
     0
  1
*
  1
*
  0
XRECORD
  5
169
102
{ACAD_REACTORS
330
14
102
}
100
AcDbXrecord
  1
no xref
  1
~*|*
  1
*
  1
*
 70
     0
  1
*
  1
*
  0
XRECORD
  5
16A
102
{ACAD_REACTORS
330
14
102
}
100
AcDbXrecord
  1
NOREF
  1
~9409x2-5*
  1
*
  1
*
 70
     0
  1
*
  1
*
  0
XRECORD
  5
16B
102
{ACAD_REACTORS
330
14
102
}
100
AcDbXrecord
  1
NORMAL
  1
*
  1
*
  1
*
 70
     0
  1
*
  1
Normal
  0
XRECORD
  5
16C
102
{ACAD_REACTORS
330
14
102
}
100
AcDbXrecord
  1
NOTE
  1
*NOTE*
  1
*
  1
*
 70
     0
  1
*
  1
*
  0
XRECORD
  5
16D
102
{ACAD_REACTORS
330
14
102
}
100
AcDbXrecord
  1
NOTES
  1
*NOTE*
  1
*
  1
*
 70
     0
  1
*
  1
*
  0
XRECORD
  5
16E
102
{ACAD_REACTORS
330
14
102
}
100
AcDbXrecord
  1
nplt
  1
*nplt*
  1
*
  1
*
 70
     0
  1
*
  1
*
  0
XRECORD
  5
16F
102
{ACAD_REACTORS
330
14
102
}
100
AcDbXrecord
  1
NUEVA
  1
N-*
  1
*
  1
*
 70
     0
  1
*
  1
*
  0
XRECORD
  5
170
102
{ACAD_REACTORS
330
14
102
}
100
AcDbXrecord
  1
NUEVA_IMPLANTACIÓN
  1
PBN*
  1
*
  1
*
 70
     0
  1
*
  1
*
  0
XRECORD
  5
171
102
{ACAD_REACTORS
330
14
102
}
100
AcDbXrecord
  1
NUEVAS
  1
N-*
  1
*
  1
*
 70
     0
  1
*
  1
*
  0
XRECORD
  5
172
102
{ACAD_REACTORS
330
14
102
}
100
AcDbXrecord
  1
NUEVOS-SERVICIOS
  1
NEW*
  1
*
  1
*
 70
     0
  1
*
  1
*
  0
XRECORD
  5
173
102
{ACAD_REACTORS
330
14
102
}
100
AcDbXrecord
  1
NUM
  1
0*,1*,2*,3*,4*,5*
  1
*
  1
*
 70
     0
  1
*
  1
*
  0
XRECORD
  5
174
102
{ACAD_REACTORS
330
14
102
}
100
AcDbXrecord
  1
OCULT
  1
*OCULT*
  1
*
  1
*
 70
     0
  1
*
  1
*
  0
XRECORD
  5
175
102
{ACAD_REACTORS
330
14
102
}
100
AcDbXrecord
  1
OFF
  1
*
  1
*
  1
*
 70
     3
  1
*
  1
*
  0
XRECORD
  5
176
102
{ACAD_REACTORS
330
14
102
}
100
AcDbXrecord
  1
Off all xref layers
  1
*
  1
*
  1
*
 70
     0
  1
*
  1
*
  0
XRECORD
  5
177
102
{ACAD_REACTORS
330
14
102
}
100
AcDbXrecord
  1
Offsite Grading
  1
*rg*|*
  1
*
  1
*
 70
     0
  1
*
  1
*
  0
XRECORD
  5
178
102
{ACAD_REACTORS
330
14
102
}
100
AcDbXrecord
  1
Offsite Roadway Imp.
  1
*rd*|*
  1
*
  1
*
 70
     0
  1
*
  1
*
  0
XRECORD
  5
179
102
{ACAD_REACTORS
330
14
102
}
100
AcDbXrecord
  1
Offsite Storm
  1
*rs*|*
  1
*
  1
*
 70
     0
  1
*
  1
*
  0
XRECORD
  5
17A
102
{ACAD_REACTORS
330
14
102
}
100
AcDbXrecord
  1
Offsite Striping & Traffic
  1
*rs*|*
  1
*
  1
*
 70
     0
  1
*
  1
*
  0
XRECORD
  5
17B
102
{ACAD_REACTORS
330
14
102
}
100
AcDbXrecord
  1
OFICINES
  1
*P1P2P3P4P5*
  1
*
  1
*
 70
     0
  1
*
  1
*
  0
XRECORD
  5
17C
102
{ACAD_REACTORS
330
14
102
}
100
AcDbXrecord
  1
oi
  1
*stai*
  1
*
  1
*
 70
     0
  1
*
  1
*
  0
XRECORD
  5
17D
102
{ACAD_REACTORS
330
14
102
}
100
AcDbXrecord
  1
ON
  1
*
  1
*
  1
*
 70
     1
  1
*
  1
*
  0
XRECORD
  5
17E
102
{ACAD_REACTORS
330
14
102
}
100
AcDbXrecord
  1
OU
  1
OU-AREA*,*grid*
  1
*
  1
*
 70
     0
  1
*
  1
*
  0
XRECORD
  5
17F
102
{ACAD_REACTORS
330
14
102
}
100
AcDbXrecord
  1
ou-area
  1
ou-area*
  1
*
  1
*
 70
     0
  1
*
  1
*
  0
XRECORD
  5
180
102
{ACAD_REACTORS
330
14
102
}
100
AcDbXrecord
  1
OUTY
  1
*
  1
*
  1
*
 70
     7
  1
*
  1
*
  0
XRECORD
  5
181
102
{ACAD_REACTORS
330
14
102
}
100
AcDbXrecord
  1
OVER
  1
*OVHD*
  1
*
  1
*
 70
     0
  1
*
  1
*
  0
XRECORD
  5
182
102
{ACAD_REACTORS
330
14
102
}
100
AcDbXrecord
  1
p
  1
p*
  1
*
  1
*
 70
     0
  1
*
  1
*
  0
XRECORD
  5
183
102
{ACAD_REACTORS
330
14
102
}
100
AcDbXrecord
  1
P-1
  1
*P-1
  1
*
  1
*
 70
     0
  1
*
  1
*
  0
XRECORD
  5
184
102
{ACAD_REACTORS
330
14
102
}
100
AcDbXrecord
  1
p-2
  1
*-2
  1
*
  1
*
 70
     0
  1
*
  1
*
  0
XRECORD
  5
185
102
{ACAD_REACTORS
330
14
102
}
100
AcDbXrecord
  1
p00
  1
*_p00
  1
*
  1
*
 70
     0
  1
*
  1
*
  0
XRECORD
  5
186
102
{ACAD_REACTORS
330
14
102
}
100
AcDbXrecord
  1
p01
  1
*_p01
  1
*
  1
*
 70
     0
  1
*
  1
*
  0
XRECORD
  5
187
102
{ACAD_REACTORS
330
14
102
}
100
AcDbXrecord
  1
p02
  1
*_p02
  1
*
  1
*
 70
     0
  1
*
  1
*
  0
XRECORD
  5
188
102
{ACAD_REACTORS
330
14
102
}
100
AcDbXrecord
  1
p03
  1
*_p03
  1
*
  1
*
 70
     0
  1
*
  1
*
  0
XRECORD
  5
189
102
{ACAD_REACTORS
330
14
102
}
100
AcDbXrecord
  1
P05
  1
*P05
  1
*
  1
*
 70
     0
  1
*
  1
*
  0
XRECORD
  5
18A
102
{ACAD_REACTORS
330
14
102
}
100
AcDbXrecord
  1
P1
  1
*P1*
  1
*
  1
*
 70
     0
  1
*
  1
*
  0
XRECORD
  5
18B
102
{ACAD_REACTORS
330
14
102
}
100
AcDbXrecord
  1
p1401
  1
p14*p01
  1
*
  1
*
 70
     0
  1
*
  1
*
  0
XRECORD
  5
18C
102
{ACAD_REACTORS
330
14
102
}
100
AcDbXrecord
  1
p14p-2
  1
p14*p-2
  1
*
  1
*
 70
     0
  1
*
  1
*
  0
XRECORD
  5
18D
102
{ACAD_REACTORS
330
14
102
}
100
AcDbXrecord
  1
p14p00
  1
p14*p00
  1
*
  1
*
 70
     0
  1
*
  1
*
  0
XRECORD
  5
18E
102
{ACAD_REACTORS
330
14
102
}
100
AcDbXrecord
  1
P2
  1
*P2*
  1
*
  1
*
 70
     0
  1
*
  1
*
  0
XRECORD
  5
18F
102
{ACAD_REACTORS
330
14
102
}
100
AcDbXrecord
  1
P3
  1
*P3*
  1
*
  1
*
 70
     0
  1
*
  1
*
  0
XRECORD
  5
190
102
{ACAD_REACTORS
330
14
102
}
100
AcDbXrecord
  1
p4
  1
*p4*
  1
*
  1
*
 70
     0
  1
*
  1
*
  0
XRECORD
  5
191
102
{ACAD_REACTORS
330
14
102
}
100
AcDbXrecord
  1
P5
  1
P5*
  1
*
  1
*
 70
     0
  1
*
  1
*
  0
XRECORD
  5
192
102
{ACAD_REACTORS
330
14
102
}
100
AcDbXrecord
  1
Pa
  1
*Pa*
  1
*
  1
*
 70
     0
  1
*
  1
*
  0
XRECORD
  5
193
102
{ACAD_REACTORS
330
14
102
}
100
AcDbXrecord
  1
Parcela
  1
Parcela*
  1
*
  1
*
 70
     0
  1
*
  1
*
  0
XRECORD
  5
194
102
{ACAD_REACTORS
330
14
102
}
100
AcDbXrecord
  1
PARKING
  1
PARK*
  1
*
  1
*
 70
     0
  1
*
  1
*
  0
XRECORD
  5
195
102
{ACAD_REACTORS
330
14
102
}
100
AcDbXrecord
  1
PARTITIONS
  1
*PART
  1
*
  1
*
 70
     0
  1
*
  1
*
  0
XRECORD
  5
196
102
{ACAD_REACTORS
330
14
102
}
100
AcDbXrecord
  1
pasillo
  1
p*
  1
*
  1
*
 70
     0
  1
*
  1
*
  0
XRECORD
  5
197
102
{ACAD_REACTORS
330
14
102
}
100
AcDbXrecord
  1
patt
  1
*patt*
  1
*
  1
*
 70
     0
  1
*
  1
*
  0
XRECORD
  5
198
102
{ACAD_REACTORS
330
14
102
}
100
AcDbXrecord
  1
PAU
  1
*
  1
*
  1
*
 70
     1
  1
*
  1
*
  0
XRECORD
  5
199
102
{ACAD_REACTORS
330
14
102
}
100
AcDbXrecord
  1
PAVER
  1
*LS-PAV*
  1
*
  1
*
 70
     0
  1
*
  1
*
  0
XRECORD
  5
19A
102
{ACAD_REACTORS
330
14
102
}
100
AcDbXrecord
  1
pb
  1
*pb*
  1
*
  1
*
 70
     0
  1
*
  1
*
  0
XRECORD
  5
19B
102
{ACAD_REACTORS
330
14
102
}
100
AcDbXrecord
  1
PEPE
  1
0,CARPIN,FACHADA,SOLERIA,SECCION,MOBIL
  1
*
  1
*
 70
     0
  1
*
  1
*
  0
XRECORD
  5
19C
102
{ACAD_REACTORS
330
14
102
}
100
AcDbXrecord
  1
PFPLAN
  1
PE9FP*
  1
*
  1
*
 70
     0
  1
*
  1
*
  0
XRECORD
  5
19D
102
{ACAD_REACTORS
330
14
102
}
100
AcDbXrecord
  1
PIANOS
  1
*PIANO
  1
*
  1
*
 70
     0
  1
*
  1
*
  0
XRECORD
  5
19E
102
{ACAD_REACTORS
330
14
102
}
100
AcDbXrecord
  1
pieza de cristal
  1
k*
  1
*
  1
*
 70
     0
  1
*
  1
*
  0
XRECORD
  5
19F
102
{ACAD_REACTORS
330
14
102
}
100
AcDbXrecord
  1
pilares
  1
p*
  1
*
  1
*
 70
     0
  1
*
  1
*
  0
XRECORD
  5
1A0
102
{ACAD_REACTORS
330
14
102
}
100
AcDbXrecord
  1
PILARESZ2
  1
PIL-Z2*,PICU-Z2*
  1
*
  1
*
 70
     0
  1
*
  1
*
  0
XRECORD
  5
1A1
102
{ACAD_REACTORS
330
14
102
}
100
AcDbXrecord
  1
pipes
  1
pipe*
  1
*
  1
*
 70
     0
  1
*
  1
*
  0
XRECORD
  5
1A2
102
{ACAD_REACTORS
330
14
102
}
100
AcDbXrecord
  1
Pipes1
  1
pipes1*
  1
*
  1
*
 70
     0
  1
*
  1
*
  0
XRECORD
  5
1A3
102
{ACAD_REACTORS
330
14
102
}
100
AcDbXrecord
  1
PIPING PLAN2
  1
DECKDRAIN FEED,DECKDRAIN,PIPING,SKIMMER,XBASE$0$MAINDRAIN,XBASE$0$RETURN
  1
*
  1
*
 70
     0
  1
*
  1
*
  0
XRECORD
  5
1A4
102
{ACAD_REACTORS
330
14
102
}
100
AcDbXrecord
  1
pl
  1
pl*
  1
*
  1
*
 70
     0
  1
*
  1
*
  0
XRECORD
  5
1A5
102
{ACAD_REACTORS
330
14
102
}
100
AcDbXrecord
  1
PLAKALAR
  1
PLAKA*
  1
*
  1
*
 70
     0
  1
*
  1
*
  0
XRECORD
  5
1A6
102
{ACAD_REACTORS
330
14
102
}
100
AcDbXrecord
  1
PLAN
  1
*
  1
*
  1
*
 70
    12
  1
*
  1
*
  0
XRECORD
  5
1A7
102
{ACAD_REACTORS
330
14
102
}
100
AcDbXrecord
  1
PLAN-PARCIAL
  1
PP*
  1
*
  1
*
 70
     0
  1
*
  1
*
  0
XRECORD
  5
1A8
102
{ACAD_REACTORS
330
14
102
}
100
AcDbXrecord
  1
PLANT
  1
*PLNT*
  1
*
  1
*
 70
     0
  1
*
  1
*
  0
XRECORD
  5
1A9
102
{ACAD_REACTORS
330
14
102
}
100
AcDbXrecord
  1
Planta baja
  1
Pbn_*
  1
*
  1
*
 70
     0
  1
*
  1
*
  0
XRECORD
  5
1AA
102
{ACAD_REACTORS
330
14
102
}
100
AcDbXrecord
  1
Planta baja ACT
  1
Pb_*
  1
*
  1
*
 70
     0
  1
*
  1
*
  0
XRECORD
  5
1AB
102
{ACAD_REACTORS
330
14
102
}
100
AcDbXrecord
  1
Planta Subsuelo
  1
Psn_*
  1
*
  1
*
 70
     0
  1
*
  1
*
  0
XRECORD
  5
1AC
102
{ACAD_REACTORS
330
14
102
}
100
AcDbXrecord
  1
Planta técnica
  1
Ptn_*
  1
*
  1
*
 70
     0
  1
*
  1
*
  0
XRECORD
  5
1AD
102
{ACAD_REACTORS
330
14
102
}
100
AcDbXrecord
  1
PLANTAS
  1
Z*
  1
*
  1
*
 70
     0
  1
*
  1
*
  0
XRECORD
  5
1AE
102
{ACAD_REACTORS
330
14
102
}
100
AcDbXrecord
  1
plants
  1
*plnt*
  1
*
  1
*
 70
     0
  1
*
  1
*
  0
XRECORD
  5
1AF
102
{ACAD_REACTORS
330
14
102
}
100
AcDbXrecord
  1
PLOT
  1
UNIT*COL*
  1
*
  1
*
 70
     0
  1
*
  1
*
  0
XRECORD
  5
1B0
102
{ACAD_REACTORS
330
14
102
}
100
AcDbXrecord
  1
ploteo
  1
*
  1
*
  1
*
 70
    12
  1
*
  1
*
  0
XRECORD
  5
1B1
102
{ACAD_REACTORS
330
14
102
}
100
AcDbXrecord
  1
Pluviales
  1
Pluviales*
  1
*
  1
*
 70
     0
  1
*
  1
*
  0
XRECORD
  5
1B2
102
{ACAD_REACTORS
330
14
102
}
100
AcDbXrecord
  1
pn10
  1
*pn10*
  1
*
  1
*
 70
     0
  1
*
  1
*
  0
XRECORD
  5
1B3
102
{ACAD_REACTORS
330
14
102
}
100
AcDbXrecord
  1
POLILINEAS
  1
POL*
  1
*
  1
*
 70
     0
  1
*
  1
*
  0
XRECORD
  5
1B4
102
{ACAD_REACTORS
330
14
102
}
100
AcDbXrecord
  1
PONT
  1
PONT*
  1
*
  1
*
 70
     0
  1
*
  1
*
  0
XRECORD
  5
1B5
102
{ACAD_REACTORS
330
14
102
}
100
AcDbXrecord
  1
POOL
  1
A-POOL*
  1
*
  1
*
 70
     0
  1
*
  1
*
  0
XRECORD
  5
1B6
102
{ACAD_REACTORS
330
14
102
}
100
AcDbXrecord
  1
Popopo
  1
*
  1
*
  1
*
 70
     0
  1
*
  1
*
  0
XRECORD
  5
1B7
102
{ACAD_REACTORS
330
14
102
}
100
AcDbXrecord
  1
Pozos_Agua
  1
Pozos_A*
  1
*
  1
*
 70
     0
  1
*
  1
*
  0
XRECORD
  5
1B8
102
{ACAD_REACTORS
330
14
102
}
100
AcDbXrecord
  1
Pozos_Fecales
  1
Pozos_Fe*
  1
*
  1
*
 70
     0
  1
*
  1
*
  0
XRECORD
  5
1B9
102
{ACAD_REACTORS
330
14
102
}
100
AcDbXrecord
  1
Pozos_pluviales
  1
Pozos_Pl*
  1
*
  1
*
 70
     0
  1
*
  1
*
  0
XRECORD
  5
1BA
102
{ACAD_REACTORS
330
14
102
}
100
AcDbXrecord
  1
Pq
  1
*Pq*
  1
*
  1
*
 70
     0
  1
*
  1
*
  0
XRECORD
  5
1BB
102
{ACAD_REACTORS
330
14
102
}
100
AcDbXrecord
  1
PR
  1
X-NIVEL1*
  1
10
  1
*
 70
    13
  1
*
  1
*
  0
XRECORD
  5
1BC
102
{ACAD_REACTORS
330
14
102
}
100
AcDbXrecord
  1
PROGEST
  1
PRO-*
  1
*
  1
*
 70
     0
  1
*
  1
*
  0
XRECORD
  5
1BD
102
{ACAD_REACTORS
330
14
102
}
100
AcDbXrecord
  1
PROJ-URBANITZACIO
  1
PU*
  1
*
  1
*
 70
     0
  1
*
  1
*
  0
XRECORD
  5
1BE
102
{ACAD_REACTORS
330
14
102
}
100
AcDbXrecord
  1
prop
  1
*layo*
  1
*
  1
*
 70
     0
  1
*
  1
*
  0
XRECORD
  5
1BF
102
{ACAD_REACTORS
330
14
102
}
100
AcDbXrecord
  1
Proposed Drainage Design
  1
*dr*|*
  1
*
  1
*
 70
     0
  1
*
  1
*
  0
XRECORD
  5
1C0
102
{ACAD_REACTORS
330
14
102
}
100
AcDbXrecord
  1
Proposed Easement
  1
*ea*|*
  1
*
  1
*
 70
     0
  1
*
  1
*
  0
XRECORD
  5
1C1
102
{ACAD_REACTORS
330
14
102
}
100
AcDbXrecord
  1
Proposed Grading
  1
*gr*|*
  1
*
  1
*
 70
     0
  1
*
  1
*
  0
XRECORD
  5
1C2
102
{ACAD_REACTORS
330
14
102
}
100
AcDbXrecord
  1
Proposed Site Layout
  1
*si*|*
  1
*
  1
*
 70
     0
  1
*
  1
*
  0
XRECORD
  5
1C3
102
{ACAD_REACTORS
330
14
102
}
100
AcDbXrecord
  1
Proposed Storm Pipes
  1
*st*|*
  1
*
  1
*
 70
     0
  1
*
  1
*
  0
XRECORD
  5
1C4
102
{ACAD_REACTORS
330
14
102
}
100
AcDbXrecord
  1
Proposed Striping
  1
*sr*|*
  1
*
  1
*
 70
     0
  1
*
  1
*
  0
XRECORD
  5
1C5
102
{ACAD_REACTORS
330
14
102
}
100
AcDbXrecord
  1
Proposed Utilities
  1
*ui*|*
  1
*
  1
*
 70
     0
  1
*
  1
*
  0
XRECORD
  5
1C6
102
{ACAD_REACTORS
330
14
102
}
100
AcDbXrecord
  1
PROYECCCIONES
  1
PROY_*
  1
*
  1
*
 70
     0
  1
*
  1
*
  0
XRECORD
  5
1C7
102
{ACAD_REACTORS
330
14
102
}
100
AcDbXrecord
  1
PRUEBA
  1
*|020400
  1
*
  1
*
 70
     0
  1
*
  1
*
  0
XRECORD
  5
1C8
102
{ACAD_REACTORS
330
14
102
}
100
AcDbXrecord
  1
PRUEBA3
  1
*|020400,*|169104
  1
*
  1
*
 70
     0
  1
*
  1
*
  0
XRECORD
  5
1C9
102
{ACAD_REACTORS
330
14
102
}
100
AcDbXrecord
  1
PUERTAS
  1
PUERTAS
  1
*
  1
*
 70
     0
  1
*
  1
*
  0
XRECORD
  5
1CA
102
{ACAD_REACTORS
330
14
102
}
100
AcDbXrecord
  1
RAIL
  1
*RAIL*
  1
*
  1
*
 70
     0
  1
*
  1
*
  0
XRECORD
  5
1CB
102
{ACAD_REACTORS
330
14
102
}
100
AcDbXrecord
  1
RCP
  1
*
  1
*
  1
*
 70
     0
  1
*
  1
*
  0
XRECORD
  5
1CC
102
{ACAD_REACTORS
330
14
102
}
100
AcDbXrecord
  1
RE
  1
*
  1
7
  1
*
 70
     0
  1
*
  1
*
  0
XRECORD
  5
1CD
102
{ACAD_REACTORS
330
14
102
}
100
AcDbXrecord
  1
red
  1
*
  1
1
  1
*
 70
    12
  1
*
  1
*
  0
XRECORD
  5
1CE
102
{ACAD_REACTORS
330
14
102
}
100
AcDbXrecord
  1
REFERENCIA
  1
*_46
  1
*
  1
*
 70
     0
  1
*
  1
*
  0
XRECORD
  5
1CF
102
{ACAD_REACTORS
330
14
102
}
100
AcDbXrecord
  1
RELLENO
  1
RELLENO_*
  1
*
  1
*
 70
     0
  1
*
  1
*
  0
XRECORD
  5
1D0
102
{ACAD_REACTORS
330
14
102
}
100
AcDbXrecord
  1
RELLENOS
  1
RELL*
  1
*
  1
*
 70
     0
  1
*
  1
*
  0
XRECORD
  5
1D1
102
{ACAD_REACTORS
330
14
102
}
100
AcDbXrecord
  1
REPLANTEO
  1
REP*
  1
*
  1
*
 70
     0
  1
*
  1
*
  0
XRECORD
  5
1D2
102
{ACAD_REACTORS
330
14
102
}
100
AcDbXrecord
  1
Riego
  1
Riego*
  1
*
  1
*
 70
     0
  1
*
  1
*
  0
XRECORD
  5
1D3
102
{ACAD_REACTORS
330
14
102
}
100
AcDbXrecord
  1
RMTAGS
  1
R*
  1
*
  1
*
 70
     0
  1
*
  1
*
  0
XRECORD
  5
1D4
102
{ACAD_REACTORS
330
14
102
}
100
AcDbXrecord
  1
roof
  1
*r-roof*
  1
*
  1
*
 70
     0
  1
*
  1
*
  0
XRECORD
  5
1D5
102
{ACAD_REACTORS
330
14
102
}
100
AcDbXrecord
  1
room
  1
*room*
  1
*
  1
*
 70
     0
  1
*
  1
*
  0
XRECORD
  5
1D6
102
{ACAD_REACTORS
330
14
102
}
100
AcDbXrecord
  1
ROTULACION
  1
ROT*
  1
*
  1
*
 70
     0
  1
*
  1
*
  0
XRECORD
  5
1D7
102
{ACAD_REACTORS
330
14
102
}
100
AcDbXrecord
  1
S
  1
S*
  1
*
  1
*
 70
     0
  1
*
  1
*
  0
XRECORD
  5
1D8
102
{ACAD_REACTORS
330
14
102
}
100
AcDbXrecord
  1
S1
  1
*S1*
  1
*
  1
*
 70
     0
  1
*
  1
*
  0
XRECORD
  5
1D9
102
{ACAD_REACTORS
330
14
102
}
100
AcDbXrecord
  1
S2
  1
*S2*
  1
*
  1
*
 70
     0
  1
*
  1
*
  0
XRECORD
  5
1DA
102
{ACAD_REACTORS
330
14
102
}
100
AcDbXrecord
  1
SAA
  1
*SAA*
  1
*
  1
*
 70
     0
  1
*
  1
*
  0
XRECORD
  5
1DB
102
{ACAD_REACTORS
330
14
102
}
100
AcDbXrecord
  1
SANEAMIENTO
  1
SAN*
  1
*
  1
*
 70
     0
  1
*
  1
*
  0
XRECORD
  5
1DC
102
{ACAD_REACTORS
330
14
102
}
100
AcDbXrecord
  1
SAU
  1
SAU*
  1
*
  1
*
 70
     0
  1
*
  1
*
  0
XRECORD
  5
1DD
102
{ACAD_REACTORS
330
14
102
}
100
AcDbXrecord
  1
SAU3
  1
SAU3*
  1
*
  1
*
 70
     0
  1
*
  1
*
  0
XRECORD
  5
1DE
102
{ACAD_REACTORS
330
14
102
}
100
AcDbXrecord
  1
SAU5
  1
SAU5*
  1
*
  1
*
 70
     0
  1
*
  1
*
  0
XRECORD
  5
1DF
102
{ACAD_REACTORS
330
14
102
}
100
AcDbXrecord
  1
scale200
  1
*wind*,*clad*,*stone*,*stee*
  1
*
  1
*
 70
     0
  1
*
  1
*
  0
XRECORD
  5
1E0
102
{ACAD_REACTORS
330
14
102
}
100
AcDbXrecord
  1
se
  1
s*
  1
*
  1
*
 70
     0
  1
*
  1
*
  0
XRECORD
  5
1E1
102
{ACAD_REACTORS
330
14
102
}
100
AcDbXrecord
  1
SE100
  1
SE-100*
  1
*
  1
*
 70
     0
  1
*
  1
*
  0
XRECORD
  5
1E2
102
{ACAD_REACTORS
330
14
102
}
100
AcDbXrecord
  1
secc
  1
stran*
  1
*
  1
*
 70
     0
  1
*
  1
*
  0
XRECORD
  5
1E3
102
{ACAD_REACTORS
330
14
102
}
100
AcDbXrecord
  1
SECCIO
  1
*s0*
  1
*
  1
*
 70
     0
  1
*
  1
*
  0
XRECORD
  5
1E4
102
{ACAD_REACTORS
330
14
102
}
100
AcDbXrecord
  1
SECCION
  1
SEC*
  1
*
  1
*
 70
     0
  1
*
  1
*
  0
XRECORD
  5
1E5
102
{ACAD_REACTORS
330
14
102
}
100
AcDbXrecord
  1
Sediment Control
  1
*sc*|*
  1
*
  1
*
 70
     0
  1
*
  1
*
  0
XRECORD
  5
1E6
102
{ACAD_REACTORS
330
14
102
}
100
AcDbXrecord
  1
segunda
  1
*
  1
*
  1
*
 70
     0
  1
*
  1
*
  0
XRECORD
  5
1E7
102
{ACAD_REACTORS
330
14
102
}
100
AcDbXrecord
  1
segundabis
  1
*
  1
*
  1
*
 70
     0
  1
*
  1
*
  0
XRECORD
  5
1E8
102
{ACAD_REACTORS
330
14
102
}
100
AcDbXrecord
  1
seny_horit
  1
*|529
  1
*
  1
*
 70
     0
  1
*
  1
*
  0
XRECORD
  5
1E9
102
{ACAD_REACTORS
330
14
102
}
100
AcDbXrecord
  1
SERVI
  1
EXIS-*
  1
*
  1
*
 70
     0
  1
*
  1
*
  0
XRECORD
  5
1EA
102
{ACAD_REACTORS
330
14
102
}
100
AcDbXrecord
  1
shade
  1
*shade*
  1
*
  1
*
 70
     0
  1
*
  1
*
  0
XRECORD
  5
1EB
102
{ACAD_REACTORS
330
14
102
}
100
AcDbXrecord
  1
SHELL
  1
*SHEL*
  1
*
  1
*
 70
     0
  1
*
  1
*
  0
XRECORD
  5
1EC
102
{ACAD_REACTORS
330
14
102
}
100
AcDbXrecord
  1
SILL
  1
*SILL*
  1
*
  1
*
 70
     0
  1
*
  1
*
  0
XRECORD
  5
1ED
102
{ACAD_REACTORS
330
14
102
}
100
AcDbXrecord
  1
SILLAS
  1
*SILLAS
  1
*
  1
*
 70
     0
  1
*
  1
*
  0
XRECORD
  5
1EE
102
{ACAD_REACTORS
330
14
102
}
100
AcDbXrecord
  1
site
  1
*site*
  1
*
  1
*
 70
     0
  1
*
  1
*
  0
XRECORD
  5
1EF
102
{ACAD_REACTORS
330
14
102
}
100
AcDbXrecord
  1
site-location
  1
*
  1
*
  1
*
 70
     0
  1
*
  1
*
  0
XRECORD
  5
1F0
102
{ACAD_REACTORS
330
14
102
}
100
AcDbXrecord
  1
SOLADOS
  1
SOL*
  1
*
  1
*
 70
     0
  1
*
  1
*
  0
XRECORD
  5
1F1
102
{ACAD_REACTORS
330
14
102
}
100
AcDbXrecord
  1
SOLO CAPA
  1
*
  1
*
  1
*
 70
     3
  1
*
  1
*
  0
XRECORD
  5
1F2
102
{ACAD_REACTORS
330
14
102
}
100
AcDbXrecord
  1
space planning
  1
*sp*
  1
*
  1
*
 70
     0
  1
*
  1
*
  0
XRECORD
  5
1F3
102
{ACAD_REACTORS
330
14
102
}
100
AcDbXrecord
  1
STB_LAYERS
  1
STB*
  1
*
  1
*
 70
     0
  1
*
  1
*
  0
XRECORD
  5
1F4
102
{ACAD_REACTORS
330
14
102
}
100
AcDbXrecord
  1
STR
  1
STR*
  1
*
  1
*
 70
     0
  1
*
  1
*
  0
XRECORD
  5
1F5
102
{ACAD_REACTORS
330
14
102
}
100
AcDbXrecord
  1
structural
  1
str*
  1
*
  1
*
 70
     0
  1
*
  1
*
  0
XRECORD
  5
1F6
102
{ACAD_REACTORS
330
14
102
}
100
AcDbXrecord
  1
STRUCTURE
  1
??STR???????*
  1
*
  1
*
 70
     0
  1
*
  1
*
  0
XRECORD
  5
1F7
102
{ACAD_REACTORS
330
14
102
}
100
AcDbXrecord
  1
SU
  1
*
  1
*
  1
*
 70
     0
  1
*
  1
*
  0
XRECORD
  5
1F8
102
{ACAD_REACTORS
330
14
102
}
100
AcDbXrecord
  1
SUELO
  1
SUEL*
  1
*
  1
*
 70
     0
  1
*
  1
*
  0
XRECORD
  5
1F9
102
{ACAD_REACTORS
330
14
102
}
100
AcDbXrecord
  1
sup01
  1
001_*
  1
*
  1
*
 70
     0
  1
*
  1
*
  0
XRECORD
  5
1FA
102
{ACAD_REACTORS
330
14
102
}
100
AcDbXrecord
  1
sup02
  1
002_*
  1
*
  1
*
 70
     0
  1
*
  1
*
  0
XRECORD
  5
1FB
102
{ACAD_REACTORS
330
14
102
}
100
AcDbXrecord
  1
sup03
  1
003_*
  1
*
  1
*
 70
     0
  1
*
  1
*
  0
XRECORD
  5
1FC
102
{ACAD_REACTORS
330
14
102
}
100
AcDbXrecord
  1
sup04
  1
004_*
  1
*
  1
*
 70
     0
  1
*
  1
*
  0
XRECORD
  5
1FD
102
{ACAD_REACTORS
330
14
102
}
100
AcDbXrecord
  1
superficies
  1
sup*
  1
*
  1
*
 70
     0
  1
*
  1
*
  0
XRECORD
  5
1FE
102
{ACAD_REACTORS
330
14
102
}
100
AcDbXrecord
  1
Survey Working Files
  1
*su*|*
  1
*
  1
*
 70
     0
  1
*
  1
*
  0
XRECORD
  5
1FF
102
{ACAD_REACTORS
330
14
102
}
100
AcDbXrecord
  1
T
  1
T*
  1
*
  1
*
 70
     0
  1
*
  1
*
  0
XRECORD
  5
200
102
{ACAD_REACTORS
330
14
102
}
100
AcDbXrecord
  1
T_A
  1
T_A*
  1
*
  1
*
 70
     0
  1
*
  1
*
  0
XRECORD
  5
201
102
{ACAD_REACTORS
330
14
102
}
100
AcDbXrecord
  1
T_C
  1
T_C*
  1
*
  1
*
 70
     0
  1
*
  1
*
  0
XRECORD
  5
202
102
{ACAD_REACTORS
330
14
102
}
100
AcDbXrecord
  1
TAJEAS
  1
TAJEA*
  1
*
  1
*
 70
     0
  1
*
  1
*
  0
XRECORD
  5
203
102
{ACAD_REACTORS
330
14
102
}
100
AcDbXrecord
  1
talleres
  1
t*
  1
*
  1
*
 70
     0
  1
*
  1
*
  0
XRECORD
  5
204
102
{ACAD_REACTORS
330
14
102
}
100
AcDbXrecord
  1
TAQUIMETRICO
  1
TAQ*
  1
*
  1
*
 70
     0
  1
*
  1
*
  0
XRECORD
  5
205
102
{ACAD_REACTORS
330
14
102
}
100
AcDbXrecord
  1
TECHOS
  1
*_T
  1
*
  1
*
 70
     0
  1
*
  1
*
  0
XRECORD
  5
206
102
{ACAD_REACTORS
330
14
102
}
100
AcDbXrecord
  1
TELE
  1
TELE*
  1
*
  1
*
 70
     0
  1
*
  1
*
  0
XRECORD
  5
207
102
{ACAD_REACTORS
330
14
102
}
100
AcDbXrecord
  1
temp
  1
*
  1
253,252
  1
*
 70
     0
  1
*
  1
*
  0
XRECORD
  5
208
102
{ACAD_REACTORS
330
14
102
}
100
AcDbXrecord
  1
Temporary Layers
  1
*temp-*
  1
*
  1
*
 70
     0
  1
*
  1
*
  0
XRECORD
  5
209
102
{ACAD_REACTORS
330
14
102
}
100
AcDbXrecord
  1
test
  1
*
  1
*
  1
*
 70
     0
  1
*
  1
*
  0
XRECORD
  5
20A
102
{ACAD_REACTORS
330
14
102
}
100
AcDbXrecord
  1
text
  1
*text*
  1
*
  1
*
 70
     0
  1
*
  1
*
  0
XRECORD
  5
20B
102
{ACAD_REACTORS
330
14
102
}
100
AcDbXrecord
  1
TEXTO
  1
*TEXTO
  1
80
  1
*
 70
    13
  1
*
  1
*
  0
XRECORD
  5
20C
102
{ACAD_REACTORS
330
14
102
}
100
AcDbXrecord
  1
Thawed
  1
*
  1
*
  1
*
 70
    12
  1
*
  1
*
  0
XRECORD
  5
20D
102
{ACAD_REACTORS
330
14
102
}
100
AcDbXrecord
  1
tim
  1
tim-ex-p*
  1
*
  1
*
 70
     0
  1
*
  1
*
  0
XRECORD
  5
20E
102
{ACAD_REACTORS
330
14
102
}
100
AcDbXrecord
  1
TITLE
  1
*TITL*
  1
*
  1
*
 70
     0
  1
*
  1
*
  0
XRECORD
  5
20F
102
{ACAD_REACTORS
330
14
102
}
100
AcDbXrecord
  1
tmp
  1
*tmp*
  1
*
  1
*
 70
     0
  1
*
  1
*
  0
XRECORD
  5
210
102
{ACAD_REACTORS
330
14
102
}
100
AcDbXrecord
  1
topo
  1
topo*
  1
*
  1
*
 70
     0
  1
*
  1
*
  0
XRECORD
  5
211
102
{ACAD_REACTORS
330
14
102
}
100
AcDbXrecord
  1
TOPOGRAFIA
  1
TOP*
  1
*
  1
*
 70
     0
  1
*
  1
*
  0
XRECORD
  5
212
102
{ACAD_REACTORS
330
14
102
}
100
AcDbXrecord
  1
trabajo
  1
*
  1
*
  1
*
 70
     0
  1
*
  1
*
  0
XRECORD
  5
213
102
{ACAD_REACTORS
330
14
102
}
100
AcDbXrecord
  1
tram
  1
*tram*
  1
*
  1
*
 70
     0
  1
*
  1
*
  0
XRECORD
  5
214
102
{ACAD_REACTORS
330
14
102
}
100
AcDbXrecord
  1
trama
  1
*trama*
  1
*
  1
*
 70
     0
  1
*
  1
*
  0
XRECORD
  5
215
102
{ACAD_REACTORS
330
14
102
}
100
AcDbXrecord
  1
TRAMA-FAÇANA
  1
*
  1
*
  1
*
 70
     0
  1
*
  1
*
  0
XRECORD
  5
216
102
{ACAD_REACTORS
330
14
102
}
100
AcDbXrecord
  1
tramas
  1
*tramas*
  1
*
  1
*
 70
     0
  1
*
  1
*
  0
XRECORD
  5
217
102
{ACAD_REACTORS
330
14
102
}
100
AcDbXrecord
  1
TRAMES
  1
*tra*
  1
*
  1
*
 70
     0
  1
*
  1
*
  0
XRECORD
  5
218
102
{ACAD_REACTORS
330
14
102
}
100
AcDbXrecord
  1
TREAD
  1
*TREAD*
  1
*
  1
*
 70
     0
  1
*
  1
*
  0
XRECORD
  5
219
102
{ACAD_REACTORS
330
14
102
}
100
AcDbXrecord
  1
TRUSS
  1
TRUSS*
  1
*
  1
*
 70
     0
  1
*
  1
*
  0
XRECORD
  5
21A
102
{ACAD_REACTORS
330
14
102
}
100
AcDbXrecord
  1
TT
  1
*TT*
  1
*
  1
*
 70
     0
  1
*
  1
*
  0
XRECORD
  5
21B
102
{ACAD_REACTORS
330
14
102
}
100
AcDbXrecord
  1
TUB
  1
TUB*
  1
*
  1
*
 70
     0
  1
*
  1
*
  0
XRECORD
  5
21C
102
{ACAD_REACTORS
330
14
102
}
100
AcDbXrecord
  1
tube
  1
*
  1
*
  1
*
 70
     0
  1
*
  1
*
  0
XRECORD
  5
21D
102
{ACAD_REACTORS
330
14
102
}
100
AcDbXrecord
  1
u
  1
*u*
  1
*
  1
*
 70
     0
  1
*
  1
*
  0
XRECORD
  5
21E
102
{ACAD_REACTORS
330
14
102
}
100
AcDbXrecord
  1
uiskas
  1
*
  1
*
  1
*
 70
     1
  1
*
  1
*
  0
XRECORD
  5
21F
102
{ACAD_REACTORS
330
14
102
}
100
AcDbXrecord
  1
uni
  1
*unit*
  1
*
  1
*
 70
     0
  1
*
  1
*
  0
XRECORD
  5
220
102
{ACAD_REACTORS
330
14
102
}
100
AcDbXrecord
  1
up
  1
*u*
  1
*
  1
*
 70
     0
  1
*
  1
*
  0
XRECORD
  5
221
102
{ACAD_REACTORS
330
14
102
}
100
AcDbXrecord
  1
URB
  1
*P2*
  1
*
  1
*
 70
     0
  1
*
  1
*
  0
XRECORD
  5
222
102
{ACAD_REACTORS
330
14
102
}
100
AcDbXrecord
  1
urban
  1
1*
  1
*
  1
*
 70
     0
  1
*
  1
*
  0
XRECORD
  5
223
102
{ACAD_REACTORS
330
14
102
}
100
AcDbXrecord
  1
URBANIZACION
  1
URB*
  1
*
  1
*
 70
     0
  1
*
  1
*
  0
XRECORD
  5
224
102
{ACAD_REACTORS
330
14
102
}
100
AcDbXrecord
  1
USOS_MUEBLES
  1
*_UM
  1
*
  1
*
 70
     0
  1
*
  1
*
  0
XRECORD
  5
225
102
{ACAD_REACTORS
330
14
102
}
100
AcDbXrecord
  1
Utilizadas
  1
*
  1
*
  1
*
 70
    12
  1
*
  1
*
  0
XRECORD
  5
226
102
{ACAD_REACTORS
330
14
102
}
100
AcDbXrecord
  1
vdot
  1
*vdot*
  1
*
  1
*
 70
     0
  1
*
  1
*
  0
XRECORD
  5
227
102
{ACAD_REACTORS
330
14
102
}
100
AcDbXrecord
  1
VESTUARIOS_ENTRADA
  1
*_VT
  1
*
  1
*
 70
     0
  1
*
  1
*
  0
XRECORD
  5
228
102
{ACAD_REACTORS
330
14
102
}
100
AcDbXrecord
  1
vistas
  1
*
  1
*
  1
*
 70
     4
  1
*
  1
*
  0
XRECORD
  5
229
102
{ACAD_REACTORS
330
14
102
}
100
AcDbXrecord
  1
VMULT
  1
*VMU*
  1
*
  1
*
 70
     0
  1
*
  1
*
  0
XRECORD
  5
22A
102
{ACAD_REACTORS
330
14
102
}
100
AcDbXrecord
  1
VP
  1
V*
  1
*
  1
*
 70
     0
  1
*
  1
*
  0
XRECORD
  5
22B
102
{ACAD_REACTORS
330
14
102
}
100
AcDbXrecord
  1
VPORTS
  1
VP*
  1
*
  1
*
 70
     0
  1
*
  1
*
  0
XRECORD
  5
22C
102
{ACAD_REACTORS
330
14
102
}
100
AcDbXrecord
  1
VRB_LAYERS
  1
VRB*
  1
*
  1
*
 70
     0
  1
*
  1
*
  0
XRECORD
  5
22D
102
{ACAD_REACTORS
330
14
102
}
100
AcDbXrecord
  1
w
  1
*wall-b*
  1
*
  1
*
 70
     0
  1
*
  1
*
  0
XRECORD
  5
22E
102
{ACAD_REACTORS
330
14
102
}
100
AcDbXrecord
  1
WALL
  1
*WALL*
  1
*
  1
*
 70
     0
  1
*
  1
*
  0
XRECORD
  5
22F
102
{ACAD_REACTORS
330
14
102
}
100
AcDbXrecord
  1
WALLS
  1
*WALL*
  1
*
  1
*
 70
     0
  1
*
  1
*
  0
XRECORD
  5
230
102
{ACAD_REACTORS
330
14
102
}
100
AcDbXrecord
  1
WDW
  1
*WDW*
  1
*
  1
*
 70
     0
  1
*
  1
*
  0
XRECORD
  5
231
102
{ACAD_REACTORS
330
14
102
}
100
AcDbXrecord
  1
we
  1
*sym*
  1
*
  1
*
 70
     0
  1
*
  1
*
  0
XRECORD
  5
232
102
{ACAD_REACTORS
330
14
102
}
100
AcDbXrecord
  1
Wetlands
  1
*wl*|*
  1
*
  1
*
 70
     0
  1
*
  1
*
  0
XRECORD
  5
233
102
{ACAD_REACTORS
330
14
102
}
100
AcDbXrecord
  1
white
  1
*
  1
7
  1
*
 70
    12
  1
*
  1
*
  0
XRECORD
  5
234
102
{ACAD_REACTORS
330
14
102
}
100
AcDbXrecord
  1
window
  1
*wdw*
  1
*
  1
*
 70
     0
  1
*
  1
*
  0
XRECORD
  5
235
102
{ACAD_REACTORS
330
14
102
}
100
AcDbXrecord
  1
X
  1
*_*X*
  1
*
  1
*
 70
     0
  1
*
  1
*
  0
XRECORD
  5
236
102
{ACAD_REACTORS
330
14
102
}
100
AcDbXrecord
  1
X-BRIDGE
  1
X-BRIDGE*
  1
*
  1
*
 70
     0
  1
*
  1
*
  0
XRECORD
  5
237
102
{ACAD_REACTORS
330
14
102
}
100
AcDbXrecord
  1
X-LEV-1
  1
*LEV-1*
  1
*
  1
*
 70
     0
  1
*
  1
*
  0
XRECORD
  5
238
102
{ACAD_REACTORS
330
14
102
}
100
AcDbXrecord
  1
X-LEV-3
  1
*LEV-3*
  1
*
  1
*
 70
     0
  1
*
  1
*
  0
XRECORD
  5
239
102
{ACAD_REACTORS
330
14
102
}
100
AcDbXrecord
  1
X-LEV-4
  1
*LEV-4*
  1
*
  1
*
 70
     0
  1
*
  1
*
  0
XRECORD
  5
23A
102
{ACAD_REACTORS
330
14
102
}
100
AcDbXrecord
  1
X-LEV2
  1
*LEV-2*
  1
*
  1
*
 70
     0
  1
*
  1
*
  0
XRECORD
  5
23B
102
{ACAD_REACTORS
330
14
102
}
100
AcDbXrecord
  1
X-SITE
  1
X-SITE*
  1
*
  1
*
 70
     0
  1
*
  1
*
  0
XRECORD
  5
23C
102
{ACAD_REACTORS
330
14
102
}
100
AcDbXrecord
  1
XREF
  1
XREF*
  1
*
  1
*
 70
     0
  1
*
  1
*
  0
XRECORD
  5
23D
102
{ACAD_REACTORS
330
14
102
}
100
AcDbXrecord
  1
YARDIMLAR
  1
*YARDIM
  1
*
  1
*
 70
     0
  1
*
  1
*
  0
XRECORD
  5
23E
102
{ACAD_REACTORS
330
14
102
}
100
AcDbXrecord
  1
yellow
  1
*
  1
yellow
  1
*
 70
     0
  1
*
  1
*
  0
XRECORD
  5
23F
102
{ACAD_REACTORS
330
14
102
}
100
AcDbXrecord
  1
yo
  1
*somb*
  1
*
  1
*
 70
     0
  1
*
  1
*
  0
XRECORD
  5
240
102
{ACAD_REACTORS
330
14
102
}
100
AcDbXrecord
  1
yuzeyler
  1
*-yuzey*
  1
*
  1
*
 70
     0
  1
*
  1
*
  0
XRECORD
  5
241
102
{ACAD_REACTORS
330
14
102
}
100
AcDbXrecord
  1
YÜZEYLER
  1
*YUZ*
  1
*
  1
*
 70
     0
  1
*
  1
*
  0
XRECORD
  5
242
102
{ACAD_REACTORS
330
14
102
}
100
AcDbXrecord
  1
Z
  1
Z-*
  1
*
  1
*
 70
     0
  1
*
  1
*
  0
XRECORD
  5
243
102
{ACAD_REACTORS
330
14
102
}
100
AcDbXrecord
  1
zz
  1
zz*
  1
*
  1
*
 70
     0
  1
*
  1
*
  0
XRECORD
  5
25A
102
{ACAD_REACTORS
330
259
102
}
100
AcDbXrecord
102
EXTNAMES
  1
STANDARD
  2
Standard
  0
XRECORD
  5
16
102
{ACAD_REACTORS
330
15
102
}
100
AcDbXrecord
102
EXTNAMES
  1
__
  2
++
  1
-DETALLES
  2
-detalles
  1
00TRF
  2
00trf
  1
04CUBIERTAS
  2
04cubiertas
  1
2_PLAN_ESPECIAL
  2
2_PLAN ESPECIAL
  1
3D
  2
3d
  1
3D_LAYERS
  2
3D LAYERS
  1
_P00
  2
_p00
  1
A-FLOR
  2
A-Flor
  1
A_
  2
a_
  1
AA_FT
  2
AA_ft
  1
AAA
  2
aaa
  1
ABOVE
  2
above
  1
ACT
  2
act
  1
ACTIVADAS
  2
Activadas
  1
AE
  2
ae
  1
AGUA
  2
Agua
  1
ALERO
  2
alero
  1
ALL_FROZEN
  2
all frozen
  1
ALLE-SCHÜCO-LAYER
  2
alle-schüco-layer
  1
ALLE-SICHTBAREN-LAYER
  2
alle-sichtbaren-layer
  1
AMARILLO
  2
amarillo
  1
AMS
  2
ams
  1
AN
  2
an
  1
AQ
  2
aq
  1
AQ-
  2
aq-
  1
AR2N
  2
ar2n
  1
ARBRES
  2
arbres
  1
ARCHITECTURAL
  2
Architectural
  1
AREA
  2
area
  1
ARQUETAS
  2
Arquetas
  1
B1
  2
b1
  1
B1_A
  2
B1.A
  1
B1_C
  2
B1.C
  1
B1_R
  2
B1.R
  1
B1_T
  2
B1.T
  1
B1_W
  2
B1.W
  1
BARRACONES
  2
barracones
  1
BASE
  2
base
  1
BLOQ
  2
bloq
  1
BLOQUEADA
  2
bloqueada
  1
BLOQUEADAS
  2
bloqueadas
  1
BLUE
  2
blue
  1
BOMA
  2
boma
  1
BORING
  2
boring
  1
C-
  2
c-
  1
CAPA_0
  2
capa 0
  1
CAPAS_ACTIVADAS
  2
capas activadas
  1
CAPAS_DESACTIVADAS
  2
capas desactivadas
  1
CAPAS_P1
  2
capas p1
  1
CAR
  2
car
  1
CARTOGRAFIA
  2
cartografia
  1
CEL
  2
cel
  1
CEL-RAS
  2
cel-ras
  1
CIAN
  2
cian
  1
CLG
  2
clg
  1
CLMN
  2
clmn
  1
COLOR
  2
color
  1
COLOR_8
  2
COLOR 8
  1
COLOR_9
  2
color 9
  1
COLOR-8
  2
color-8
  1
COM
  2
com
  1
CONTOURS1
  2
contours1
  1
COTA
  2
Cota
  1
COULEUR
  2
couleur
  1
CURVA
  2
curva
  1
CYCL
  2
cycl
  1
DEL_DIBUJO
  2
Del dibujo
  1
DEMO
  2
demo
  1
DES
  2
des
  1
DETALLE
  2
detalle
  1
DETALLES
  2
detalles
  1
DIMENSIONAL_CONTROL
  2
Dimensional Control
  1
DIMS
  2
dims
  1
DOORS
  2
doors
  1
DRENAGEM
  2
drenagem
  1
DUST
  2
dust
  1
EIXOS
  2
eixos
  1
EJE
  2
eje
  1
ELECT
  2
elect
  1
ELLIPSE
  2
ellipse
  1
ENTORN
  2
entorn
  1
ENTRAMADO-FACHADAS
  2
Entramado-Fachadas
  1
ENVIRONMENTAL
  2
Environmental
  1
EQ
  2
eq
  1
ESCALA_1-50
  2
escala 1-50
  1
ESCALATOR
  2
escalator
  1
ESPAI_VERD
  2
ESPAI VERD
  1
ESPLANADE
  2
Esplanade
  1
ESTRU00
  2
estru00
  1
ESTRUCTURAS
  2
estructuras
  1
EXISTING
  2
Existing
  1
EXISTING_PROPERTY_LINE
  2
Existing Property Line
  1
EXISTING_TOPOGRAPHY
  2
Existing Topography
  1
EXISTING_UTILITIES
  2
Existing Utilities
  1
EXTERIOR
  2
exterior
  1
FACE
  2
face
  1
FACE-CORE
  2
face-core
  1
FALL
  2
fall
  1
FANCOIL
  2
fancoil
  1
FECALES
  2
Fecales
  1
FF200M
  2
ff200m
  1
FIRE
  2
fire
  1
FLOOR
  2
Floor
  1
FREEZE
  2
freeze
  1
FREEZED
  2
freezed
  1
FROZEN
  2
Frozen
  1
FURN
  2
furn
  1
FUS
  2
fus
  1
GAS
  2
Gas
  1
GEL
  2
gel
  1
GEOTECHNICAL
  2
Geotechnical
  1
GILLTEMP
  2
gilltemp
  1
GREEN
  2
green
  1
GRID
  2
grid
  1
GRIS8
  2
gris8
  1
GRIS9
  2
gris9
  1
GRISES
  2
grises
  1
GRO
  2
gro
  1
H-
  2
h-
  1
HATCH
  2
hatch
  1
HIDDEN
  2
Hidden
  1
HOJAS
  2
hojas
  1
IL
  2
il
  1
ILUM
  2
ilum
  1
IMG
  2
img
  1
INAC
  2
inac
  1
JALONAMIENTO
  2
jalonamiento
  1
K52
  2
k52
  1
LANDSCAPING
  2
Landscaping
  1
LAYERS_IN_THIS_DRAWING
  2
Layers In This Drawing
  1
LAYO
  2
layo
  1
LEVEL_1
  2
LEVEL 1
  1
LEVEL_8
  2
LEVEL 8
  1
LIGHTING
  2
Lighting
  1
LIM
  2
lim
  1
LINE_WIGHT
  2
line wight
  1
LINEA_FINA
  2
linea fina
  1
LINEA_GRUESA
  2
LINEA GRUESA
  1
LLUMS
  2
llums
  1
LOT
  2
lot
  1
LVL
  2
lvl
  1
MAGENTA
  2
Magenta
  1
MECH
  2
mech
  1
MEDIA_TENSION
  2
Media Tension
  1
MEDICAL
  2
Medical
  1
MEZZ
  2
mezz
  1
MILL
  2
mill
  1
MZ
  2
mz
  1
N-CLAV
  2
n-clav
  1
NEAL
  2
neal
  1
NELF
  2
nelf
  1
NO_XREF
  2
no xref
  1
NPLT
  2
nplt
  1
OFF_ALL_XREF_LAYERS
  2
Off all xref layers
  1
OFFSITE_GRADING
  2
Offsite Grading
  1
OFFSITE_ROADWAY_IMP_
  2
Offsite Roadway Imp.
  1
OFFSITE_STORM
  2
Offsite Storm
  1
OFFSITE_STRIPING___TRAFFIC
  2
Offsite Striping & Traffic
  1
OI
  2
oi
  1
OU-AREA
  2
ou-area
  1
P
  2
p
  1
P-2
  2
p-2
  1
P00
  2
p00
  1
P01
  2
p01
  1
P02
  2
p02
  1
P03
  2
p03
  1
P1401
  2
p1401
  1
P14P-2
  2
p14p-2
  1
P14P00
  2
p14p00
  1
P4
  2
p4
  1
PA
  2
Pa
  1
PARCELA
  2
Parcela
  1
PASILLO
  2
pasillo
  1
PATT
  2
patt
  1
PB
  2
pb
  1
PIEZA_DE_CRISTAL
  2
pieza de cristal
  1
PILARES
  2
pilares
  1
PIPES
  2
pipes
  1
PIPES1
  2
Pipes1
  1
PIPING_PLAN2
  2
PIPING PLAN2
  1
PL
  2
pl
  1
PLANTA_BAJA
  2
Planta baja
  1
PLANTA_BAJA_ACT
  2
Planta baja ACT
  1
PLANTA_SUBSUELO
  2
Planta Subsuelo
  1
PLANTA_TÉCNICA
  2
Planta técnica
  1
PLANTS
  2
plants
  1
PLOTEO
  2
ploteo
  1
PLUVIALES
  2
Pluviales
  1
PN10
  2
pn10
  1
POPOPO
  2
Popopo
  1
POZOS_AGUA
  2
Pozos_Agua
  1
POZOS_FECALES
  2
Pozos_Fecales
  1
POZOS_PLUVIALES
  2
Pozos_pluviales
  1
PQ
  2
Pq
  1
PROP
  2
prop
  1
PROPOSED_DRAINAGE_DESIGN
  2
Proposed Drainage Design
  1
PROPOSED_EASEMENT
  2
Proposed Easement
  1
PROPOSED_GRADING
  2
Proposed Grading
  1
PROPOSED_SITE_LAYOUT
  2
Proposed Site Layout
  1
PROPOSED_STORM_PIPES
  2
Proposed Storm Pipes
  1
PROPOSED_STRIPING
  2
Proposed Striping
  1
PROPOSED_UTILITIES
  2
Proposed Utilities
  1
RED
  2
red
  1
RIEGO
  2
Riego
  1
ROOF
  2
roof
  1
ROOM
  2
room
  1
SCALE200
  2
scale200
  1
SE
  2
se
  1
SECC
  2
secc
  1
SEDIMENT_CONTROL
  2
Sediment Control
  1
SEGUNDA
  2
segunda
  1
SEGUNDABIS
  2
segundabis
  1
SENY_HORIT
  2
seny_horit
  1
SHADE
  2
shade
  1
SITE
  2
site
  1
SITE-LOCATION
  2
site-location
  1
SOLO_CAPA
  2
SOLO CAPA
  1
SPACE_PLANNING
  2
space planning
  1
STRUCTURAL
  2
structural
  1
SUP01
  2
sup01
  1
SUP02
  2
sup02
  1
SUP03
  2
sup03
  1
SUP04
  2
sup04
  1
SUPERFICIES
  2
superficies
  1
SURVEY_WORKING_FILES
  2
Survey Working Files
  1
TALLERES
  2
talleres
  1
TEMP
  2
temp
  1
TEMPORARY_LAYERS
  2
Temporary Layers
  1
TEST
  2
test
  1
TEXT
  2
text
  1
THAWED
  2
Thawed
  1
TIM
  2
tim
  1
TMP
  2
tmp
  1
TOPO
  2
topo
  1
TRABAJO
  2
trabajo
  1
TRAM
  2
tram
  1
TRAMA
  2
trama
  1
TRAMAS
  2
tramas
  1
TUBE
  2
tube
  1
U
  2
u
  1
UISKAS
  2
uiskas
  1
UNI
  2
uni
  1
UP
  2
up
  1
URBAN
  2
urban
  1
UTILIZADAS
  2
Utilizadas
  1
VDOT
  2
vdot
  1
VISTAS
  2
vistas
  1
W
  2
w
  1
WE
  2
we
  1
WETLANDS
  2
Wetlands
  1
WHITE
  2
white
  1
WINDOW
  2
window
  1
YELLOW
  2
yellow
  1
YO
  2
yo
  1
YUZEYLER
  2
yuzeyler
  1
ZZ
  2
zz
  0
ENDSEC
  0
EOF
