  0
SECTION
  2
HEADER
  9
$ACADVER
  1
AC1014
  9
$ACADMAINTVER
 70
     0
  9
$DWGCODEPAGE
  3
ANSI_1252
  9
$INSBASE
 10
0.0
 20
0.0
 30
0.0
  9
$EXTMIN
 10
2450.907945
 20
-12292.722543
 30
-6019.667988
  9
$EXTMAX
 10
24274.449153
 20
-7954.668054
 30
-2488.276141
  9
$LIMMIN
 10
0.0
 20
0.0
  9
$LIMMAX
 10
0.0
 20
0.0
  9
$ORTHOMODE
 70
     1
  9
$REGENMODE
 70
     1
  9
$FILLMODE
 70
     1
  9
$QTEXTMODE
 70
     0
  9
$MIRRTEXT
 70
     1
  9
$DRAGMODE
 70
     2
  9
$LTSCALE
 40
100.0
  9
$OSMODE
 70
    35
  9
$ATTMODE
 70
     1
  9
$TEXTSIZE
 40
0.2
  9
$TRACEWID
 40
0.05
  9
$TEXTSTYLE
  7
STANDARD
  9
$CLAYER
  8
SECUN3PE
  9
$CELTYPE
  6
BYLAYER
  9
$CECOLOR
 62
   256
  9
$CELTSCALE
 40
1.0
  9
$DELOBJ
 70
     1
  9
$DISPSILH
 70
     0
  9
$DIMSCALE
 40
1.0
  9
$DIMASZ
 40
4.25
  9
$DIMEXO
 40
20.0
  9
$DIMDLI
 40
0.08
  9
$DIMRND
 40
0.0
  9
$DIMDLE
 40
0.0
  9
$DIMEXE
 40
20.0
  9
$DIMTP
 40
0.0
  9
$DIMTM
 40
0.0
  9
$DIMTXT
 40
10.0
  9
$DIMCEN
 40
0.09
  9
$DIMTSZ
 40
0.0
  9
$DIMTOL
 70
     0
  9
$DIMLIM
 70
     0
  9
$DIMTIH
 70
     0
  9
$DIMTOH
 70
     0
  9
$DIMSE1
 70
     0
  9
$DIMSE2
 70
     0
  9
$DIMTAD
 70
     1
  9
$DIMZIN
 70
     0
  9
$DIMBLK
  1
$0$_DOT
  9
$DIMASO
 70
     1
  9
$DIMSHO
 70
     1
  9
$DIMPOST
  1
m
  9
$DIMAPOST
  1

  9
$DIMALT
 70
     0
  9
$DIMALTD
 70
     2
  9
$DIMALTF
 40
25.4
  9
$DIMLFAC
 40
0.01
  9
$DIMTOFL
 70
     0
  9
$DIMTVP
 40
0.0
  9
$DIMTIX
 70
     0
  9
$DIMSOXD
 70
     0
  9
$DIMSAH
 70
     0
  9
$DIMBLK1
  1

  9
$DIMBLK2
  1

  9
$DIMSTYLE
  2
DIM-50
  9
$DIMCLRD
 70
     1
  9
$DIMCLRE
 70
     1
  9
$DIMCLRT
 70
     0
  9
$DIMTFAC
 40
1.0
  9
$DIMGAP
 40
10.0
  9
$DIMJUST
 70
     0
  9
$DIMSD1
 70
     0
  9
$DIMSD2
 70
     0
  9
$DIMTOLJ
 70
     1
  9
$DIMTZIN
 70
     0
  9
$DIMALTZ
 70
     0
  9
$DIMALTTZ
 70
     0
  9
$DIMFIT
 70
     3
  9
$DIMUPT
 70
     0
  9
$DIMUNIT
 70
     2
  9
$DIMDEC
 70
     2
  9
$DIMTDEC
 70
     2
  9
$DIMALTU
 70
     2
  9
$DIMALTTD
 70
     2
  9
$DIMTXSTY
  7
ROMANS
  9
$DIMAUNIT
 70
     0
  9
$LUNITS
 70
     2
  9
$LUPREC
 70
     4
  9
$SKETCHINC
 40
0.1
  9
$FILLETRAD
 40
0.0
  9
$AUNITS
 70
     0
  9
$AUPREC
 70
     0
  9
$MENU
  1
acad
  9
$ELEVATION
 40
0.0
  9
$PELEVATION
 40
0.0
  9
$THICKNESS
 40
0.0
  9
$LIMCHECK
 70
     0
  9
$BLIPMODE
 70
     0
  9
$CHAMFERA
 40
0.0
  9
$CHAMFERB
 40
0.0
  9
$CHAMFERC
 40
0.0
  9
$CHAMFERD
 40
0.0
  9
$SKPOLY
 70
     0
  9
$TDCREATE
 40
2452790.444939594
  9
$TDUPDATE
 40
2452912.590660914
  9
$TDINDWG
 40
2.8563758449
  9
$TDUSRTIMER
 40
2.8563758449
  9
$USRTIMER
 70
     1
  9
$ANGBASE
 50
0.0
  9
$ANGDIR
 70
     0
  9
$PDMODE
 70
     0
  9
$PDSIZE
 40
0.0
  9
$PLINEWID
 40
0.0
  9
$COORDS
 70
     1
  9
$SPLFRAME
 70
     0
  9
$SPLINETYPE
 70
     6
  9
$SPLINESEGS
 70
     8
  9
$ATTDIA
 70
     0
  9
$ATTREQ
 70
     1
  9
$HANDLING
 70
     1
  9
$HANDSEED
  5
2564
  9
$SURFTAB1
 70
     6
  9
$SURFTAB2
 70
     6
  9
$SURFTYPE
 70
     6
  9
$SURFU
 70
     6
  9
$SURFV
 70
     6
  9
$UCSNAME
  2

  9
$UCSORG
 10
0.0
 20
0.0
 30
0.0
  9
$UCSXDIR
 10
0.0
 20
1.0
 30
0.0
  9
$UCSYDIR
 10
0.0
 20
0.0
 30
1.0
  9
$PUCSNAME
  2

  9
$PUCSORG
 10
0.0
 20
0.0
 30
0.0
  9
$PUCSXDIR
 10
1.0
 20
0.0
 30
0.0
  9
$PUCSYDIR
 10
0.0
 20
1.0
 30
0.0
  9
$USERI1
 70
     0
  9
$USERI2
 70
     0
  9
$USERI3
 70
     0
  9
$USERI4
 70
     0
  9
$USERI5
 70
     0
  9
$USERR1
 40
1.0
  9
$USERR2
 40
1.0
  9
$USERR3
 40
0.0
  9
$USERR4
 40
0.0
  9
$USERR5
 40
0.0
  9
$WORLDVIEW
 70
     1
  9
$SHADEDGE
 70
     3
  9
$SHADEDIF
 70
    70
  9
$TILEMODE
 70
     1
  9
$MAXACTVP
 70
    16
  9
$PINSBASE
 10
0.0
 20
0.0
 30
0.0
  9
$PLIMCHECK
 70
     0
  9
$PEXTMIN
 10
1.000000E+20
 20
1.000000E+20
 30
1.000000E+20
  9
$PEXTMAX
 10
-1.000000E+20
 20
-1.000000E+20
 30
-1.000000E+20
  9
$PLIMMIN
 10
0.0
 20
0.0
  9
$PLIMMAX
 10
12.0
 20
9.0
  9
$UNITMODE
 70
     0
  9
$VISRETAIN
 70
     0
  9
$PLINEGEN
 70
     1
  9
$PSLTSCALE
 70
     0
  9
$TREEDEPTH
 70
  3020
  9
$PICKSTYLE
 70
     0
  9
$CMLSTYLE
  2
STANDARD
  9
$CMLJUST
 70
     0
  9
$CMLSCALE
 40
1.0
  9
$PROXYGRAPHICS
 70
     0
  9
$MEASUREMENT
 70
     0
  0
ENDSEC
  0
SECTION
  2
CLASSES
  0
CLASS
  1
LWPOLYLINE
  2
AcDbPolyline
  3
"AutoCAD"
 90
        0
280
     0
281
     1
  0
CLASS
  1
IMAGE
  2
AcDbRasterImage
  3
ISM
 90
      127
280
     1
281
     1
  0
CLASS
  1
OLE2FRAME
  2
AcDbOle2Frame
  3
""
 90
        0
280
     0
281
     1
  0
CLASS
  1
HATCH
  2
AcDbHatch
  3
"ACAD_SEDONA"
 90
        0
280
     0
281
     1
  0
CLASS
  1
DICTIONARYVAR
  2
AcDbDictionaryVar
  3
"AutoCAD"
 90
        0
280
     0
281
     0
  0
CLASS
  1
RASTERVARIABLES
  2
AcDbRasterVariables
  3
ISM
 90
        0
280
     1
281
     0
  0
CLASS
  1
IMAGEDEF
  2
AcDbRasterImageDef
  3
ISM
 90
        0
280
     1
281
     0
  0
CLASS
  1
IMAGEDEF_REACTOR
  2
AcDbRasterImageDefReactor
  3
ISM
 90
        1
280
     1
281
     0
  0
CLASS
  1
IDBUFFER
  2
AcDbIdBuffer
  3
"Acad"
 90
        0
280
     0
281
     0
  0
CLASS
  1
SPATIAL_FILTER
  2
AcDbSpatialFilter
  3
"Acad"
 90
        0
280
     0
281
     0
  0
CLASS
  1
XRECORD
  2
AcDbXrecord
  3
"<Built In>"
 90
        0
280
     0
281
     0
  0
CLASS
  1
SORTENTSTABLE
  2
AcDbSortentsTable
  3
"AutoCAD"
 90
        0
280
     0
281
     0
  0
CLASS
  1
LAYER_INDEX
  2
AcDbLayerIndex
  3
"Acad"
 90
        0
280
     0
281
     0
  0
CLASS
  1
SPATIAL_INDEX
  2
AcDbSpatialIndex
  3
"Acad"
 90
        0
280
     0
281
     0
  0
CLASS
  1
OBJECT_PTR
  2
CAseDLPNTableRecord
  3
ASE-LPNTableRecord
 90
        1
280
     1
281
     0
  0
CLASS
  1
LAYOUT
  2
AcDbLayout
  3
AutoCAD 2000
 90
        0
280
     1
281
     0
  0
CLASS
  1
PLOTSETTINGS
  2
AcDbPlotSettings
  3
AutoCAD 2000
 90
        0
280
     1
281
     0
  0
CLASS
  1
ACDBDICTIONARYWDFLT
  2
AcDbDictionaryWithDefault
  3
AutoCAD 2000
 90
        0
280
     1
281
     0
  0
CLASS
  1
ACDBPLACEHOLDER
  2
AcDbPlaceHolder
  3
AutoCAD 2000
 90
        0
280
     1
281
     0
  0
CLASS
  1
LONG_TRANSACTION
  2
AcDbLongTransaction
  3
AutoCAD 2000
 90
        0
280
     1
281
     0
  0
CLASS
  1
LWPOLYLINE
  2
AcDbPolyline
  3
"AutoCAD"
 90
        0
280
     0
281
     1
  0
CLASS
  1
HATCH
  2
AcDbHatch
  3
"ACAD_SEDONA"
 90
        0
280
     0
281
     1
  0
CLASS
  1
XRECORD
  2
AcDbXrecord
  3
"<Built In>"
 90
        0
280
     0
281
     0
  0
ENDSEC
  0
SECTION
  2
TABLES
  0
TABLE
  2
VPORT
  5
1DA
100
AcDbSymbolTable
 70
     7
  0
VPORT
  5
2563
100
AcDbSymbolTableRecord
100
AcDbViewportTableRecord
  2
*ACTIVE
 70
     0
 10
0.0
 20
0.0
 11
1.0
 21
1.0
 12
-17727.995456
 22
-4676.701375
 13
0.0
 23
0.0
 14
1.0
 24
1.0
 15
0.0
 25
0.0
 16
1.0
 26
1.0
 36
1.0
 17
0.0
 27
0.0
 37
0.0
 40
280.217122
 41
1.630769
 42
50.0
 43
0.0
 44
0.0
 50
0.0
 51
0.0
 71
     0
 72
   100
 73
     1
 74
     1
 75
     0
 76
     0
 77
     0
 78
     0
  0
ENDTAB
  0
TABLE
  2
LTYPE
  5
1D1
100
AcDbSymbolTable
 70
     3
  0
LTYPE
  5
1D2
102
{ACAD_XDICTIONARY
360
1D3
102
}
100
AcDbSymbolTableRecord
100
AcDbLinetypeTableRecord
  2
BYBLOCK
 70
     0
  3

 72
    65
 73
     0
 40
0.0
  0
LTYPE
  5
1D5
102
{ACAD_XDICTIONARY
360
1D6
102
}
100
AcDbSymbolTableRecord
100
AcDbLinetypeTableRecord
  2
BYLAYER
 70
     0
  3

 72
    65
 73
     0
 40
0.0
  0
LTYPE
  5
8
102
{ACAD_XDICTIONARY
360
9
102
}
100
AcDbSymbolTableRecord
100
AcDbLinetypeTableRecord
  2
CONTINUOUS
 70
     0
  3
Solid line
 72
    65
 73
     0
 40
0.0
  0
LTYPE
  5
69F
100
AcDbSymbolTableRecord
100
AcDbLinetypeTableRecord
  2
DASHDOT
 70
     0
  3
Dash dot __ . __ . __ . __ . __ . __ . __ . __
 72
    65
 73
     4
 40
1.0
 49
0.5
 74
     0
 49
-0.25
 74
     0
 49
0.0
 74
     0
 49
-0.25
 74
     0
  0
LTYPE
  5
11C3
102
{ACAD_XDICTIONARY
360
11C4
102
}
100
AcDbSymbolTableRecord
100
AcDbLinetypeTableRecord
  2
GRDCON$0$CENTER
 70
     0
  3
Center ____ _ ____ _ ____ _ ____ _ ____ _ ____
 72
    65
 73
     4
 40
2.0
 49
1.25
 74
     0
 49
-0.25
 74
     0
 49
0.25
 74
     0
 49
-0.25
 74
     0
  0
ENDTAB
  0
TABLE
  2
LAYER
  5
12
102
{ACAD_XDICTIONARY
360
13
102
}
100
AcDbSymbolTable
 70
    41
  0
LAYER
  5
7
100
AcDbSymbolTableRecord
100
AcDbLayerTableRecord
  2
0
 70
     0
 62
    -7
  6
CONTINUOUS
  0
LAYER
  5
11C6
100
AcDbSymbolTableRecord
100
AcDbLayerTableRecord
  2
VB_AUXB
 70
     0
 62
    -4
  6
CONTINUOUS
  0
LAYER
  5
11C7
100
AcDbSymbolTableRecord
100
AcDbLayerTableRecord
  2
ALIN2
 70
     0
 62
    -2
  6
CONTINUOUS
  0
LAYER
  5
11C8
100
AcDbSymbolTableRecord
100
AcDbLayerTableRecord
  2
CC
 70
     0
 62
    -7
  6
CONTINUOUS
  0
LAYER
  5
11C9
100
AcDbSymbolTableRecord
100
AcDbLayerTableRecord
  2
PILARESP
 70
     0
 62
     6
  6
CONTINUOUS
  0
LAYER
  5
11CA
100
AcDbSymbolTableRecord
100
AcDbLayerTableRecord
  2
PILARESPU
 70
     0
 62
     7
  6
CONTINUOUS
  0
LAYER
  5
11CB
100
AcDbSymbolTableRecord
100
AcDbLayerTableRecord
  2
PILARESN
 70
     0
 62
     7
  6
CONTINUOUS
  0
LAYER
  5
11CC
100
AcDbSymbolTableRecord
100
AcDbLayerTableRecord
  2
PILARESN2
 70
     0
 62
     9
  6
CONTINUOUS
  0
LAYER
  5
11CD
100
AcDbSymbolTableRecord
100
AcDbLayerTableRecord
  2
VIGASN
 70
     0
 62
     2
  6
CONTINUOUS
  0
LAYER
  5
11CE
100
AcDbSymbolTableRecord
100
AcDbLayerTableRecord
  2
VIGASN2
 70
     0
 62
     2
  6
CONTINUOUS
  0
LAYER
  5
11CF
100
AcDbSymbolTableRecord
100
AcDbLayerTableRecord
  2
VIGASTN
 70
     0
 62
    52
  6
CONTINUOUS
  0
LAYER
  5
11D0
100
AcDbSymbolTableRecord
100
AcDbLayerTableRecord
  2
VIGASINT
 70
     0
 62
     4
  6
CONTINUOUS
  0
LAYER
  5
11D1
100
AcDbSymbolTableRecord
100
AcDbLayerTableRecord
  2
PILARESINT
 70
     0
 62
     5
  6
CONTINUOUS
  0
LAYER
  5
11D2
100
AcDbSymbolTableRecord
100
AcDbLayerTableRecord
  2
VIGACURVA
 70
     0
 62
     1
  6
CONTINUOUS
  0
LAYER
  5
11D3
100
AcDbSymbolTableRecord
100
AcDbLayerTableRecord
  2
SECUNPI
 70
     0
 62
   -92
  6
CONTINUOUS
  0
LAYER
  5
11D4
100
AcDbSymbolTableRecord
100
AcDbLayerTableRecord
  2
SECUNVI
 70
     0
 62
  -132
  6
CONTINUOUS
  0
LAYER
  5
11D5
100
AcDbSymbolTableRecord
100
AcDbLayerTableRecord
  2
ALIN2E
 70
     0
 62
     2
  6
CONTINUOUS
  0
LAYER
  5
11D6
100
AcDbSymbolTableRecord
100
AcDbLayerTableRecord
  2
SECUNVOL
 70
     0
 62
     6
  6
CONTINUOUS
  0
LAYER
  5
11D7
100
AcDbSymbolTableRecord
100
AcDbLayerTableRecord
  2
SECUNVE
 70
     0
 62
     4
  6
CONTINUOUS
  0
LAYER
  5
11D8
100
AcDbSymbolTableRecord
100
AcDbLayerTableRecord
  2
SECUNPE
 70
     0
 62
     3
  6
CONTINUOUS
  0
LAYER
  5
11D9
100
AcDbSymbolTableRecord
100
AcDbLayerTableRecord
  2
VIGACURVAE
 70
     0
 62
     1
  6
CONTINUOUS
  0
LAYER
  5
11DB
100
AcDbSymbolTableRecord
100
AcDbLayerTableRecord
  2
VBCONTORNO
 70
     0
 62
    -7
  6
CONTINUOUS
  0
LAYER
  5
11DC
100
AcDbSymbolTableRecord
100
AcDbLayerTableRecord
  2
VIGACURVA_AUX
 70
     0
 62
    -4
  6
CONTINUOUS
  0
LAYER
  5
11DD
100
AcDbSymbolTableRecord
100
AcDbLayerTableRecord
  2
VB
 70
     0
 62
     1
  6
CONTINUOUS
  0
LAYER
  5
11DE
100
AcDbSymbolTableRecord
100
AcDbLayerTableRecord
  2
VB_VOL
 70
     0
 62
     7
  6
CONTINUOUS
  0
LAYER
  5
2119
100
AcDbSymbolTableRecord
100
AcDbLayerTableRecord
  2
VB_AUX
 70
     0
 62
     7
  6
CONTINUOUS
  0
LAYER
  5
2237
100
AcDbSymbolTableRecord
100
AcDbLayerTableRecord
  2
_AA_SOMBRA1
 70
     0
 62
  -253
  6
CONTINUOUS
  0
LAYER
  5
229F
100
AcDbSymbolTableRecord
100
AcDbLayerTableRecord
  2
SECUN2PI
 70
     0
 62
     7
  6
CONTINUOUS
  0
LAYER
  5
22AA
100
AcDbSymbolTableRecord
100
AcDbLayerTableRecord
  2
SECUN2VI
 70
     0
 62
     7
  6
CONTINUOUS
  0
LAYER
  5
22D5
100
AcDbSymbolTableRecord
100
AcDbLayerTableRecord
  2
SECUN2VOL
 70
     0
 62
     7
  6
CONTINUOUS
  0
LAYER
  5
2361
100
AcDbSymbolTableRecord
100
AcDbLayerTableRecord
  2
SECUN2VE
 70
     0
 62
     6
  6
CONTINUOUS
  0
LAYER
  5
2362
100
AcDbSymbolTableRecord
100
AcDbLayerTableRecord
  2
SECUN2PE
 70
     0
 62
    94
  6
CONTINUOUS
  0
LAYER
  5
2438
100
AcDbSymbolTableRecord
100
AcDbLayerTableRecord
  2
SECUN3VI
 70
     0
 62
   181
  6
CONTINUOUS
  0
LAYER
  5
2439
100
AcDbSymbolTableRecord
100
AcDbLayerTableRecord
  2
SECUN3PI
 70
     0
 62
   180
  6
CONTINUOUS
  0
LAYER
  5
24A1
100
AcDbSymbolTableRecord
100
AcDbLayerTableRecord
  2
SECUN3VOL
 70
     0
 62
   202
  6
CONTINUOUS
  0
LAYER
  5
24B2
100
AcDbSymbolTableRecord
100
AcDbLayerTableRecord
  2
SECUN3VE
 70
     0
 62
     6
  6
CONTINUOUS
  0
LAYER
  5
24B3
100
AcDbSymbolTableRecord
100
AcDbLayerTableRecord
  2
SECUN3PE
 70
     0
 62
   142
  6
CONTINUOUS
  0
LAYER
  5
24F5
100
AcDbSymbolTableRecord
100
AcDbLayerTableRecord
  2
SECUNVE2
 70
     0
 62
   150
  6
CONTINUOUS
  0
LAYER
  5
24F6
100
AcDbSymbolTableRecord
100
AcDbLayerTableRecord
  2
SECUNDIAG
 70
     0
 62
   122
  6
CONTINUOUS
  0
LAYER
  5
24F7
100
AcDbSymbolTableRecord
100
AcDbLayerTableRecord
  2
SECUNPE2
 70
     0
 62
    96
  6
CONTINUOUS
  0
LAYER
  5
24FD
100
AcDbSymbolTableRecord
100
AcDbLayerTableRecord
  2
X
 70
     0
 62
     7
  6
CONTINUOUS
  0
ENDTAB
  0
TABLE
  2
STYLE
  5
1CD
100
AcDbSymbolTable
 70
     2
  0
STYLE
  5
1CE
102
{ACAD_XDICTIONARY
360
1CF
102
}
100
AcDbSymbolTableRecord
100
AcDbTextStyleTableRecord
  2
STANDARD
 70
     0
 40
0.0
 41
1.0
 50
0.0
 71
     0
 42
0.2
  3
txt
  4

  0
STYLE
  5
1E7
100
AcDbSymbolTableRecord
100
AcDbTextStyleTableRecord
  2
ROMANS
 70
     0
 40
0.0
 41
1.0
 50
0.0
 71
     0
 42
0.25
  3
romans.shx
  4

  0
ENDTAB
  0
TABLE
  2
VIEW
  5
1D8
100
AcDbSymbolTable
 70
     0
  0
ENDTAB
  0
TABLE
  2
UCS
  5
1D9
100
AcDbSymbolTable
 70
     0
  0
ENDTAB
  0
TABLE
  2
APPID
  5
1DC
100
AcDbSymbolTable
 70
     1
  0
APPID
  5
B
100
AcDbSymbolTableRecord
100
AcDbRegAppTableRecord
  2
ACAD
 70
     0
  0
ENDTAB
  0
TABLE
  2
DIMSTYLE
  5
1DD
100
AcDbSymbolTable
 70
     1
  0
DIMSTYLE
105
1E9
102
{ACAD_XDICTIONARY
360
1EA
102
}
100
AcDbSymbolTableRecord
100
AcDbDimStyleTableRecord
  2
DIM-50
 70
     0
  3
m
  4

  5
$0$_DOT
  6

  7

 40
1.0
 41
4.25
 42
20.0
 43
0.08
 44
20.0
 45
0.0
 46
0.0
 47
0.0
 48
0.0
140
10.0
141
0.09
142
0.0
143
25.4
144
0.01
145
0.0
146
1.0
147
10.0
 71
     0
 72
     0
 73
     0
 74
     0
 75
     0
 76
     0
 77
     1
 78
     0
170
     0
171
     2
172
     0
173
     0
174
     0
175
     0
176
     1
177
     1
178
     0
270
     2
271
     2
272
     2
273
     2
274
     2
340
1E7
275
     0
280
     0
281
     0
282
     0
283
     1
284
     0
285
     0
286
     0
287
     3
288
     0
  0
ENDTAB
  0
TABLE
  2
BLOCK_RECORD
  5
1
100
AcDbSymbolTable
 70
    14
  0
BLOCK_RECORD
  5
2
102
{ACAD_XDICTIONARY
360
3
102
}
100
AcDbSymbolTableRecord
100
AcDbBlockTableRecord
  2
*MODEL_SPACE
  0
BLOCK_RECORD
  5
D
102
{ACAD_XDICTIONARY
360
E
102
}
100
AcDbSymbolTableRecord
100
AcDbBlockTableRecord
  2
*PAPER_SPACE
  0
BLOCK_RECORD
  5
1EC
100
AcDbSymbolTableRecord
100
AcDbBlockTableRecord
  2
$0$_DOT
  0
BLOCK_RECORD
  5
F17
100
AcDbSymbolTableRecord
100
AcDbBlockTableRecord
  2
APOYO
  0
BLOCK_RECORD
  5
F1B
100
AcDbSymbolTableRecord
100
AcDbBlockTableRecord
  2
P6
  0
BLOCK_RECORD
  5
F21
100
AcDbSymbolTableRecord
100
AcDbBlockTableRecord
  2
P7
  0
BLOCK_RECORD
  5
F27
100
AcDbSymbolTableRecord
100
AcDbBlockTableRecord
  2
P8
  0
BLOCK_RECORD
  5
F2D
100
AcDbSymbolTableRecord
100
AcDbBlockTableRecord
  2
APOYO295
  0
BLOCK_RECORD
  5
21A6
100
AcDbSymbolTableRecord
100
AcDbBlockTableRecord
  2
VB
  0
BLOCK_RECORD
  5
21E0
100
AcDbSymbolTableRecord
100
AcDbBlockTableRecord
  2
INIVBE
  0
BLOCK_RECORD
  5
2238
100
AcDbSymbolTableRecord
100
AcDbBlockTableRecord
  2
ESIA
  0
BLOCK_RECORD
  5
2328
100
AcDbSymbolTableRecord
100
AcDbBlockTableRecord
  2
ESIB
  0
BLOCK_RECORD
  5
237D
100
AcDbSymbolTableRecord
100
AcDbBlockTableRecord
  2
INI2VBE
  0
BLOCK_RECORD
  5
2387
100
AcDbSymbolTableRecord
100
AcDbBlockTableRecord
  2
INI2VB2
  0
BLOCK_RECORD
  5
23C5
100
AcDbSymbolTableRecord
100
AcDbBlockTableRecord
  2
F3
  0
BLOCK_RECORD
  5
252E
100
AcDbSymbolTableRecord
100
AcDbBlockTableRecord
  2
DESLI
  0
ENDTAB
  0
ENDSEC
  0
SECTION
  2
BLOCKS
  0
BLOCK
  5
6
100
AcDbEntity
  8
0
100
AcDbBlockBegin
  2
*MODEL_SPACE
 70
     0
 10
0.0
 20
0.0
 30
0.0
  3
*MODEL_SPACE
  1

1001
ACAD
1000
RTLwPs
1070
   159
  0
ENDBLK
  5
C
100
AcDbEntity
  8
0
100
AcDbBlockEnd
1001
ACAD
1000
RTLwPs
1070
   159
  0
BLOCK
  5
10
100
AcDbEntity
 67
     1
  8
0
100
AcDbBlockBegin
  2
*PAPER_SPACE
 70
     0
 10
0.0
 20
0.0
 30
0.0
  3
*PAPER_SPACE
  1

1001
ACAD
1000
RTLwPs
1070
   159
  0
ENDBLK
  5
11
100
AcDbEntity
 67
     1
  8
0
100
AcDbBlockEnd
1001
ACAD
1000
RTLwPs
1070
   159
  0
BLOCK
  5
1EF
100
AcDbEntity
  8
0
100
AcDbBlockBegin
  2
$0$_DOT
 70
     0
 10
0.0
 20
0.0
 30
0.0
  3
$0$_DOT
  1

  0
LWPOLYLINE
  5
1ED
100
AcDbEntity
  8
0
  6
BYBLOCK
 62
     0
100
AcDbPolyline
 90
        2
 70
     1
 43
0.5
 10
-0.25
 20
0.0
 42
1.0
 10
0.25
 20
0.0
 42
1.0
  0
LINE
  5
1EE
100
AcDbEntity
  8
0
  6
BYBLOCK
 62
     0
100
AcDbLine
 10
-0.5
 20
0.0
 30
0.0
 11
-1.0
 21
0.0
 31
0.0
  0
ENDBLK
  5
1F0
100
AcDbEntity
  8
0
100
AcDbBlockEnd
  0
BLOCK
  5
F19
100
AcDbEntity
  8
0
100
AcDbBlockBegin
  2
APOYO
 70
     0
 10
0.0
 20
0.0
 30
0.0
  3
APOYO
  1

  0
LWPOLYLINE
  5
F18
100
AcDbEntity
  8
PILARESP
100
AcDbPolyline
 90
        4
 70
     1
 43
0.0
 10
-40.0
 20
40.0
 10
40.0
 20
40.0
 10
40.0
 20
-40.0
 10
-40.0
 20
-40.0
  0
ENDBLK
  5
F1A
100
AcDbEntity
  8
0
100
AcDbBlockEnd
  0
BLOCK
  5
F1F
100
AcDbEntity
  8
0
100
AcDbBlockBegin
  2
P6
 70
     0
 10
0.0
 20
0.0
 30
0.0
  3
P6
  1

  0
LWPOLYLINE
  5
F1C
100
AcDbEntity
  8
CC
 62
     1
100
AcDbPolyline
 90
        4
 70
     1
 43
0.0
 10
-40.0
 20
40.0
 10
40.0
 20
40.0
 10
40.0
 20
-40.0
 10
-40.0
 20
-40.0
  0
LINE
  5
F1D
100
AcDbEntity
  8
CC
 62
     1
100
AcDbLine
 10
-40.0
 20
40.0
 30
0.0
 11
40.0
 21
-40.0
 31
0.0
  0
LINE
  5
F1E
100
AcDbEntity
  8
CC
 62
     1
100
AcDbLine
 10
40.0
 20
40.0
 30
0.0
 11
-40.0
 21
-40.0
 31
0.0
  0
ENDBLK
  5
F20
100
AcDbEntity
  8
0
100
AcDbBlockEnd
  0
BLOCK
  5
F25
100
AcDbEntity
  8
0
100
AcDbBlockBegin
  2
P7
 70
     0
 10
0.0
 20
0.0
 30
0.0
  3
P7
  1

  0
LWPOLYLINE
  5
F22
100
AcDbEntity
  8
CC
 62
     3
100
AcDbPolyline
 90
        4
 70
     1
 43
0.0
 10
-40.0
 20
40.0
 10
40.0
 20
40.0
 10
40.0
 20
-40.0
 10
-40.0
 20
-40.0
  0
LINE
  5
F23
100
AcDbEntity
  8
CC
 62
     3
100
AcDbLine
 10
-40.0
 20
40.0
 30
0.0
 11
40.0
 21
-40.0
 31
0.0
  0
LINE
  5
F24
100
AcDbEntity
  8
CC
 62
     3
100
AcDbLine
 10
40.0
 20
40.0
 30
0.0
 11
-40.0
 21
-40.0
 31
0.0
  0
ENDBLK
  5
F26
100
AcDbEntity
  8
0
100
AcDbBlockEnd
  0
BLOCK
  5
F2B
100
AcDbEntity
  8
0
100
AcDbBlockBegin
  2
P8
 70
     0
 10
0.0
 20
0.0
 30
0.0
  3
P8
  1

  0
LWPOLYLINE
  5
F28
100
AcDbEntity
  8
CC
 62
     4
100
AcDbPolyline
 90
        4
 70
     1
 43
0.0
 10
-40.0
 20
40.0
 10
40.0
 20
40.0
 10
40.0
 20
-40.0
 10
-40.0
 20
-40.0
  0
LINE
  5
F29
100
AcDbEntity
  8
CC
 62
     4
100
AcDbLine
 10
-40.0
 20
40.0
 30
0.0
 11
40.0
 21
-40.0
 31
0.0
  0
LINE
  5
F2A
100
AcDbEntity
  8
CC
 62
     4
100
AcDbLine
 10
40.0
 20
40.0
 30
0.0
 11
-40.0
 21
-40.0
 31
0.0
  0
ENDBLK
  5
F2C
100
AcDbEntity
  8
0
100
AcDbBlockEnd
  0
BLOCK
  5
F2F
100
AcDbEntity
  8
0
100
AcDbBlockBegin
  2
APOYO295
 70
     0
 10
0.0
 20
0.0
 30
0.0
  3
APOYO295
  1

  0
LWPOLYLINE
  5
F2E
100
AcDbEntity
  8
PILARESINT
100
AcDbPolyline
 90
        4
 70
     1
 43
0.0
 10
-40.0
 20
40.0
 10
40.0
 20
40.0
 10
40.0
 20
-40.0
 10
-40.0
 20
-40.0
  0
ENDBLK
  5
F30
100
AcDbEntity
  8
0
100
AcDbBlockEnd
  0
BLOCK
  5
21A7
100
AcDbEntity
  8
0
100
AcDbBlockBegin
  2
VB
 70
     0
 10
0.0
 20
0.0
 30
0.0
  3
VB
  1

  0
LWPOLYLINE
  5
21A8
100
AcDbEntity
  8
VB
100
AcDbPolyline
 90
        4
 70
     1
 43
0.0
 10
-40.0
 20
40.0
 10
40.0
 20
40.0
 10
40.0
 20
-40.0
 10
-40.0
 20
-40.0
  0
LINE
  5
21A9
100
AcDbEntity
  8
VB
100
AcDbLine
 10
-40.0
 20
40.0
 30
0.0
 11
40.0
 21
-40.0
 31
0.0
  0
ENDBLK
  5
21AA
100
AcDbEntity
  8
0
100
AcDbBlockEnd
  0
BLOCK
  5
21E1
100
AcDbEntity
  8
0
100
AcDbBlockBegin
  2
INIVBE
 70
     0
 10
0.0
 20
0.0
 30
0.0
  3
INIVBE
  1

  0
LWPOLYLINE
  5
21E2
100
AcDbEntity
  8
PILARESP
100
AcDbPolyline
 90
        4
 70
     1
 43
0.0
 10
0.0
 20
0.0
 10
80.0
 20
0.0
 10
80.0
 20
-80.0
 10
0.0
 20
-80.0
  0
ENDBLK
  5
21E3
100
AcDbEntity
  8
0
100
AcDbBlockEnd
  0
BLOCK
  5
2251
100
AcDbEntity
  8
0
100
AcDbBlockBegin
  2
ESIA
 70
     0
 10
0.0
 20
0.0
 30
0.0
  3
ESIA
  1

  0
LINE
  5
2239
100
AcDbEntity
  8
_AA_SOMBRA1
100
AcDbLine
 10
200.0
 20
0.0
 30
0.0
 11
200.0
 21
1411.282801
 31
0.0
  0
LINE
  5
223A
100
AcDbEntity
  8
_AA_SOMBRA1
100
AcDbLine
 10
200.0
 20
1411.282801
 30
0.0
 11
200.0
 21
1551.997463
 31
0.0
  0
LINE
  5
223B
100
AcDbEntity
  8
_AA_SOMBRA1
100
AcDbLine
 10
400.0
 20
0.0
 30
0.0
 11
400.0
 21
1358.209624
 31
0.0
  0
LINE
  5
223C
100
AcDbEntity
  8
_AA_SOMBRA1
100
AcDbLine
 10
400.0
 20
1358.209624
 30
0.0
 11
400.0
 21
1498.911254
 31
0.0
  0
LINE
  5
223D
100
AcDbEntity
  8
_AA_SOMBRA1
100
AcDbLine
 10
600.0
 20
0.0
 30
0.0
 11
600.0
 21
1305.282193
 31
0.0
  0
LINE
  5
223E
100
AcDbEntity
  8
_AA_SOMBRA1
100
AcDbLine
 10
600.0
 20
1305.282193
 30
0.0
 11
600.0
 21
1445.903909
 31
0.0
  0
LINE
  5
223F
100
AcDbEntity
  8
_AA_SOMBRA1
100
AcDbLine
 10
0.0
 20
1464.412727
 30
0.0
 11
0.0
 21
1605.157882
 31
0.0
  0
LINE
  5
2240
100
AcDbEntity
  8
_AA_SOMBRA1
100
AcDbLine
 10
0.0
 20
1464.412727
 30
0.0
 11
0.0
 21
0.0
 31
0.0
  0
LINE
  5
2241
100
AcDbEntity
  8
_AA_SOMBRA1
100
AcDbLine
 10
800.103352
 20
0.0
 30
0.0
 11
800.103352
 21
1252.725982
 31
0.0
  0
LINE
  5
2242
100
AcDbEntity
  8
_AA_SOMBRA1
100
AcDbLine
 10
800.103352
 20
1252.725982
 30
0.0
 11
800.103352
 21
1393.331969
 31
0.0
  0
LINE
  5
2243
100
AcDbEntity
  8
_AA_SOMBRA1
100
AcDbLine
 10
1000.103352
 20
0.0
 30
0.0
 11
1001.194881
 21
1200.0
 31
0.0
  0
LINE
  5
2244
100
AcDbEntity
  8
_AA_SOMBRA1
100
AcDbLine
 10
1001.194881
 20
1200.0
 30
0.0
 11
1000.103352
 21
1340.87675
 31
0.0
  0
LINE
  5
2245
100
AcDbEntity
  8
_AA_SOMBRA1
100
AcDbLine
 10
1200.103352
 20
0.0
 30
0.0
 11
1200.103352
 21
1147.935659
 31
0.0
  0
LINE
  5
2246
100
AcDbEntity
  8
_AA_SOMBRA1
100
AcDbLine
 10
1200.103352
 20
1147.935659
 30
0.0
 11
1200.103352
 21
1288.511046
 31
0.0
  0
LINE
  5
2247
100
AcDbEntity
  8
_AA_SOMBRA1
100
AcDbLine
 10
1400.103352
 20
0.0
 30
0.0
 11
1400.103352
 21
1095.674823
 31
0.0
  0
LINE
  5
2248
100
AcDbEntity
  8
_AA_SOMBRA1
100
AcDbLine
 10
1400.103352
 20
1095.674823
 30
0.0
 11
1400.103352
 21
1236.234828
 31
0.0
  0
LINE
  5
2249
100
AcDbEntity
  8
_AA_SOMBRA1
100
AcDbLine
 10
1600.19676
 20
0.0
 30
0.0
 11
1600.19676
 21
1043.51672
 31
0.0
  0
LINE
  5
224A
100
AcDbEntity
  8
_AA_SOMBRA1
100
AcDbLine
 10
1600.19676
 20
1043.51672
 30
0.0
 11
1600.19676
 21
1184.037462
 31
0.0
  0
LINE
  5
224B
100
AcDbEntity
  8
_AA_SOMBRA1
100
AcDbLine
 10
1800.19676
 20
0.0
 30
0.0
 11
1800.19676
 21
991.52193
 31
0.0
  0
LINE
  5
224C
100
AcDbEntity
  8
_AA_SOMBRA1
100
AcDbLine
 10
1800.19676
 20
991.52193
 30
0.0
 11
1800.19676
 21
1132.042672
 31
0.0
  0
LINE
  5
224D
100
AcDbEntity
  8
_AA_SOMBRA1
100
AcDbLine
 10
2000.19676
 20
0.0
 30
0.0
 11
2000.19676
 21
939.52714
 31
0.0
  0
LINE
  5
224E
100
AcDbEntity
  8
_AA_SOMBRA1
100
AcDbLine
 10
2000.19676
 20
939.52714
 30
0.0
 11
2000.19676
 21
1080.047882
 31
0.0
  0
LINE
  5
224F
100
AcDbEntity
  8
_AA_SOMBRA1
100
AcDbLine
 10
0.0
 20
1200.0
 30
0.0
 11
800.103352
 21
1200.0
 31
0.0
  0
LINE
  5
2250
100
AcDbEntity
  8
_AA_SOMBRA1
100
AcDbLine
 10
0.0
 20
400.0
 30
0.0
 11
1190.103352
 21
400.0
 31
0.0
  0
ENDBLK
  5
2252
100
AcDbEntity
  8
0
100
AcDbBlockEnd
  0
BLOCK
  5
2336
100
AcDbEntity
  8
0
100
AcDbBlockBegin
  2
ESIB
 70
     0
 10
0.0
 20
0.0
 30
0.0
  3
ESIB
  1

  0
LINE
  5
2329
100
AcDbEntity
  8
_AA_SOMBRA1
100
AcDbLine
 10
210.0
 20
0.0
 30
0.0
 11
210.0
 21
1556.230581
 31
0.0
  0
LINE
  5
232A
100
AcDbEntity
  8
_AA_SOMBRA1
100
AcDbLine
 10
10.0
 20
0.0
 30
0.0
 11
10.0
 21
1609.439796
 31
0.0
  0
LINE
  5
232B
100
AcDbEntity
  8
_AA_SOMBRA1
100
AcDbLine
 10
410.0
 20
0.0
 30
0.0
 11
410.0
 21
1503.204786
 31
0.0
  0
LINE
  5
232C
100
AcDbEntity
  8
_AA_SOMBRA1
100
AcDbLine
 10
610.0
 20
0.0
 30
0.0
 11
610.0
 21
1359.014598
 31
0.0
  0
LINE
  5
232D
100
AcDbEntity
  8
_AA_SOMBRA1
100
AcDbLine
 10
810.103352
 20
0.0
 30
0.0
 11
810.103352
 21
1305.907744
 31
0.0
  0
LINE
  5
232E
100
AcDbEntity
  8
_AA_SOMBRA1
100
AcDbLine
 10
1010.103352
 20
0.0
 30
0.0
 11
1010.103352
 21
1252.942842
 31
0.0
  0
LINE
  5
232F
100
AcDbEntity
  8
_AA_SOMBRA1
100
AcDbLine
 10
1210.103352
 20
0.0
 30
0.0
 11
1210.103352
 21
1200.092385
 31
0.0
  0
LINE
  5
2330
100
AcDbEntity
  8
_AA_SOMBRA1
100
AcDbLine
 10
1410.103352
 20
0.0
 30
0.0
 11
1410.103352
 21
1240.363822
 31
0.0
  0
LINE
  5
2331
100
AcDbEntity
  8
_AA_SOMBRA1
100
AcDbLine
 10
1610.19676
 20
0.0
 30
0.0
 11
1610.19676
 21
1188.125485
 31
0.0
  0
LINE
  5
2332
100
AcDbEntity
  8
_AA_SOMBRA1
100
AcDbLine
 10
1810.19676
 20
0.0
 30
0.0
 11
1810.19676
 21
1136.130695
 31
0.0
  0
LINE
  5
2333
100
AcDbEntity
  8
_AA_SOMBRA1
100
AcDbLine
 10
2010.19676
 20
0.0
 30
0.0
 11
2010.19676
 21
1084.135905
 31
0.0
  0
LINE
  5
2334
100
AcDbEntity
  8
_AA_SOMBRA1
100
AcDbLine
 10
2020.19676
 20
678.032651
 30
0.0
 11
0.0
 21
678.032651
 31
0.0
  0
LINE
  5
2335
100
AcDbEntity
  8
_AA_SOMBRA1
100
AcDbLine
 10
2020.19676
 20
0.0
 30
0.0
 11
0.0
 21
0.0
 31
0.0
  0
ENDBLK
  5
2337
100
AcDbEntity
  8
0
100
AcDbBlockEnd
  0
BLOCK
  5
2391
100
AcDbEntity
  8
0
100
AcDbBlockBegin
  2
INI2VBE
 70
     0
 10
0.0
 20
0.0
 30
0.0
  3
INI2VBE
  1

  0
LINE
  5
2392
100
AcDbEntity
  8
PILARESP
100
AcDbLine
 10
0.0
 20
80.0
 30
0.0
 11
0.0
 21
0.0
 31
0.0
  0
LINE
  5
2393
100
AcDbEntity
  8
PILARESP
100
AcDbLine
 10
0.0
 20
0.0
 30
0.0
 11
-80.0
 21
0.0
 31
0.0
  0
ENDBLK
  5
2394
100
AcDbEntity
  8
0
100
AcDbBlockEnd
  0
BLOCK
  5
2388
100
AcDbEntity
  8
0
100
AcDbBlockBegin
  2
INI2VB2
 70
     0
 10
0.0
 20
0.0
 30
0.0
  3
INI2VB2
  1

  0
LWPOLYLINE
  5
2389
100
AcDbEntity
  8
PILARESP
100
AcDbPolyline
 90
        4
 70
     1
 43
0.0
 10
-80.0
 20
80.0
 10
0.0
 20
80.0
 10
0.0
 20
0.0
 10
-80.0
 20
0.0
  0
ENDBLK
  5
238A
100
AcDbEntity
  8
0
100
AcDbBlockEnd
  0
BLOCK
  5
23D4
100
AcDbEntity
  8
0
100
AcDbBlockBegin
  2
F3
 70
     0
 10
0.0
 20
0.0
 30
0.0
  3
F3
  1

  0
LINE
  5
2510
100
AcDbEntity
  8
_AA_SOMBRA1
100
AcDbLine
 10
0.0
 20
0.0
 30
0.0
 11
-423.889169
 21
0.0
 31
0.0
  0
LINE
  5
2511
100
AcDbEntity
  8
_AA_SOMBRA1
100
AcDbLine
 10
-397.565972
 20
-391.465196
 30
0.0
 11
-397.561568
 21
-216.847359
 31
0.0
  0
LINE
  5
2512
100
AcDbEntity
  8
_AA_SOMBRA1
100
AcDbLine
 10
-397.561568
 20
-216.847359
 30
0.0
 11
-397.86912
 21
-59.566482
 31
0.0
  0
LINE
  5
2513
100
AcDbEntity
  8
_AA_SOMBRA1
100
AcDbLine
 10
-397.86912
 20
-59.566482
 30
0.0
 11
-397.554231
 21
158.624624
 31
0.0
  0
LINE
  5
2514
100
AcDbEntity
  8
_AA_SOMBRA1
100
AcDbLine
 10
-197.550159
 20
-385.11162
 30
0.0
 11
-197.546008
 21
-88.13344
 31
0.0
  0
LINE
  5
2515
100
AcDbEntity
  8
_AA_SOMBRA1
100
AcDbLine
 10
-197.546008
 20
-88.13344
 30
0.0
 11
-197.543227
 21
83.922854
 31
0.0
  0
LINE
  5
2516
100
AcDbEntity
  8
_AA_SOMBRA1
100
AcDbLine
 10
-197.543227
 20
83.922854
 30
0.0
 11
-197.539315
 21
326.018119
 31
0.0
  0
ENDBLK
  5
23D5
100
AcDbEntity
  8
0
100
AcDbBlockEnd
  0
BLOCK
  5
252F
100
AcDbEntity
  8
0
100
AcDbBlockBegin
  2
DESLI
 70
     0
 10
0.0
 20
0.0
 30
0.0
  3
DESLI
  1

  0
LINE
  5
2530
100
AcDbEntity
  8
VB
100
AcDbLine
 10
-80.0
 20
0.0
 30
0.0
 11
0.0
 21
-80.0
 31
0.0
  0
LINE
  5
2531
100
AcDbEntity
  8
VB
100
AcDbLine
 10
-80.0
 20
0.0
 30
0.0
 11
0.0
 21
0.0
 31
0.0
  0
LINE
  5
2532
100
AcDbEntity
  8
VB
100
AcDbLine
 10
0.0
 20
0.0
 30
0.0
 11
0.0
 21
-80.0
 31
0.0
  0
ENDBLK
  5
2533
100
AcDbEntity
  8
0
100
AcDbBlockEnd
  0
ENDSEC
  0
SECTION
  2
ENTITIES
  0
LINE
  5
1CC0
100
AcDbEntity
  8
VB_AUXB
100
AcDbLine
 10
4168.820805
 20
-12148.943283
 30
-2827.961754
 11
4168.820805
 21
-12148.943283
 31
-2987.36293
210
0.0
220
-1.0
230
0.0000000000000001
  0
LINE
  5
1CC1
100
AcDbEntity
  8
VB_AUXB
100
AcDbLine
 10
4378.958684
 20
-12148.642526
 30
-2741.18277
 11
4378.958684
 21
-12148.642526
 31
-2885.882755
210
0.0
220
-1.0
230
0.0000000000000001
  0
LINE
  5
1CC2
100
AcDbEntity
  8
VB_AUXB
100
AcDbLine
 10
4589.096562
 20
-12148.341769
 30
-2688.10406
 11
4589.096562
 21
-12148.341769
 31
-2826.673632
210
0.0
220
-1.0
230
0.0000000000000001
  0
LINE
  5
1CC3
100
AcDbEntity
  8
VB_AUXB
100
AcDbLine
 10
4799.927659
 20
-12148.7889
 30
-2670.380331
 11
4799.927659
 21
-12148.7889
 31
-2806.419115
210
0.0
220
-1.0
230
0.0000000000000001
  0
LINE
  5
1CC4
100
AcDbEntity
  8
VB_AUXB
100
AcDbLine
 10
5010.819868
 20
-12149.236031
 30
-2679.417647
 11
5010.758756
 21
-12149.236031
 31
-2816.147468
210
0.0
220
-1.0
230
0.0000000000000001
  0
LINE
  5
1CC5
100
AcDbEntity
  8
VB_AUXB
100
AcDbLine
 10
5221.589852
 20
-12149.683161
 30
-2705.950142
 11
5221.589852
 21
-12149.683161
 31
-2843.625007
210
0.0
220
-1.0
230
0.0000000000000001
  0
LINE
  5
1CC6
100
AcDbEntity
  8
VB_AUXB
100
AcDbLine
 10
5432.420949
 20
-12150.130292
 30
-2741.710485
 11
5432.420949
 21
-12150.130292
 31
-2880.445032
210
0.0
220
-1.0
230
0.0000000000000001
  0
LINE
  5
1CC7
100
AcDbEntity
  8
VB_AUXB
100
AcDbLine
 10
5641.996556
 20
-12148.848918
 30
-2783.022212
 11
5641.996556
 21
-12148.848918
 31
-2922.293682
210
0.0
220
-1.0
230
0.0000000000000001
  0
LINE
  5
1CC8
100
AcDbEntity
  8
VB_AUXB
100
AcDbLine
 10
5851.572162
 20
-12147.567545
 30
-2829.86799
 11
5851.572162
 21
-12147.567545
 31
-2969.891338
210
0.0
220
-1.0
230
0.0000000000000001
  0
LINE
  5
1CC9
100
AcDbEntity
  8
VB_AUXB
100
AcDbLine
 10
6061.147768
 20
-12146.286172
 30
-2883.910331
 11
6061.147768
 21
-12146.286172
 31
-3025.123051
210
0.0
220
-1.0
230
0.0000000000000001
  0
LINE
  5
1CCA
100
AcDbEntity
  8
VB_AUXB
100
AcDbLine
 10
6270.723375
 20
-12145.004798
 30
-3080.652992
 11
6270.723375
 21
-12145.004798
 31
-2939.340573
210
0.0
220
-1.0
230
0.0000000000000001
  0
LINE
  5
1CCB
100
AcDbEntity
  8
VB_AUXB
100
AcDbLine
 10
6482.334897
 20
-12140.628932
 30
-2995.708671
 11
6482.334897
 21
-12140.628932
 31
-3136.909063
210
0.0
220
-1.0
230
0.0000000000000001
  0
LINE
  5
1CCC
100
AcDbEntity
  8
VB_AUXB
100
AcDbLine
 10
6693.946418
 20
-12136.253066
 30
-3052.076769
 11
6693.946418
 21
-12136.253066
 31
-3193.165134
210
0.0
220
-1.0
230
0.0000000000000001
  0
LINE
  5
1CCD
100
AcDbEntity
  8
VB_AUXB
100
AcDbLine
 10
6905.55794
 20
-12131.8772
 30
-3108.444867
 11
6905.55794
 21
-12131.8772
 31
-3178.933036
210
0.0
220
-1.0
230
0.0000000000000001
  0
LINE
  5
1CCE
100
AcDbEntity
  8
VB_AUXB
100
AcDbLine
 10
3958.682926
 20
-12149.244041
 30
-2966.561105
 11
3958.682926
 21
-12149.244041
 31
-3150.45394
210
0.0
220
-1.0
230
0.0000000000000001
  0
LINE
  5
1CCF
100
AcDbEntity
  8
VB_AUXB
100
AcDbLine
 10
3748.545047
 20
-12149.544798
 30
-3170.517859
 11
3748.545047
 21
-12149.544798
 31
-3219.667988
210
0.0
220
-1.0
230
0.0000000000000001
  0
LINE
  5
1CD0
100
AcDbEntity
  8
VB_AUXB
100
AcDbLine
 10
3543.233161
 20
-12133.649821
 30
-3513.151632
 11
3543.233161
 21
-12133.649821
 31
-3619.667988
210
0.0
220
-1.0
230
0.0000000000000001
  0
LINE
  5
1CD1
100
AcDbEntity
  8
VBCONTORNO
100
AcDbLine
 10
3543.233161
 20
-12133.649821
 30
-3513.151632
 11
3748.545047
 21
-12149.544798
 31
-3170.517859
210
0.0
220
-1.0
230
0.0
  0
LINE
  5
1CD2
100
AcDbEntity
  8
VBCONTORNO
100
AcDbLine
 10
3748.545047
 20
-12149.544798
 30
-3170.517859
 11
3958.682926
 21
-12149.244041
 31
-2966.561105
210
0.0
220
-1.0
230
0.0
  0
LINE
  5
1CD3
100
AcDbEntity
  8
VBCONTORNO
100
AcDbLine
 10
3958.682926
 20
-12149.244041
 30
-2966.561105
 11
4168.820805
 21
-12148.943283
 31
-2827.961754
210
0.0
220
-1.0
230
0.0
  0
LINE
  5
1CD4
100
AcDbEntity
  8
VBCONTORNO
100
AcDbLine
 10
4168.820805
 20
-12148.943283
 30
-2827.961754
 11
4378.958684
 21
-12148.642526
 31
-2741.18277
210
0.0
220
-1.0
230
0.0
  0
LINE
  5
1CD5
100
AcDbEntity
  8
VBCONTORNO
100
AcDbLine
 10
4378.958684
 20
-12148.642526
 30
-2741.18277
 11
4589.096562
 21
-12148.341769
 31
-2688.10406
210
0.0
220
-1.0
230
0.0
  0
LINE
  5
1CD6
100
AcDbEntity
  8
VBCONTORNO
100
AcDbLine
 10
4589.096562
 20
-12148.341769
 30
-2688.10406
 11
4799.927659
 21
-12148.7889
 31
-2670.380331
210
0.0
220
-1.0
230
0.0
  0
LINE
  5
1CD7
100
AcDbEntity
  8
VBCONTORNO
100
AcDbLine
 10
4799.927659
 20
-12148.7889
 30
-2670.380331
 11
5010.819868
 21
-12149.236031
 31
-2679.417647
210
0.0
220
-1.0
230
0.0
  0
LINE
  5
1CD8
100
AcDbEntity
  8
VBCONTORNO
100
AcDbLine
 10
5010.819868
 20
-12149.236031
 30
-2679.417647
 11
5221.589852
 21
-12149.683161
 31
-2705.950142
210
0.0
220
-1.0
230
0.0
  0
LINE
  5
1CD9
100
AcDbEntity
  8
VBCONTORNO
100
AcDbLine
 10
5221.589852
 20
-12149.683161
 30
-2705.950142
 11
5432.420949
 21
-12150.130292
 31
-2741.710485
210
0.0
220
-1.0
230
0.0
  0
LINE
  5
1CDA
100
AcDbEntity
  8
VBCONTORNO
100
AcDbLine
 10
5432.420949
 20
-12150.130292
 30
-2741.710485
 11
5641.996556
 21
-12148.848918
 31
-2783.022212
210
0.0
220
-1.0
230
0.0
  0
LINE
  5
1CDB
100
AcDbEntity
  8
VBCONTORNO
100
AcDbLine
 10
5641.996556
 20
-12148.848918
 30
-2783.022212
 11
5851.572162
 21
-12147.567545
 31
-2829.86799
210
0.0
220
-1.0
230
0.0
  0
LINE
  5
1CDC
100
AcDbEntity
  8
VBCONTORNO
100
AcDbLine
 10
5851.572162
 20
-12147.567545
 30
-2829.86799
 11
6061.147768
 21
-12146.286172
 31
-2883.910331
210
0.0
220
-1.0
230
0.0
  0
LINE
  5
1CDD
100
AcDbEntity
  8
VBCONTORNO
100
AcDbLine
 10
6061.147768
 20
-12146.286172
 30
-2883.910331
 11
6270.723375
 21
-12145.004798
 31
-2939.340573
210
0.0
220
-1.0
230
0.0
  0
LINE
  5
1CDE
100
AcDbEntity
  8
VBCONTORNO
100
AcDbLine
 10
6270.723375
 20
-12145.004798
 30
-2939.340573
 11
6482.334897
 21
-12140.628932
 31
-2995.708671
210
0.0
220
-1.0
230
0.0
  0
LINE
  5
1CDF
100
AcDbEntity
  8
VBCONTORNO
100
AcDbLine
 10
6482.334897
 20
-12140.628932
 30
-2995.708671
 11
6693.946418
 21
-12136.253066
 31
-3052.076769
210
0.0
220
-1.0
230
0.0
  0
LINE
  5
1CE0
100
AcDbEntity
  8
VBCONTORNO
100
AcDbLine
 10
6693.946418
 20
-12136.253066
 30
-3052.076769
 11
6905.55794
 21
-12131.8772
 31
-3108.444867
210
0.0
220
-1.0
230
0.0
  0
LINE
  5
1CE1
100
AcDbEntity
  8
VBCONTORNO
100
AcDbLine
 10
3543.233161
 20
-12133.649821
 30
-3932.614008
 11
3748.545047
 21
-12149.544798
 31
-3413.149683
210
0.0
220
-1.0
230
0.0
  0
LINE
  5
1CE2
100
AcDbEntity
  8
VBCONTORNO
100
AcDbLine
 10
3748.545047
 20
-12149.544798
 30
-3413.149683
 11
3958.682926
 21
-12149.244041
 31
-3150.45394
210
0.0
220
-1.0
230
0.0
  0
LINE
  5
1CE3
100
AcDbEntity
  8
VBCONTORNO
100
AcDbLine
 10
3958.682926
 20
-12149.244041
 30
-3150.45394
 11
4168.820805
 21
-12148.943283
 31
-2987.36293
210
0.0
220
-1.0
230
0.0
  0
LINE
  5
1CE4
100
AcDbEntity
  8
VBCONTORNO
100
AcDbLine
 10
4168.820805
 20
-12148.943283
 30
-2987.36293
 11
4378.958684
 21
-12148.642526
 31
-2885.882755
210
0.0
220
-1.0
230
0.0
  0
LINE
  5
1CE5
100
AcDbEntity
  8
VBCONTORNO
100
AcDbLine
 10
4378.958684
 20
-12148.642526
 30
-2885.882755
 11
4589.096562
 21
-12148.341769
 31
-2826.673632
210
0.0
220
-1.0
230
0.0
  0
LINE
  5
1CE6
100
AcDbEntity
  8
VBCONTORNO
100
AcDbLine
 10
4589.096562
 20
-12148.341769
 30
-2826.673632
 11
4799.927659
 21
-12148.7889
 31
-2806.419115
210
0.0
220
-1.0
230
0.0
  0
LINE
  5
1CE7
100
AcDbEntity
  8
VBCONTORNO
100
AcDbLine
 10
4799.927659
 20
-12148.7889
 30
-2806.419115
 11
5010.758756
 21
-12149.236031
 31
-2816.147468
210
0.0
220
-1.0
230
0.0
  0
LINE
  5
1CE8
100
AcDbEntity
  8
VBCONTORNO
100
AcDbLine
 10
5010.758756
 20
-12149.236031
 30
-2816.147468
 11
5221.589852
 21
-12149.683161
 31
-2843.625007
210
0.0
220
-1.0
230
0.0
  0
LINE
  5
1CE9
100
AcDbEntity
  8
VBCONTORNO
100
AcDbLine
 10
5221.589852
 20
-12149.683161
 30
-2843.625007
 11
5432.420949
 21
-12150.130292
 31
-2880.445032
210
0.0
220
-1.0
230
0.0
  0
LINE
  5
1CEA
100
AcDbEntity
  8
VBCONTORNO
100
AcDbLine
 10
5432.420949
 20
-12150.130292
 30
-2880.445032
 11
5641.996556
 21
-12148.848918
 31
-2922.293682
210
0.0
220
-1.0
230
0.0
  0
LINE
  5
1CEB
100
AcDbEntity
  8
VBCONTORNO
100
AcDbLine
 10
5641.996556
 20
-12148.848918
 30
-2922.293682
 11
5851.572162
 21
-12147.567545
 31
-2969.891338
210
0.0
220
-1.0
230
0.0
  0
LINE
  5
1CEC
100
AcDbEntity
  8
VBCONTORNO
100
AcDbLine
 10
5851.572162
 20
-12147.567545
 30
-2969.891338
 11
6061.147768
 21
-12146.286172
 31
-3025.123051
210
0.0
220
-1.0
230
0.0
  0
LINE
  5
1CED
100
AcDbEntity
  8
VBCONTORNO
100
AcDbLine
 10
6061.147768
 20
-12146.286172
 30
-3025.123051
 11
6270.723375
 21
-12145.004798
 31
-3080.652992
210
0.0
220
-1.0
230
0.0
  0
LINE
  5
1CEE
100
AcDbEntity
  8
VBCONTORNO
100
AcDbLine
 10
6270.723375
 20
-12145.004798
 30
-3080.652992
 11
6482.334897
 21
-12140.628932
 31
-3136.909063
210
0.0
220
-1.0
230
0.0
  0
LINE
  5
1CEF
100
AcDbEntity
  8
VBCONTORNO
100
AcDbLine
 10
6482.334897
 20
-12140.628932
 30
-3136.909063
 11
6693.946418
 21
-12136.253066
 31
-3193.165134
210
0.0
220
-1.0
230
0.0
  0
LINE
  5
1CF0
100
AcDbEntity
  8
VBCONTORNO
100
AcDbLine
 10
6693.946418
 20
-12136.253066
 30
-3193.165134
 11
6905.55794
 21
-12131.8772
 31
-3249.421205
210
0.0
220
-1.0
230
0.0
  0
LINE
  5
1CF1
100
AcDbEntity
  8
VIGASTN
  6
GRDCON$0$CENTER
100
AcDbLine
 10
12221.499275
 20
-11728.780785
 30
-4472.184069
 11
12249.756473
 21
-11666.933124
 31
-4478.184069
1001
ACAD
1000
RTLwPs
1070
   131
  0
LINE
  5
1CF8
100
AcDbEntity
  8
VB
100
AcDbLine
 10
13154.875625
 20
-11641.005506
 30
-4688.883481
 11
12987.357594
 21
-11656.758021
 31
-4650.184069
  0
LINE
  5
1CF9
100
AcDbEntity
  8
VB
100
AcDbLine
 10
12987.357594
 20
-11656.758021
 30
-4650.184069
 11
12357.194414
 21
-11716.019784
 31
-4504.184069
  0
LINE
  5
1CFA
100
AcDbEntity
  8
VB
100
AcDbLine
 10
12357.194414
 20
-11716.019784
 30
-4504.184069
 11
12221.498671
 21
-11728.78211
 31
-4472.211495
  0
LINE
  5
1CFB
100
AcDbEntity
  8
VB
100
AcDbLine
 10
12221.498671
 20
-11728.78211
 30
-4472.211495
 11
11537.934135
 21
-11790.66044
 31
-4311.520202
  0
LINE
  5
1CFC
100
AcDbEntity
  8
VB
100
AcDbLine
 10
11246.74076
 20
-11816.779085
 30
-4242.63931
 11
11169.399347
 21
-11823.715279
 31
-4224.303595
  0
LINE
  5
1D04
100
AcDbEntity
  8
ALIN2
100
AcDbLine
 10
8629.711819
 20
-12030.814821
 30
-3635.484788
 11
8413.441146
 21
-12042.420048
 31
-3581.667988
  0
LINE
  5
1D05
100
AcDbEntity
  8
ALIN2
100
AcDbLine
 10
8413.441146
 20
-12042.420048
 30
-3581.667988
 11
8326.387623
 21
-12048.64312
 31
-3560.777489
  0
LINE
  5
1D06
100
AcDbEntity
  8
ALIN2
100
AcDbLine
 10
8326.387623
 20
-12048.64312
 30
-3560.777489
 11
7974.89051
 21
-12073.764576
 31
-3473.874701
  0
LINE
  5
1D07
100
AcDbEntity
  8
ALIN2
100
AcDbLine
 10
7974.89051
 20
-12073.764576
 30
-3473.874701
 11
7657.071424
 21
-12093.674739
 31
-3394.667988
  0
LINE
  5
1D08
100
AcDbEntity
  8
ALIN2
100
AcDbLine
 10
7657.071424
 20
-12093.674739
 30
-3394.667988
 11
7117.169462
 21
-12127.501334
 31
-3258.27978
  0
LINE
  5
1D09
100
AcDbEntity
  8
ALIN2
100
AcDbLine
 10
7117.169462
 20
-12127.501334
 30
-3258.27978
 11
6914.572544
 21
-12131.689426
 31
-3204.754165
  0
LINE
  5
1D0A
100
AcDbEntity
  8
ALIN2
100
AcDbLine
 10
6906.676268
 20
-12131.852658
 30
-3202.667988
 11
6270.723375
 21
-12145.004798
 31
-3033.039627
  0
LINE
  5
1D0B
100
AcDbEntity
  8
ALIN2
100
AcDbLine
 10
6270.723375
 20
-12145.004798
 30
-3033.039627
 11
6167.427036
 21
-12145.635046
 31
-3004.667988
  0
LINE
  5
1D0C
100
AcDbEntity
  8
ALIN2
100
AcDbLine
 10
6167.427036
 20
-12145.635046
 30
-3004.667988
 11
5604.681834
 21
-12149.076756
 31
-2876.667988
  0
LINE
  5
1D0D
100
AcDbEntity
  8
ALIN2
100
AcDbLine
 10
5604.681834
 20
-12149.076756
 30
-2876.667988
 11
5432.420949
 21
-12150.130292
 31
-2842.667988
  0
LINE
  5
1D0E
100
AcDbEntity
  8
ALIN2
100
AcDbLine
 10
5432.420949
 20
-12150.130292
 30
-2842.667988
 11
4700.177114
 21
-12148.579688
 31
-2810.667988
  0
LINE
  5
1D0F
100
AcDbEntity
  8
ALIN2
100
AcDbLine
 10
4700.177114
 20
-12148.579688
 30
-2810.667988
 11
4589.096562
 21
-12148.341769
 31
-2836.460481
  0
LINE
  5
1D10
100
AcDbEntity
  8
ALIN2
100
AcDbLine
 10
3251.42738
 20
-12111.032226
 30
-4693.667988
 11
2927.297501
 21
-12085.964893
 31
-5103.469978
  0
LINE
  5
1D11
100
AcDbEntity
  8
ALIN2
100
AcDbLine
 10
2927.297501
 20
-12085.964893
 30
-5103.469978
 11
2530.907945
 21
-12083.819958
 31
-5375.667988
  0
INSERT
  5
1D13
100
AcDbEntity
  8
CC
100
AcDbBlockReference
  2
P6
 10
2927.297501
 20
-12085.964893
 30
-5619.667988
 50
155.445105
  0
INSERT
  5
1D14
100
AcDbEntity
  8
CC
100
AcDbBlockReference
  2
P6
 10
3748.545047
 20
-12149.544798
 30
-5419.667988
 50
155.445105
  0
INSERT
  5
1D15
100
AcDbEntity
  8
CC
100
AcDbBlockReference
  2
P6
 10
4589.096562
 20
-12148.341769
 30
-5419.667988
 50
155.445105
  0
INSERT
  5
1D16
100
AcDbEntity
  8
CC
100
AcDbBlockReference
  2
P6
 10
5432.420949
 20
-12150.130292
 30
-5419.667988
 50
155.445105
  0
INSERT
  5
1D17
100
AcDbEntity
  8
CC
100
AcDbBlockReference
  2
P6
 10
6270.723375
 20
-12145.004798
 30
-5530.039627
 50
155.445105
  0
INSERT
  5
1D18
100
AcDbEntity
  8
CC
100
AcDbBlockReference
  2
P6
 10
7117.169462
 20
-12127.501334
 30
-5574.995343
 50
155.445105
  0
INSERT
  5
1D19
100
AcDbEntity
  8
CC
100
AcDbBlockReference
  2
P6
 10
7974.89051
 20
-12073.764576
 30
-5619.667988
 50
155.445105
  0
INSERT
  5
1D1A
100
AcDbEntity
  8
CC
100
AcDbBlockReference
  2
P6
 10
8326.387623
 20
-12048.64312
 30
-5619.667988
 50
155.445105
  0
INSERT
  5
1D1B
100
AcDbEntity
  8
CC
100
AcDbBlockReference
  2
P6
 10
8629.711819
 20
-12030.814821
 30
-5619.667988
 50
155.445105
  0
INSERT
  5
1D1C
100
AcDbEntity
  8
CC
100
AcDbBlockReference
  2
P7
 10
8758.579199
 20
-11653.450984
 30
-5619.667988
 50
155.445105
  0
INSERT
  5
1D1D
100
AcDbEntity
  8
CC
100
AcDbBlockReference
  2
P7
 10
8958.112842
 20
-11630.774782
 30
-5619.667988
 50
155.445105
  0
INSERT
  5
1D1E
100
AcDbEntity
  8
CC
100
AcDbBlockReference
  2
P7
 10
9830.071267
 20
-11531.680186
 30
-5619.667988
 50
155.445105
  0
INSERT
  5
1D1F
100
AcDbEntity
  8
CC
100
AcDbBlockReference
  2
P7
 10
10702.029692
 20
-11432.585591
 30
-5668.657081
 50
155.445105
  0
INSERT
  5
1D20
100
AcDbEntity
  8
CC
100
AcDbBlockReference
  2
P8
 10
11169.399345
 20
-11823.715265
 30
-5706.943074
 50
155.445105
  0
INSERT
  5
1D21
100
AcDbEntity
  8
CC
100
AcDbBlockReference
  2
P8
 10
11195.089586
 20
-11376.550727
 30
-5696.358566
 50
155.445105
  0
INSERT
  5
1D22
100
AcDbEntity
  8
CC
100
AcDbBlockReference
  2
P8
 10
11537.934134
 20
-11790.660427
 30
-5727.88741
 50
155.445105
  0
INSERT
  5
1D23
100
AcDbEntity
  8
CC
100
AcDbBlockReference
  2
P8
 10
13154.875624
 20
-11641.005492
 30
-5819.655121
 50
155.445105
  0
INSERT
  5
1D24
100
AcDbEntity
  8
CC
100
AcDbBlockReference
  2
P8
 10
14021.531461
 20
-11558.438405
 30
-5868.777463
 50
155.445105
  0
INSERT
  5
1D25
100
AcDbEntity
  8
CC
100
AcDbBlockReference
  2
P8
 10
14889.263172
 20
-11472.517956
 30
-5917.872769
 50
155.445105
  0
INSERT
  5
1D26
100
AcDbEntity
  8
CC
100
AcDbBlockReference
  2
P8
 10
15403.233116
 20
-11421.626041
 30
-5946.952624
 50
155.445105
  0
LINE
  5
1D2A
100
AcDbEntity
  8
PILARESP
100
AcDbLine
 10
12249.756472
 20
-11666.93311
 30
-5219.667988
 11
12249.756472
 21
-11666.93311
 31
-4574.667988
  0
LINE
  5
1D2B
100
AcDbEntity
  8
PILARESPU
100
AcDbLine
 10
12249.756473
 20
-11666.933124
 30
-4478.184069
 11
12249.756472
 21
-11666.93311
 31
-4574.667988
  0
LINE
  5
1D2C
100
AcDbEntity
  8
PILARESN
100
AcDbLine
 10
3748.545047
 20
-12149.544798
 30
-5419.667988
 11
3748.545047
 21
-12149.544798
 31
-5219.667988
  0
LINE
  5
1D2D
100
AcDbEntity
  8
PILARESN
100
AcDbLine
 10
4589.096562
 20
-12148.341769
 30
-5419.667988
 11
4589.096562
 21
-12148.341769
 31
-5219.667988
  0
LINE
  5
1D2E
100
AcDbEntity
  8
PILARESN
100
AcDbLine
 10
5432.420949
 20
-12150.130292
 30
-5419.667988
 11
5432.420949
 21
-12150.130292
 31
-5219.667988
  0
LINE
  5
1D2F
100
AcDbEntity
  8
PILARESN
100
AcDbLine
 10
6270.723375
 20
-12145.004798
 30
-5530.039627
 11
6270.723375
 21
-12145.004798
 31
-5219.667988
  0
LINE
  5
1D30
100
AcDbEntity
  8
PILARESN
100
AcDbLine
 10
7117.169462
 20
-12127.501334
 30
-5574.995343
 11
7117.169462
 21
-12127.501334
 31
-5219.667988
  0
LINE
  5
1D31
100
AcDbEntity
  8
PILARESN
100
AcDbLine
 10
7974.89051
 20
-12073.764576
 30
-5619.667988
 11
7974.89051
 21
-12073.764576
 31
-5219.667988
  0
LINE
  5
1D32
100
AcDbEntity
  8
PILARESN
100
AcDbLine
 10
8326.387623
 20
-12048.64312
 30
-5619.667988
 11
8326.387623
 21
-12048.64312
 31
-5219.667988
  0
LINE
  5
1D33
100
AcDbEntity
  8
PILARESN
100
AcDbLine
 10
8629.711819
 20
-12030.814821
 30
-5619.667988
 11
8629.711819
 21
-12030.814821
 31
-5219.667988
  0
LINE
  5
1D34
100
AcDbEntity
  8
PILARESN2
100
AcDbLine
 10
8758.579199
 20
-11653.450984
 30
-5619.667988
 11
8758.579199
 21
-11653.450984
 31
-5219.667988
  0
LINE
  5
1D35
100
AcDbEntity
  8
PILARESN2
100
AcDbLine
 10
8958.112842
 20
-11630.774782
 30
-5619.667988
 11
8958.112842
 21
-11630.774782
 31
-5219.667988
  0
LINE
  5
1D36
100
AcDbEntity
  8
PILARESN2
100
AcDbLine
 10
9830.071267
 20
-11531.680186
 30
-5619.667988
 11
9830.071267
 21
-11531.680186
 31
-5219.667988
  0
LINE
  5
1D37
100
AcDbEntity
  8
PILARESN2
100
AcDbLine
 10
10702.029692
 20
-11432.585591
 30
-5668.657081
 11
10702.029692
 21
-11432.585591
 31
-5219.667988
  0
LINE
  5
1D38
100
AcDbEntity
  8
PILARESN
100
AcDbLine
 10
11169.399345
 20
-11823.715265
 30
-5706.943074
 11
11169.399345
 21
-11823.715265
 31
-5219.667988
  0
LINE
  5
1D39
100
AcDbEntity
  8
PILARESN2
100
AcDbLine
 10
11195.089586
 20
-11376.550727
 30
-5696.358566
 11
11195.089586
 21
-11376.550727
 31
-5219.667988
  0
LINE
  5
1D3A
100
AcDbEntity
  8
PILARESN
100
AcDbLine
 10
11537.934134
 20
-11790.660427
 30
-5727.88741
 11
11537.934134
 21
-11790.660427
 31
-5219.667988
  0
LINE
  5
1D3B
100
AcDbEntity
  8
PILARESN
100
AcDbLine
 10
13154.875624
 20
-11641.005492
 30
-5819.655121
 11
13154.875624
 21
-11641.005492
 31
-5219.667988
  0
LINE
  5
1D3C
100
AcDbEntity
  8
PILARESN
100
AcDbLine
 10
14021.531461
 20
-11558.438405
 30
-5868.777463
 11
14021.531461
 21
-11558.438405
 31
-5219.667988
  0
LINE
  5
1D3D
100
AcDbEntity
  8
PILARESN
100
AcDbLine
 10
14889.263172
 20
-11472.517956
 30
-5917.872769
 11
14889.263172
 21
-11472.517956
 31
-5219.667988
  0
LINE
  5
1D3E
100
AcDbEntity
  8
PILARESN
100
AcDbLine
 10
15403.233116
 20
-11421.626041
 30
-5946.952624
 11
15403.233116
 21
-11421.626041
 31
-5250.21636
  0
LINE
  5
1D3F
100
AcDbEntity
  8
PILARESN
100
AcDbLine
 10
3748.545047
 20
-12149.544798
 30
-3619.667988
 11
3748.545047
 21
-12149.544798
 31
-3413.149683
  0
LINE
  5
1D40
100
AcDbEntity
  8
PILARESN
100
AcDbLine
 10
4589.096562
 20
-12148.341769
 30
-3619.667988
 11
4589.096562
 21
-12148.341769
 31
-2826.673632
  0
LINE
  5
1D41
100
AcDbEntity
  8
PILARESN
100
AcDbLine
 10
5432.420949
 20
-12150.130292
 30
-3484.577174
 11
5432.420949
 21
-12150.130292
 31
-2880.445032
  0
LINE
  5
1D42
100
AcDbEntity
  8
PILARESN
100
AcDbLine
 10
6270.723375
 20
-12145.004798
 30
-3619.667988
 11
6270.723375
 21
-12145.004798
 31
-3322.410426
  0
LINE
  5
1D43
100
AcDbEntity
  8
PILARESN
100
AcDbLine
 10
7117.169462
 20
-12127.501334
 30
-3619.667988
 11
7117.169462
 21
-12127.501334
 31
-3353.297627
  0
LINE
  5
1D44
100
AcDbEntity
  8
PILARESN
100
AcDbLine
 10
8326.387623
 20
-12048.64312
 30
-3619.667988
 11
8326.387623
 21
-12048.64312
 31
-3550.066286
  0
LINE
  5
1D45
100
AcDbEntity
  8
PILARESN
100
AcDbLine
 10
2927.297501
 20
-12085.964893
 30
-5219.667988
 11
2927.297501
 21
-12085.964893
 31
-5142.605925
  0
LINE
  5
1D46
100
AcDbEntity
  8
PILARESN
100
AcDbLine
 10
2927.297501
 20
-12085.964893
 30
-5619.667988
 11
2927.297501
 21
-12085.964893
 31
-5219.667988
210
-0.4155648916357901
220
-0.9095635331518817
230
0.0
  0
LINE
  5
1D47
100
AcDbEntity
  8
PILARESN
100
AcDbLine
 10
8629.711819
 20
-12030.814821
 30
-4419.667988
 11
8629.711819
 21
-12030.814821
 31
-3635.484788
  0
LINE
  5
1D48
100
AcDbEntity
  8
PILARESN
100
AcDbLine
 10
4589.096562
 20
-12148.341769
 30
-5219.667988
 11
4589.096562
 21
-12148.341769
 31
-4419.667988
210
-0.4155648916357901
220
-0.9095635331518817
230
0.0
  0
LINE
  5
1D49
100
AcDbEntity
  8
PILARESN
100
AcDbLine
 10
5432.420949
 20
-12150.130292
 30
-5219.667988
 11
5432.420949
 21
-12150.130292
 31
-4419.667988
210
-0.4155648916357901
220
-0.9095635331518817
230
0.0
  0
LINE
  5
1D4A
100
AcDbEntity
  8
PILARESN
100
AcDbLine
 10
6270.723375
 20
-12145.004798
 30
-5219.667988
 11
6270.723375
 21
-12145.004798
 31
-4419.667988
210
-0.4155648916357901
220
-0.9095635331518817
230
0.0
  0
LINE
  5
1D4B
100
AcDbEntity
  8
PILARESN
100
AcDbLine
 10
7117.169462
 20
-12127.501334
 30
-5219.667988
 11
7117.169462
 21
-12127.501334
 31
-4419.667988
210
-0.4155648916357901
220
-0.9095635331518817
230
0.0
  0
LINE
  5
1D4C
100
AcDbEntity
  8
PILARESN
100
AcDbLine
 10
7974.89051
 20
-12073.764576
 30
-5219.667988
 11
7974.89051
 21
-12073.764576
 31
-4419.667988
210
-0.4155648916357901
220
-0.9095635331518817
230
0.0
  0
LINE
  5
1D4D
100
AcDbEntity
  8
PILARESN
100
AcDbLine
 10
8326.387623
 20
-12048.64312
 30
-5219.667988
 11
8326.387623
 21
-12048.64312
 31
-4419.667988
210
-0.4155648916357901
220
-0.9095635331518817
230
0.0
  0
LINE
  5
1D4E
100
AcDbEntity
  8
PILARESN
100
AcDbLine
 10
8629.711819
 20
-12030.814821
 30
-5219.667988
 11
8629.711819
 21
-12030.814821
 31
-4419.667988
210
-0.4155648916357901
220
-0.9095635331518817
230
0.0
  0
LINE
  5
1D4F
100
AcDbEntity
  8
VIGASN
100
AcDbLine
 10
2927.297501
 20
-12085.964893
 30
-5219.667988
 11
3748.545047
 21
-12149.544798
 31
-5219.667988
210
-0.4155648916357901
220
-0.9095635331518817
230
0.0
  0
LINE
  5
1D50
100
AcDbEntity
  8
VIGASN
100
AcDbLine
 10
5432.420949
 20
-12150.130292
 30
-5219.667988
 11
6270.723375
 21
-12145.004798
 31
-5219.667988
210
-0.4155648916357901
220
-0.9095635331518817
230
0.0
  0
LINE
  5
1D51
100
AcDbEntity
  8
VIGASN
100
AcDbLine
 10
6270.723375
 20
-12145.004798
 30
-5219.667988
 11
7117.169462
 21
-12127.501334
 31
-5219.667988
210
-0.4155648916357901
220
-0.9095635331518817
230
0.0
  0
LINE
  5
1D52
100
AcDbEntity
  8
VIGASN
100
AcDbLine
 10
7117.169462
 20
-12127.501334
 30
-5219.667988
 11
7974.89051
 21
-12073.764576
 31
-5219.667988
210
-0.4155648916357901
220
-0.9095635331518817
230
0.0
  0
LINE
  5
1D53
100
AcDbEntity
  8
VIGASN
100
AcDbLine
 10
7974.89051
 20
-12073.764576
 30
-5219.667988
 11
8326.387623
 21
-12048.64312
 31
-5219.667988
210
-0.4155648916357901
220
-0.9095635331518817
230
0.0
  0
LINE
  5
1D54
100
AcDbEntity
  8
VIGASN
100
AcDbLine
 10
8326.387623
 20
-12048.64312
 30
-5219.667988
 11
8629.711819
 21
-12030.814821
 31
-5219.667988
210
-0.4155648916357901
220
-0.9095635331518817
230
0.0
  0
LINE
  5
1D55
100
AcDbEntity
  8
VIGASN
100
AcDbLine
 10
5432.420949
 20
-12150.130292
 30
-4419.667988
 11
6270.723375
 21
-12145.004798
 31
-4419.667988
210
-0.4155648916357901
220
-0.9095635331518817
230
0.0
  0
LINE
  5
1D56
100
AcDbEntity
  8
VIGASN
100
AcDbLine
 10
6270.723375
 20
-12145.004798
 30
-4419.667988
 11
7117.169462
 21
-12127.501334
 31
-4419.667988
210
-0.4155648916357901
220
-0.9095635331518817
230
0.0
  0
LINE
  5
1D57
100
AcDbEntity
  8
VIGASN
100
AcDbLine
 10
7117.169462
 20
-12127.501334
 30
-4419.667988
 11
7974.89051
 21
-12073.764576
 31
-4419.667988
210
-0.4155648916357901
220
-0.9095635331518817
230
0.0
  0
LINE
  5
1D58
100
AcDbEntity
  8
VIGASN
100
AcDbLine
 10
7974.89051
 20
-12073.764576
 30
-4419.667988
 11
8326.387623
 21
-12048.64312
 31
-4419.667988
210
-0.4155648916357901
220
-0.9095635331518817
230
0.0
  0
LINE
  5
1D59
100
AcDbEntity
  8
VIGASN
100
AcDbLine
 10
8326.387623
 20
-12048.64312
 30
-4419.667988
 11
8629.711819
 21
-12030.814821
 31
-4419.667988
210
-0.4155648916357901
220
-0.9095635331518817
230
0.0
  0
LINE
  5
1D5A
100
AcDbEntity
  8
VIGASN
100
AcDbLine
 10
5432.420949
 20
-12150.130292
 30
-3619.667988
 11
6270.723375
 21
-12145.004798
 31
-3619.667988
210
-0.4155648916357901
220
-0.9095635331518817
230
0.0
  0
LINE
  5
1D5B
100
AcDbEntity
  8
VIGASN
100
AcDbLine
 10
6270.723375
 20
-12145.004798
 30
-3619.667988
 11
7117.169462
 21
-12127.501334
 31
-3619.667988
210
-0.4155648916357901
220
-0.9095635331518817
230
0.0
  0
LINE
  5
1D5C
100
AcDbEntity
  8
VIGASN
100
AcDbLine
 10
7117.169462
 20
-12127.501334
 30
-3619.667988
 11
7974.89051
 21
-12073.764576
 31
-3619.667988
210
-0.4155648916357901
220
-0.9095635331518817
230
0.0
  0
LINE
  5
1D5D
100
AcDbEntity
  8
VIGASN
100
AcDbLine
 10
7974.89051
 20
-12073.764576
 30
-3619.667988
 11
8326.387623
 21
-12048.64312
 31
-3619.667988
210
-0.4155648916357901
220
-0.9095635331518817
230
0.0
  0
LINE
  5
1D5E
100
AcDbEntity
  8
PILARESN
100
AcDbLine
 10
8326.387623
 20
-12048.64312
 30
-3619.667988
 11
8326.387623
 21
-12048.64312
 31
-4419.667988
210
-0.4155648916357901
220
-0.9095635331518817
230
0.0
  0
LINE
  5
1D5F
100
AcDbEntity
  8
PILARESN
100
AcDbLine
 10
7974.89051
 20
-12073.764576
 30
-4419.667988
 11
7974.89051
 21
-12073.764576
 31
-3521.516105
210
-0.4155648916357901
220
-0.9095635331518817
230
0.0
  0
LINE
  5
1D60
100
AcDbEntity
  8
PILARESN
100
AcDbLine
 10
7117.169462
 20
-12127.501334
 30
-3619.667988
 11
7117.169462
 21
-12127.501334
 31
-4419.667988
210
-0.4155648916357901
220
-0.9095635331518817
230
0.0
  0
LINE
  5
1D61
100
AcDbEntity
  8
PILARESN
100
AcDbLine
 10
6270.723375
 20
-12145.004798
 30
-3619.667988
 11
6270.723375
 21
-12145.004798
 31
-4419.667988
210
-0.4155648916357901
220
-0.9095635331518817
230
0.0
  0
LINE
  5
1D62
100
AcDbEntity
  8
PILARESN
100
AcDbLine
 10
5432.420949
 20
-12150.130292
 30
-3619.667988
 11
5432.420949
 21
-12150.130292
 31
-4419.667988
210
-0.4155648916357901
220
-0.9095635331518817
230
0.0
  0
LINE
  5
1D63
100
AcDbEntity
  8
PILARESN
100
AcDbLine
 10
4589.096562
 20
-12148.341769
 30
-3855.614927
 11
4589.096562
 21
-12148.341769
 31
-4419.667988
210
-0.4155648916357901
220
-0.9095635331518817
230
0.0
  0
LINE
  5
1D64
100
AcDbEntity
  8
PILARESN
100
AcDbLine
 10
3748.545047
 20
-12149.544798
 30
-3619.667988
 11
3748.545047
 21
-12149.544798
 31
-4419.667988
210
-0.4155648916357901
220
-0.9095635331518817
230
0.0
  0
LINE
  5
1D65
100
AcDbEntity
  8
PILARESN
100
AcDbLine
 10
3748.545047
 20
-12149.544798
 30
-5219.667988
 11
3748.545047
 21
-12149.544798
 31
-4459.22617
210
-0.4155648916357901
220
-0.9095635331518817
230
0.0
  0
LINE
  5
1D66
100
AcDbEntity
  8
VIGASN
100
AcDbLine
 10
4589.096562
 20
-12148.341769
 30
-3619.667988
 11
3748.545047
 21
-12149.544798
 31
-3619.667988
210
-0.4155648916357901
220
-0.9095635331518817
230
0.0
  0
LINE
  5
1D67
100
AcDbEntity
  8
VIGASN
100
AcDbLine
 10
5432.420949
 20
-12150.130292
 30
-4419.667988
 11
4589.096562
 21
-12148.341769
 31
-4419.667988
210
-0.4155648916357901
220
-0.9095635331518817
230
0.0
  0
LINE
  5
1D68
100
AcDbEntity
  8
VIGASN
100
AcDbLine
 10
4589.096562
 20
-12148.341769
 30
-4419.667988
 11
3798.586287
 21
-12149.473177
 31
-4419.667988
210
-0.4155648916357901
220
-0.9095635331518817
230
0.0
  0
LINE
  5
1D69
100
AcDbEntity
  8
VIGASN
100
AcDbLine
 10
5432.420949
 20
-12150.130292
 30
-5219.667988
 11
4589.096562
 21
-12148.341769
 31
-5219.667988
210
-0.4155648916357901
220
-0.9095635331518817
230
0.0
  0
LINE
  5
1D6A
100
AcDbEntity
  8
VIGASN
100
AcDbLine
 10
4589.096562
 20
-12148.341769
 30
-5219.667988
 11
3748.545047
 21
-12149.544798
 31
-5219.667988
210
-0.4155648916357901
220
-0.9095635331518817
230
0.0
  0
LINE
  5
1D6B
100
AcDbEntity
  8
PILARESN
100
AcDbLine
 10
11169.399345
 20
-11823.715265
 30
-4419.667988
 11
11169.399347
 21
-11823.715279
 31
-4224.303595
  0
LINE
  5
1D6C
100
AcDbEntity
  8
PILARESN
100
AcDbLine
 10
11537.934134
 20
-11790.660427
 30
-4419.667988
 11
11537.934135
 21
-11790.66044
 31
-4311.520202
  0
LINE
  5
1D6D
100
AcDbEntity
  8
PILARESN
100
AcDbLine
 10
13154.875624
 20
-11641.005492
 30
-5219.667988
 11
13154.875624
 21
-11641.005493
 31
-4758.950991
  0
LINE
  5
1D6E
100
AcDbEntity
  8
PILARESN
100
AcDbLine
 10
14021.531461
 20
-11558.438405
 30
-5219.667988
 11
14021.531461
 21
-11558.438405
 31
-4948.315005
  0
LINE
  5
1D6F
100
AcDbEntity
  8
PILARESN
100
AcDbLine
 10
14889.263172
 20
-11472.517956
 30
-5219.667988
 11
14889.263172
 21
-11472.517956
 31
-5137.914097
  0
LINE
  5
1D70
100
AcDbEntity
  8
VIGASN
100
AcDbLine
 10
11169.399345
 20
-11823.715265
 30
-5219.667988
 11
11537.934134
 21
-11790.660427
 31
-5219.667988
210
-0.4155648916357901
220
-0.9095635331518817
230
0.0
  0
LINE
  5
1D71
100
AcDbEntity
  8
VIGASN
100
AcDbLine
 10
13154.875624
 20
-11641.005492
 30
-5219.667988
 11
14021.531461
 21
-11558.438405
 31
-5219.667988
210
-0.4155648916357901
220
-0.9095635331518817
230
0.0
  0
LINE
  5
1D72
100
AcDbEntity
  8
VIGASN
100
AcDbLine
 10
14021.531461
 20
-11558.438405
 30
-5219.667988
 11
14889.263172
 21
-11472.517956
 31
-5219.667988
210
-0.4155648916357901
220
-0.9095635331518817
230
0.0
  0
LINE
  5
1D73
100
AcDbEntity
  8
VIGASN
100
AcDbLine
 10
11169.399345
 20
-11823.715265
 30
-4419.667988
 11
11537.934134
 21
-11790.660427
 31
-4419.667988
210
-0.4155648916357901
220
-0.9095635331518817
230
0.0
  0
LINE
  5
1D74
100
AcDbEntity
  8
PILARESN
100
AcDbLine
 10
11169.399345
 20
-11823.715265
 30
-5219.667988
 11
11169.399345
 21
-11823.715265
 31
-4419.667988
210
-0.4155648916357901
220
-0.9095635331518817
230
0.0
  0
LINE
  5
1D75
100
AcDbEntity
  8
PILARESN
100
AcDbLine
 10
11537.934134
 20
-11790.660427
 30
-5219.667988
 11
11537.934134
 21
-11790.660427
 31
-4419.667988
210
-0.4155648916357901
220
-0.9095635331518817
230
0.0
  0
LINE
  5
1D76
100
AcDbEntity
  8
VIGASN
100
AcDbLine
 10
11537.934134
 20
-11790.660427
 30
-5219.667988
 11
12221.49867
 21
-11728.782097
 31
-5219.667988
210
-0.4155648916357901
220
-0.9095635331518817
230
0.0
  0
LINE
  5
1D77
100
AcDbEntity
  8
VIGASN
100
AcDbLine
 10
12221.49867
 20
-11728.782097
 30
-5219.667988
 11
13154.875624
 21
-11641.005492
 31
-5219.667988
210
-0.4155648916357901
220
-0.9095635331518817
230
0.0
  0
LINE
  5
1D78
100
AcDbEntity
  8
VIGASTN
100
AcDbLine
 10
12221.49867
 20
-11728.782097
 30
-5219.667988
 11
12249.756472
 21
-11666.93311
 31
-5219.667988
210
-0.4155648916357901
220
-0.9095635331518817
230
0.0
  0
LINE
  5
1D79
100
AcDbEntity
  8
PILARESP
100
AcDbLine
 10
12249.756472
 20
-11666.93311
 30
-5219.667988
 11
12249.756472
 21
-11666.93311
 31
-6019.667988
210
-0.4155648916357901
220
-0.9095635331518817
230
0.0
  0
LINE
  5
1D7A
100
AcDbEntity
  8
PILARESN2
100
AcDbLine
 10
8758.579199
 20
-11653.450984
 30
-4419.667988
 11
8758.579199
 21
-11653.450984
 31
-3636.362431
  0
LINE
  5
1D7B
100
AcDbEntity
  8
PILARESN2
100
AcDbLine
 10
8958.112842
 20
-11630.774782
 30
-4419.667988
 11
8958.112842
 21
-11630.774782
 31
-3755.31201
  0
LINE
  5
1D7C
100
AcDbEntity
  8
PILARESN2
100
AcDbLine
 10
9830.071267
 20
-11531.680186
 30
-4419.667988
 11
9830.071267
 21
-11531.680186
 31
-3966.83464
  0
LINE
  5
1D7D
100
AcDbEntity
  8
PILARESN2
100
AcDbLine
 10
10702.029692
 20
-11432.585591
 30
-4419.667988
 11
10702.029691
 21
-11432.585582
 31
-4172.870005
  0
LINE
  5
1D7F
100
AcDbEntity
  8
VIGASN2
100
AcDbLine
 10
8758.579199
 20
-11653.450984
 30
-4419.667988
 11
8958.112842
 21
-11630.774782
 31
-4419.667988
210
-0.4155648916357901
220
-0.9095635331518817
230
0.0
  0
LINE
  5
1D80
100
AcDbEntity
  8
VIGASN2
100
AcDbLine
 10
8958.112842
 20
-11630.774782
 30
-4419.667988
 11
9830.071267
 21
-11531.680186
 31
-4419.667988
210
-0.4155648916357901
220
-0.9095635331518817
230
0.0
  0
LINE
  5
1D81
100
AcDbEntity
  8
VIGASN2
100
AcDbLine
 10
9830.071267
 20
-11531.680186
 30
-4419.667988
 11
10702.029692
 21
-11432.585591
 31
-4419.667988
210
-0.4155648916357901
220
-0.9095635331518817
230
0.0
  0
LINE
  5
1D82
100
AcDbEntity
  8
VIGASN2
100
AcDbLine
 10
10702.029692
 20
-11432.585591
 30
-4419.667988
 11
11195.089586
 21
-11376.550727
 31
-4419.667988
210
-0.4155648916357901
220
-0.9095635331518817
230
0.0
  0
LINE
  5
1D83
100
AcDbEntity
  8
VIGASN2
100
AcDbLine
 10
8758.579199
 20
-11653.450984
 30
-5219.667988
 11
8958.112842
 21
-11630.774782
 31
-5219.667988
210
-0.4155648916357901
220
-0.9095635331518817
230
0.0
  0
LINE
  5
1D84
100
AcDbEntity
  8
VIGASN2
100
AcDbLine
 10
8958.112842
 20
-11630.774782
 30
-5219.667988
 11
9830.071267
 21
-11531.680186
 31
-5219.667988
210
-0.4155648916357901
220
-0.9095635331518817
230
0.0
  0
LINE
  5
1D85
100
AcDbEntity
  8
VIGASN2
100
AcDbLine
 10
9830.071267
 20
-11531.680186
 30
-5219.667988
 11
10702.029692
 21
-11432.585591
 31
-5219.667988
210
-0.4155648916357901
220
-0.9095635331518817
230
0.0
  0
LINE
  5
1D86
100
AcDbEntity
  8
VIGASN2
100
AcDbLine
 10
10702.029692
 20
-11432.585591
 30
-5219.667988
 11
11195.089586
 21
-11376.550727
 31
-5219.667988
210
-0.4155648916357901
220
-0.9095635331518817
230
0.0
  0
LINE
  5
1D87
100
AcDbEntity
  8
PILARESN2
100
AcDbLine
 10
8758.579199
 20
-11653.450984
 30
-5019.667988
 11
8758.579199
 21
-11653.450984
 31
-4419.667988
210
-0.4155648916357901
220
-0.9095635331518817
230
0.0
  0
LINE
  5
1D88
100
AcDbEntity
  8
PILARESN2
100
AcDbLine
 10
8958.112842
 20
-11630.774782
 30
-5019.667988
 11
8958.112842
 21
-11630.774782
 31
-4419.667988
210
-0.4155648916357901
220
-0.9095635331518817
230
0.0
  0
LINE
  5
1D89
100
AcDbEntity
  8
PILARESN2
100
AcDbLine
 10
9830.071267
 20
-11531.680186
 30
-5019.667988
 11
9830.071267
 21
-11531.680186
 31
-4419.667988
210
-0.4155648916357901
220
-0.9095635331518817
230
0.0
  0
LINE
  5
1D8A
100
AcDbEntity
  8
PILARESN2
100
AcDbLine
 10
10702.029692
 20
-11432.585591
 30
-5019.667988
 11
10702.029692
 21
-11432.585591
 31
-4419.667988
210
-0.4155648916357901
220
-0.9095635331518817
230
0.0
  0
LINE
  5
1D8B
100
AcDbEntity
  8
PILARESN2
100
AcDbLine
 10
11195.089586
 20
-11376.550727
 30
-5019.667988
 11
11195.089586
 21
-11376.550727
 31
-4419.667988
210
-0.4155648916357901
220
-0.9095635331518817
230
0.0
  0
LINE
  5
1D8C
100
AcDbEntity
  8
VIGASTN
100
AcDbLine
 10
11195.089586
 20
-11376.550727
 30
-4419.667988
 11
11169.399345
 21
-11823.715265
 31
-4419.667988
210
-0.4155648916357901
220
-0.9095635331518817
230
0.0
  0
LINE
  5
1D8D
100
AcDbEntity
  8
VIGASTN
100
AcDbLine
 10
11195.089586
 20
-11376.550727
 30
-5219.667988
 11
11169.399345
 21
-11823.715265
 31
-5219.667988
210
-0.4155648916357901
220
-0.9095635331518817
230
0.0
  0
LINE
  5
1D8E
100
AcDbEntity
  8
VIGASTN
100
AcDbLine
 10
8629.711819
 20
-12030.814821
 30
-5219.667988
 11
8758.579199
 21
-11653.450984
 31
-5219.667988
210
-0.4155648916357901
220
-0.9095635331518817
230
0.0
  0
LINE
  5
1D8F
100
AcDbEntity
  8
VIGASTN
100
AcDbLine
 10
8629.711819
 20
-12030.814821
 30
-4419.667988
 11
8758.579199
 21
-11653.450984
 31
-4419.667988
210
-0.4155648916357901
220
-0.9095635331518817
230
0.0
  0
LINE
  5
1D90
100
AcDbEntity
  8
VIGASTN
100
AcDbLine
 10
2927.297501
 20
-12085.964893
 30
-5219.667988
 11
2961.291792
 21
-11977.64906
 31
-5219.667988
  0
LINE
  5
1D91
100
AcDbEntity
  8
VIGASTN
100
AcDbLine
 10
3748.545047
 20
-12149.544798
 30
-5219.667988
 11
3830.831428
 21
-11887.356131
 31
-5219.667988
  0
LINE
  5
1D92
100
AcDbEntity
  8
VIGASTN
100
AcDbLine
 10
3748.545047
 20
-12149.544798
 30
-4419.667988
 11
3830.831428
 21
-11887.356131
 31
-4419.667988
  0
LINE
  5
1D93
100
AcDbEntity
  8
VIGASTN
100
AcDbLine
 10
4589.096562
 20
-12148.341769
 30
-5219.667988
 11
4699.308664
 21
-11797.173522
 31
-5219.667988
  0
LINE
  5
1D94
100
AcDbEntity
  8
VIGASTN
100
AcDbLine
 10
4589.096562
 20
-12148.341769
 30
-4419.667988
 11
4699.308664
 21
-11797.173522
 31
-4419.667988
  0
LINE
  5
1D95
100
AcDbEntity
  8
VIGASTN
100
AcDbLine
 10
4589.096562
 20
-12148.341769
 30
-3619.667988
 11
4699.308664
 21
-11797.173522
 31
-3619.667988
  0
LINE
  5
1D96
100
AcDbEntity
  8
VIGASTN
100
AcDbLine
 10
5432.420949
 20
-12150.130292
 30
-5219.667988
 11
5571.622693
 21
-11706.592501
 31
-5219.667988
  0
LINE
  5
1D97
100
AcDbEntity
  8
VIGASTN
100
AcDbLine
 10
5432.420949
 20
-12150.130292
 30
-4419.667988
 11
5571.622693
 21
-11706.592501
 31
-4419.667988
  0
LINE
  5
1D98
100
AcDbEntity
  8
VIGASTN
100
AcDbLine
 10
5432.420949
 20
-12150.130292
 30
-3619.667988
 11
5571.622693
 21
-11706.592501
 31
-3619.667988
  0
LINE
  5
1D99
100
AcDbEntity
  8
VIGASTN
100
AcDbLine
 10
6270.723375
 20
-12145.004798
 30
-5219.667988
 11
6436.50256
 21
-11616.783443
 31
-5219.667988
  0
LINE
  5
1D9A
100
AcDbEntity
  8
VIGASTN
100
AcDbLine
 10
6270.723375
 20
-12145.004798
 30
-4419.667988
 11
6436.50256
 21
-11616.783443
 31
-4419.667988
  0
LINE
  5
1D9B
100
AcDbEntity
  8
VIGASTN
100
AcDbLine
 10
6270.723375
 20
-12145.004798
 30
-3619.667988
 11
6436.50256
 21
-11616.783443
 31
-3619.667988
  0
LINE
  5
1D9C
100
AcDbEntity
  8
VIGASTN
100
AcDbLine
 10
7117.169462
 20
-12127.501334
 30
-5219.667988
 11
7305.784807
 21
-11526.517242
 31
-5219.667988
  0
LINE
  5
1D9D
100
AcDbEntity
  8
VIGASTN
100
AcDbLine
 10
7974.89051
 20
-12073.764576
 30
-5219.667988
 11
8180.223631
 21
-11419.51272
 31
-5219.667988
  0
LINE
  5
1D9E
100
AcDbEntity
  8
VIGASINT
100
AcDbLine
 10
2961.291792
 20
-11977.64906
 30
-5219.667988
 11
3830.831428
 21
-11887.356131
 31
-5219.667988
  0
LINE
  5
1D9F
100
AcDbEntity
  8
VIGASINT
100
AcDbLine
 10
3830.831428
 20
-11887.356131
 30
-5219.667988
 11
4699.308664
 21
-11797.173522
 31
-5219.667988
  0
LINE
  5
1DA0
100
AcDbEntity
  8
VIGASINT
100
AcDbLine
 10
4699.308664
 20
-11797.173522
 30
-5219.667988
 11
5571.622693
 21
-11706.592501
 31
-5219.667988
  0
LINE
  5
1DA1
100
AcDbEntity
  8
VIGASINT
100
AcDbLine
 10
5571.622693
 20
-11706.592501
 30
-5219.667988
 11
6436.50256
 21
-11616.783443
 31
-5219.667988
  0
LINE
  5
1DA2
100
AcDbEntity
  8
VIGASINT
100
AcDbLine
 10
6436.50256
 20
-11616.783443
 30
-5219.667988
 11
7305.784807
 21
-11526.517242
 31
-5219.667988
  0
LINE
  5
1DA3
100
AcDbEntity
  8
VIGASINT
100
AcDbLine
 10
7305.784807
 20
-11526.517242
 30
-5219.667988
 11
8180.223631
 21
-11419.51272
 31
-5219.667988
  0
LINE
  5
1DA4
100
AcDbEntity
  8
VIGASINT
100
AcDbLine
 10
3830.831428
 20
-11887.356131
 30
-4419.667988
 11
4699.308664
 21
-11797.173522
 31
-4419.667988
  0
LINE
  5
1DA5
100
AcDbEntity
  8
VIGASINT
100
AcDbLine
 10
4699.308664
 20
-11797.173522
 30
-4419.667988
 11
5571.622693
 21
-11706.592501
 31
-4419.667988
  0
LINE
  5
1DA6
100
AcDbEntity
  8
VIGASINT
100
AcDbLine
 10
5571.622693
 20
-11706.592501
 30
-4419.667988
 11
6436.50256
 21
-11616.783443
 31
-4419.667988
  0
LINE
  5
1DA7
100
AcDbEntity
  8
VIGASINT
100
AcDbLine
 10
4699.308664
 20
-11797.173522
 30
-3619.667988
 11
5571.622693
 21
-11706.592501
 31
-3619.667988
  0
LINE
  5
1DA8
100
AcDbEntity
  8
VIGASINT
100
AcDbLine
 10
5571.622693
 20
-11706.592501
 30
-3619.667988
 11
6436.50256
 21
-11616.783443
 31
-3619.667988
  0
LINE
  5
1DA9
100
AcDbEntity
  8
VIGASTN
100
AcDbLine
 10
7974.89051
 20
-12073.764576
 30
-4419.667988
 11
8180.223631
 21
-11419.51272
 31
-4419.667988
  0
LINE
  5
1DAA
100
AcDbEntity
  8
VIGASINT
100
AcDbLine
 10
7305.784807
 20
-11526.517242
 30
-4419.667988
 11
8180.223631
 21
-11419.51272
 31
-4419.667988
  0
LINE
  5
1DAB
100
AcDbEntity
  8
VIGASTN
100
AcDbLine
 10
7117.169462
 20
-12127.501334
 30
-4419.667988
 11
7305.784807
 21
-11526.517242
 31
-4419.667988
  0
LINE
  5
1DAC
100
AcDbEntity
  8
VIGASINT
100
AcDbLine
 10
6436.50256
 20
-11616.783443
 30
-4419.667988
 11
7305.784807
 21
-11526.517242
 31
-4419.667988
  0
LINE
  5
1DAD
100
AcDbEntity
  8
VIGASTN
100
AcDbLine
 10
7974.89051
 20
-12073.764576
 30
-3619.667988
 11
8180.223631
 21
-11419.51272
 31
-3619.667988
  0
LINE
  5
1DAE
100
AcDbEntity
  8
VIGASINT
100
AcDbLine
 10
7305.784807
 20
-11526.517242
 30
-3619.667988
 11
8180.223631
 21
-11419.51272
 31
-3619.667988
  0
LINE
  5
1DAF
100
AcDbEntity
  8
VIGASTN
100
AcDbLine
 10
7117.169462
 20
-12127.501334
 30
-3619.667988
 11
7305.784807
 21
-11526.517242
 31
-3619.667988
  0
LINE
  5
1DB0
100
AcDbEntity
  8
VIGASINT
100
AcDbLine
 10
6436.50256
 20
-11616.783443
 30
-3619.667988
 11
7305.784807
 21
-11526.517242
 31
-3619.667988
  0
INSERT
  5
1DB1
100
AcDbEntity
  8
CC
100
AcDbBlockReference
  2
P6
 10
2961.291792
 20
-11977.64906
 30
-5619.667988
 50
155.445105
  0
LINE
  5
1DB2
100
AcDbEntity
  8
PILARESINT
100
AcDbLine
 10
2961.291792
 20
-11977.64906
 30
-5619.667988
 11
2961.291792
 21
-11977.64906
 31
-5219.667988
210
-0.4155648916357901
220
-0.9095635331518817
230
0.0
  0
INSERT
  5
1DB3
100
AcDbEntity
  8
CC
100
AcDbBlockReference
  2
P6
 10
3830.831428
 20
-11887.356131
 30
-5419.667988
 50
155.445105
  0
LINE
  5
1DB4
100
AcDbEntity
  8
PILARESINT
100
AcDbLine
 10
3830.831428
 20
-11887.356131
 30
-5419.667988
 11
3830.831428
 21
-11887.356131
 31
-5219.667988
  0
LINE
  5
1DB5
100
AcDbEntity
  8
PILARESINT
100
AcDbLine
 10
3830.831428
 20
-11887.356131
 30
-5219.667988
 11
3830.831428
 21
-11887.356131
 31
-4419.667988
210
-0.4155648916357901
220
-0.9095635331518817
230
0.0
  0
INSERT
  5
1DB6
100
AcDbEntity
  8
CC
100
AcDbBlockReference
  2
P6
 10
4699.308664
 20
-11797.173522
 30
-5419.667988
 50
155.445105
  0
LINE
  5
1DB7
100
AcDbEntity
  8
PILARESINT
100
AcDbLine
 10
4699.308664
 20
-11797.173522
 30
-5419.667988
 11
4699.308664
 21
-11797.173522
 31
-5219.667988
  0
LINE
  5
1DB8
100
AcDbEntity
  8
PILARESINT
100
AcDbLine
 10
4699.308664
 20
-11797.173522
 30
-5219.667988
 11
4699.308664
 21
-11797.173522
 31
-4419.667988
210
-0.4155648916357901
220
-0.9095635331518817
230
0.0
  0
LINE
  5
1DB9
100
AcDbEntity
  8
PILARESINT
100
AcDbLine
 10
4699.308664
 20
-11797.173522
 30
-3619.667988
 11
4699.308664
 21
-11797.173522
 31
-4419.667988
210
-0.4155648916357901
220
-0.9095635331518817
230
0.0
  0
INSERT
  5
1DBA
100
AcDbEntity
  8
CC
100
AcDbBlockReference
  2
P6
 10
5571.622693
 20
-11706.592501
 30
-5419.667988
 50
155.445105
  0
LINE
  5
1DBB
100
AcDbEntity
  8
PILARESINT
100
AcDbLine
 10
5571.622693
 20
-11706.592501
 30
-5419.667988
 11
5571.622693
 21
-11706.592501
 31
-5219.667988
  0
LINE
  5
1DBC
100
AcDbEntity
  8
PILARESINT
100
AcDbLine
 10
5571.622693
 20
-11706.592501
 30
-5019.667988
 11
5571.622693
 21
-11706.592501
 31
-4419.667988
210
-0.4155648916357901
220
-0.9095635331518817
230
0.0
  0
LINE
  5
1DBD
100
AcDbEntity
  8
PILARESINT
100
AcDbLine
 10
5571.622693
 20
-11706.592501
 30
-3619.667988
 11
5571.622693
 21
-11706.592501
 31
-4419.667988
210
-0.4155648916357901
220
-0.9095635331518817
230
0.0
  0
INSERT
  5
1DBE
100
AcDbEntity
  8
CC
100
AcDbBlockReference
  2
P6
 10
6436.50256
 20
-11616.783443
 30
-5530.039627
 50
155.445105
  0
LINE
  5
1DBF
100
AcDbEntity
  8
PILARESINT
100
AcDbLine
 10
6436.50256
 20
-11616.783443
 30
-5530.039627
 11
6436.50256
 21
-11616.783443
 31
-5219.667988
  0
LINE
  5
1DC0
100
AcDbEntity
  8
PILARESINT
100
AcDbLine
 10
6436.50256
 20
-11616.783443
 30
-5019.667988
 11
6436.50256
 21
-11616.783443
 31
-4419.667988
210
-0.4155648916357901
220
-0.9095635331518817
230
0.0
  0
LINE
  5
1DC1
100
AcDbEntity
  8
PILARESINT
100
AcDbLine
 10
6436.50256
 20
-11616.783443
 30
-3619.667988
 11
6436.50256
 21
-11616.783443
 31
-4419.667988
210
-0.4155648916357901
220
-0.9095635331518817
230
0.0
  0
INSERT
  5
1DC2
100
AcDbEntity
  8
CC
100
AcDbBlockReference
  2
P6
 10
7305.784807
 20
-11526.517242
 30
-5574.995343
 50
155.445105
  0
LINE
  5
1DC3
100
AcDbEntity
  8
PILARESINT
100
AcDbLine
 10
7305.784807
 20
-11526.517242
 30
-5574.995343
 11
7305.784807
 21
-11526.517242
 31
-5219.667988
  0
LINE
  5
1DC4
100
AcDbEntity
  8
PILARESINT
100
AcDbLine
 10
7305.784807
 20
-11526.517242
 30
-5019.667988
 11
7305.784807
 21
-11526.517242
 31
-4419.667988
210
-0.4155648916357901
220
-0.9095635331518817
230
0.0
  0
LINE
  5
1DC5
100
AcDbEntity
  8
PILARESINT
100
AcDbLine
 10
7305.784807
 20
-11526.517242
 30
-3619.667988
 11
7305.784807
 21
-11526.517242
 31
-4419.667988
210
-0.4155648916357901
220
-0.9095635331518817
230
0.0
  0
INSERT
  5
1DC6
100
AcDbEntity
  8
CC
100
AcDbBlockReference
  2
P6
 10
8180.223631
 20
-11419.51272
 30
-5619.667988
 50
155.445105
  0
LINE
  5
1DC7
100
AcDbEntity
  8
PILARESINT
100
AcDbLine
 10
8180.223631
 20
-11419.51272
 30
-5619.667988
 11
8180.223631
 21
-11419.51272
 31
-5219.667988
  0
LINE
  5
1DC8
100
AcDbEntity
  8
PILARESINT
100
AcDbLine
 10
8180.223631
 20
-11419.51272
 30
-5019.667988
 11
8180.223631
 21
-11419.51272
 31
-4419.667988
210
-0.4155648916357901
220
-0.9095635331518817
230
0.0
  0
LINE
  5
1DC9
100
AcDbEntity
  8
PILARESINT
100
AcDbLine
 10
8180.223631
 20
-11419.51272
 30
-4419.667988
 11
8180.223631
 21
-11419.51272
 31
-3619.667988
210
-0.4155648916357901
220
-0.9095635331518817
230
0.0
  0
LINE
  5
1DCA
100
AcDbEntity
  8
VIGASTN
100
AcDbLine
 10
9830.071267
 20
-11531.680186
 30
-4419.667988
 11
9962.131648
 21
-11110.896883
 31
-4419.667988
  0
LINE
  5
1DCB
100
AcDbEntity
  8
VIGASTN
100
AcDbLine
 10
8958.112842
 20
-11630.774782
 30
-4419.667988
 11
9072.940675
 21
-11264.899454
 31
-4419.667988
  0
LINE
  5
1DCC
100
AcDbEntity
  8
VIGASTN
100
AcDbLine
 10
10702.029692
 20
-11432.585591
 30
-4419.667988
 11
10851.32262
 21
-10956.894312
 31
-4419.667988
  0
LINE
  5
1DCD
100
AcDbEntity
  8
VIGASTN
100
AcDbLine
 10
9830.071267
 20
-11531.680186
 30
-5219.667988
 11
9962.131648
 21
-11110.896883
 31
-5219.667988
  0
LINE
  5
1DCE
100
AcDbEntity
  8
VIGASTN
100
AcDbLine
 10
8958.112842
 20
-11630.774782
 30
-5219.667988
 11
9072.940675
 21
-11264.899454
 31
-5219.667988
  0
LINE
  5
1DCF
100
AcDbEntity
  8
VIGASTN
100
AcDbLine
 10
10702.029692
 20
-11432.585591
 30
-5219.667988
 11
10851.32262
 21
-10956.894312
 31
-5219.667988
  0
LINE
  5
1DD0
100
AcDbEntity
  8
VIGASINT
100
AcDbLine
 10
10851.32262
 20
-10956.894312
 30
-4419.667988
 11
9962.131648
 21
-11110.896883
 31
-4419.667988
  0
LINE
  5
1DD1
100
AcDbEntity
  8
VIGASINT
100
AcDbLine
 10
9962.131648
 20
-11110.896883
 30
-4419.667988
 11
9072.940675
 21
-11264.899454
 31
-4419.667988
  0
LINE
  5
1DD2
100
AcDbEntity
  8
VIGASINT
100
AcDbLine
 10
9072.940675
 20
-11264.899454
 30
-4419.667988
 11
8180.223631
 21
-11419.51272
 31
-4419.667988
  0
LINE
  5
1DD3
100
AcDbEntity
  8
VIGASINT
100
AcDbLine
 10
10851.32262
 20
-10956.894312
 30
-5219.667988
 11
9962.131648
 21
-11110.896883
 31
-5219.667988
  0
LINE
  5
1DD4
100
AcDbEntity
  8
VIGASINT
100
AcDbLine
 10
9962.131648
 20
-11110.896883
 30
-5219.667988
 11
9072.940675
 21
-11264.899454
 31
-5219.667988
  0
LINE
  5
1DD5
100
AcDbEntity
  8
VIGASINT
100
AcDbLine
 10
9072.940675
 20
-11264.899454
 30
-5219.667988
 11
8180.223631
 21
-11419.51272
 31
-5219.667988
  0
INSERT
  5
1DD6
100
AcDbEntity
  8
PILARESINT
100
AcDbBlockReference
  2
P7
 10
9072.940675
 20
-11264.899454
 30
-5619.667988
 50
155.445105
  0
LINE
  5
1DD7
100
AcDbEntity
  8
PILARESINT
100
AcDbLine
 10
9072.940675
 20
-11264.899454
 30
-5619.667988
 11
9072.940675
 21
-11264.899454
 31
-5219.667988
  0
LINE
  5
1DD8
100
AcDbEntity
  8
PILARESINT
100
AcDbLine
 10
9072.940675
 20
-11264.899454
 30
-5019.667988
 11
9072.940675
 21
-11264.899454
 31
-4419.667988
210
-0.4155648916357901
220
-0.9095635331518817
230
0.0
  0
INSERT
  5
1DD9
100
AcDbEntity
  8
PILARESINT
100
AcDbBlockReference
  2
P7
 10
9962.131648
 20
-11110.896883
 30
-5619.667988
 50
155.445105
  0
LINE
  5
1DDA
100
AcDbEntity
  8
PILARESINT
100
AcDbLine
 10
9962.131648
 20
-11110.896883
 30
-5619.667988
 11
9962.131648
 21
-11110.896883
 31
-5219.667988
  0
LINE
  5
1DDB
100
AcDbEntity
  8
PILARESINT
100
AcDbLine
 10
9962.131648
 20
-11110.896883
 30
-5019.667988
 11
9962.131648
 21
-11110.896883
 31
-4419.667988
210
-0.4155648916357901
220
-0.9095635331518817
230
0.0
  0
INSERT
  5
1DDC
100
AcDbEntity
  8
PILARESINT
100
AcDbBlockReference
  2
P7
 10
10851.32262
 20
-10956.894312
 30
-5668.657081
 50
155.445105
  0
LINE
  5
1DDD
100
AcDbEntity
  8
PILARESINT
100
AcDbLine
 10
10851.32262
 20
-10956.894312
 30
-5668.657081
 11
10851.32262
 21
-10956.894312
 31
-5219.667988
  0
LINE
  5
1DDE
100
AcDbEntity
  8
PILARESINT
100
AcDbLine
 10
10851.32262
 20
-10956.894312
 30
-5019.667988
 11
10851.32262
 21
-10956.894312
 31
-4419.667988
210
-0.4155648916357901
220
-0.9095635331518817
230
0.0
  0
LINE
  5
1DDF
100
AcDbEntity
  8
VIGASINT
100
AcDbLine
 10
10851.32262
 20
-10956.894312
 30
-5019.667988
 11
9962.131648
 21
-11110.896883
 31
-5019.667988
210
-0.4155648916357901
220
-0.9095635331518817
230
0.0
  0
LINE
  5
1DE0
100
AcDbEntity
  8
VIGASINT
100
AcDbLine
 10
9962.131648
 20
-11110.896883
 30
-5019.667988
 11
9072.940675
 21
-11264.899454
 31
-5019.667988
210
-0.4155648916357901
220
-0.9095635331518817
230
0.0
  0
LINE
  5
1DE1
100
AcDbEntity
  8
VIGASINT
100
AcDbLine
 10
9072.940675
 20
-11264.899454
 30
-5019.667988
 11
8180.223631
 21
-11419.51272
 31
-5019.667988
210
-0.4155648916357901
220
-0.9095635331518817
230
0.0
  0
LINE
  5
1DE2
100
AcDbEntity
  8
VIGASINT
100
AcDbLine
 10
8180.223631
 20
-11419.51272
 30
-5019.667988
 11
7305.784807
 21
-11526.517242
 31
-5019.667988
210
-0.4155648916357901
220
-0.9095635331518817
230
0.0
  0
LINE
  5
1DE3
100
AcDbEntity
  8
VIGASINT
100
AcDbLine
 10
7305.784807
 20
-11526.517242
 30
-5019.667988
 11
6436.50256
 21
-11616.783443
 31
-5019.667988
210
-0.4155648916357901
220
-0.9095635331518817
230
0.0
  0
LINE
  5
1DE4
100
AcDbEntity
  8
VIGASINT
100
AcDbLine
 10
6436.50256
 20
-11616.783443
 30
-5019.667988
 11
5571.622693
 21
-11706.592501
 31
-5019.667988
210
-0.4155648916357901
220
-0.9095635331518817
230
0.0
  0
LINE
  5
1DE5
100
AcDbEntity
  8
PILARESINT
100
AcDbLine
 10
5571.622693
 20
-11706.592501
 30
-5019.667988
 11
5571.622693
 21
-11706.592501
 31
-5219.667988
210
-0.4155648916357901
220
-0.9095635331518817
230
0.0
  0
LINE
  5
1DE6
100
AcDbEntity
  8
PILARESINT
100
AcDbLine
 10
6436.50256
 20
-11616.783443
 30
-5019.667988
 11
6436.50256
 21
-11616.783443
 31
-5219.667988
210
-0.4155648916357901
220
-0.9095635331518817
230
0.0
  0
LINE
  5
1DE7
100
AcDbEntity
  8
PILARESINT
100
AcDbLine
 10
7305.784807
 20
-11526.517242
 30
-5019.667988
 11
7305.784807
 21
-11526.517242
 31
-5219.667988
210
-0.4155648916357901
220
-0.9095635331518817
230
0.0
  0
LINE
  5
1DE8
100
AcDbEntity
  8
PILARESINT
100
AcDbLine
 10
8180.223631
 20
-11419.51272
 30
-5019.667988
 11
8180.223631
 21
-11419.51272
 31
-5219.667988
210
-0.4155648916357901
220
-0.9095635331518817
230
0.0
  0
LINE
  5
1DE9
100
AcDbEntity
  8
PILARESINT
100
AcDbLine
 10
9072.940675
 20
-11264.899454
 30
-5019.667988
 11
9072.940675
 21
-11264.899454
 31
-5219.667988
210
-0.4155648916357901
220
-0.9095635331518817
230
0.0
  0
LINE
  5
1DEA
100
AcDbEntity
  8
PILARESINT
100
AcDbLine
 10
9962.131648
 20
-11110.896883
 30
-5019.667988
 11
9962.131648
 21
-11110.896883
 31
-5219.667988
210
-0.4155648916357901
220
-0.9095635331518817
230
0.0
  0
LINE
  5
1DEB
100
AcDbEntity
  8
PILARESINT
100
AcDbLine
 10
10851.32262
 20
-10956.894312
 30
-5019.667988
 11
10851.32262
 21
-10956.894312
 31
-5219.667988
210
-0.4155648916357901
220
-0.9095635331518817
230
0.0
  0
LINE
  5
1DEC
100
AcDbEntity
  8
VIGASN2
100
AcDbLine
 10
8758.579199
 20
-11653.450984
 30
-5019.667988
 11
8958.112842
 21
-11630.774782
 31
-5019.667988
210
-0.4155648916357901
220
-0.9095635331518817
230
0.0
  0
LINE
  5
1DED
100
AcDbEntity
  8
VIGASN2
100
AcDbLine
 10
8958.112842
 20
-11630.774782
 30
-5019.667988
 11
9830.071267
 21
-11531.680186
 31
-5019.667988
210
-0.4155648916357901
220
-0.9095635331518817
230
0.0
  0
LINE
  5
1DEE
100
AcDbEntity
  8
VIGASN2
100
AcDbLine
 10
9830.071267
 20
-11531.680186
 30
-5019.667988
 11
10702.029692
 21
-11432.585591
 31
-5019.667988
210
-0.4155648916357901
220
-0.9095635331518817
230
0.0
  0
LINE
  5
1DEF
100
AcDbEntity
  8
VIGASN2
100
AcDbLine
 10
10702.029692
 20
-11432.585591
 30
-5019.667988
 11
11195.089586
 21
-11376.550727
 31
-5019.667988
210
-0.4155648916357901
220
-0.9095635331518817
230
0.0
  0
LINE
  5
1DF0
100
AcDbEntity
  8
PILARESN2
100
AcDbLine
 10
11195.089586
 20
-11376.550727
 30
-5019.667988
 11
11195.089586
 21
-11376.550727
 31
-5219.667988
210
-0.4155648916357901
220
-0.9095635331518817
230
0.0
  0
LINE
  5
1DF1
100
AcDbEntity
  8
PILARESN2
100
AcDbLine
 10
10702.029692
 20
-11432.585591
 30
-5019.667988
 11
10702.029692
 21
-11432.585591
 31
-5219.667988
210
-0.4155648916357901
220
-0.9095635331518817
230
0.0
  0
LINE
  5
1DF2
100
AcDbEntity
  8
PILARESN2
100
AcDbLine
 10
9830.071267
 20
-11531.680186
 30
-5019.667988
 11
9830.071267
 21
-11531.680186
 31
-5219.667988
210
-0.4155648916357901
220
-0.9095635331518817
230
0.0
  0
LINE
  5
1DF3
100
AcDbEntity
  8
PILARESN2
100
AcDbLine
 10
8958.112842
 20
-11630.774782
 30
-5019.667988
 11
8958.112842
 21
-11630.774782
 31
-5219.667988
210
-0.4155648916357901
220
-0.9095635331518817
230
0.0
  0
LINE
  5
1DF4
100
AcDbEntity
  8
PILARESN2
100
AcDbLine
 10
8758.579199
 20
-11653.450984
 30
-5019.667988
 11
8758.579199
 21
-11653.450984
 31
-5219.667988
210
-0.4155648916357901
220
-0.9095635331518817
230
0.0
  0
LINE
  5
1DF5
100
AcDbEntity
  8
VIGASTN
100
AcDbLine
 10
8958.112842
 20
-11630.774782
 30
-5019.667988
 11
9072.940675
 21
-11264.899454
 31
-5019.667988
  0
LINE
  5
1DF6
100
AcDbEntity
  8
VIGASTN
100
AcDbLine
 10
9830.071267
 20
-11531.680186
 30
-5019.667988
 11
9962.131648
 21
-11110.896883
 31
-5019.667988
  0
LINE
  5
1DF7
100
AcDbEntity
  8
VIGASTN
100
AcDbLine
 10
10702.029692
 20
-11432.585591
 30
-5019.667988
 11
10851.32262
 21
-10956.894312
 31
-5019.667988
  0
LINE
  5
1DF8
100
AcDbEntity
  8
VIGASTN
100
AcDbLine
 10
11222.896699
 20
-10892.539898
 30
-5219.667988
 11
11195.089586
 21
-11376.550727
 31
-5219.667988
210
-0.4155648916357901
220
-0.9095635331518817
230
0.0
  0
LINE
  5
1DF9
100
AcDbEntity
  8
VIGASINT
100
AcDbLine
 10
11222.896699
 20
-10892.539898
 30
-5219.667988
 11
10851.32262
 21
-10956.894312
 31
-5219.667988
  0
LINE
  5
1DFA
100
AcDbEntity
  8
VIGASTN
100
AcDbLine
 10
11222.896699
 20
-10892.539898
 30
-5019.667988
 11
11195.089586
 21
-11376.550727
 31
-5019.667988
210
-0.4155648916357901
220
-0.9095635331518817
230
0.0
  0
LINE
  5
1DFB
100
AcDbEntity
  8
VIGASINT
100
AcDbLine
 10
11222.896699
 20
-10892.539898
 30
-5019.667988
 11
10851.32262
 21
-10956.894312
 31
-5019.667988
  0
INSERT
  5
1DFC
100
AcDbEntity
  8
PILARESINT
100
AcDbBlockReference
  2
P8
 10
11222.896699
 20
-10892.539898
 30
-5696.358566
 50
155.445105
  0
LINE
  5
1DFD
100
AcDbEntity
  8
PILARESINT
100
AcDbLine
 10
11222.896699
 20
-10892.539898
 30
-5696.358566
 11
11222.896699
 21
-10892.539898
 31
-5219.667988
  0
LINE
  5
1DFE
100
AcDbEntity
  8
PILARESINT
100
AcDbLine
 10
11222.896699
 20
-10892.539898
 30
-5019.667988
 11
11222.896699
 21
-10892.539898
 31
-5219.667988
210
-0.4155648916357901
220
-0.9095635331518817
230
0.0
  0
LINE
  5
1DFF
100
AcDbEntity
  8
VB
100
AcDbLine
 10
11537.934135
 20
-11790.66044
 30
-4311.520202
 11
11456.957312
 21
-11797.922387
 31
-4292.184069
  0
LINE
  5
1E00
100
AcDbEntity
  8
VB
100
AcDbLine
 10
11456.957312
 20
-11797.922387
 30
-4292.184069
 11
11246.74076
 21
-11816.779085
 31
-4242.63931
  0
LINE
  5
1E01
100
AcDbEntity
  8
ALIN2
100
AcDbLine
 10
6914.572544
 20
-12131.689426
 30
-3204.754165
 11
6906.676268
 21
-12131.852658
 31
-3202.667988
  0
INSERT
  5
1E02
100
AcDbEntity
  8
PILARESINT
100
AcDbBlockReference
  2
APOYO295
 10
5571.622693
 20
-11706.592501
 30
-5019.667988
 50
155.445105
  0
INSERT
  5
1E03
100
AcDbEntity
  8
PILARESINT
100
AcDbBlockReference
  2
APOYO295
 10
6436.50256
 20
-11616.783443
 30
-5019.667988
 50
155.445105
  0
INSERT
  5
1E04
100
AcDbEntity
  8
PILARESINT
100
AcDbBlockReference
  2
APOYO295
 10
7305.784807
 20
-11526.517242
 30
-5019.667988
 50
155.445105
  0
INSERT
  5
1E05
100
AcDbEntity
  8
PILARESINT
100
AcDbBlockReference
  2
APOYO295
 10
8180.223631
 20
-11419.51272
 30
-5019.667988
 50
155.445105
  0
LINE
  5
1E06
100
AcDbEntity
  8
VIGACURVA_AUX
100
AcDbLine
 10
2927.297501
 20
-12085.964893
 30
-5103.469978
 11
3748.545047
 21
-12149.544798
 31
-4419.667988
210
-0.4155648916357901
220
-0.9095635331518817
230
0.0
  0
LINE
  5
1E07
100
AcDbEntity
  8
VIGACURVA_AUX
100
AcDbLine
 10
3748.545047
 20
-12149.544798
 30
-4419.667988
 11
4589.096562
 21
-12148.341769
 31
-3847.704768
210
-0.4155648916357901
220
-0.9095635331518817
230
0.0
  0
LINE
  5
1E08
100
AcDbEntity
  8
VIGACURVA_AUX
100
AcDbLine
 10
5432.420949
 20
-12150.130292
 30
-3503.386073
 11
6270.723375
 21
-12145.004798
 31
-3399.070353
210
-0.4155648916357901
220
-0.9095635331518817
230
0.0
  0
LINE
  5
1E09
100
AcDbEntity
  8
VIGACURVA_AUX
100
AcDbLine
 10
6270.723375
 20
-12145.004798
 30
-3399.070353
 11
7117.169462
 21
-12127.501334
 31
-3421.465193
210
-0.4155648916357901
220
-0.9095635331518817
230
0.0
  0
LINE
  5
1E0A
100
AcDbEntity
  8
VIGACURVA_AUX
100
AcDbLine
 10
7117.169462
 20
-12127.501334
 30
-3421.465193
 11
7974.89051
 21
-12073.764576
 31
-3473.874701
210
-0.4155648916357901
220
-0.9095635331518817
230
0.0
  0
LINE
  5
1E0B
100
AcDbEntity
  8
SECUNPI
100
AcDbLine
 10
4799.927659
 20
-12148.7889
 30
-3619.667988
 11
4799.927659
 21
-12148.7889
 31
-3745.984607
210
-0.4155648916357901
220
-0.9095635331518817
230
0.0
  0
LINE
  5
1E0C
100
AcDbEntity
  8
SECUNPI
100
AcDbLine
 10
5010.758756
 20
-12149.236031
 30
-3219.667988
 11
5010.758756
 21
-12149.236031
 31
-3643.546684
210
-0.4155648916357901
220
-0.9095635331518817
230
0.0
  0
LINE
  5
1E0D
100
AcDbEntity
  8
SECUNPI
100
AcDbLine
 10
5221.589852
 20
-12149.683161
 30
-3219.667988
 11
5221.589852
 21
-12149.683161
 31
-3553.449624
210
-0.4155648916357901
220
-0.9095635331518817
230
0.0
  0
LINE
  5
1E0E
100
AcDbEntity
  8
SECUNPI
100
AcDbLine
 10
4799.927659
 20
-12148.7889
 30
-3219.667988
 11
4799.927659
 21
-12148.7889
 31
-3619.667988
210
-0.4155648916357901
220
-0.9095635331518817
230
0.0
  0
LINE
  5
1E0F
100
AcDbEntity
  8
SECUNVI
100
AcDbLine
 10
5221.589852
 20
-12149.683161
 30
-3219.667988
 11
5010.758756
 21
-12149.236031
 31
-3219.667988
210
-0.4155648916357901
220
-0.9095635331518817
230
0.0
  0
LINE
  5
1E10
100
AcDbEntity
  8
SECUNVI
100
AcDbLine
 10
4799.927659
 20
-12148.7889
 30
-3219.667988
 11
4589.096562
 21
-12148.341769
 31
-3219.667988
210
-0.4155648916357901
220
-0.9095635331518817
230
0.0
  0
LINE
  5
1E11
100
AcDbEntity
  8
SECUNPI
100
AcDbLine
 10
5010.758756
 20
-12149.236031
 30
-2816.147468
 11
5010.758756
 21
-12149.236031
 31
-3219.667988
210
-0.4155648916357901
220
-0.9095635331518817
230
0.0
  0
LINE
  5
1E12
100
AcDbEntity
  8
SECUNPI
100
AcDbLine
 10
5221.589852
 20
-12149.683161
 30
-2843.625007
 11
5221.589852
 21
-12149.683161
 31
-3219.667988
210
-0.4155648916357901
220
-0.9095635331518817
230
0.0
  0
LINE
  5
1E13
100
AcDbEntity
  8
SECUNPI
100
AcDbLine
 10
4799.927659
 20
-12148.7889
 30
-2806.419115
 11
4799.927659
 21
-12148.7889
 31
-3219.667988
210
-0.4155648916357901
220
-0.9095635331518817
230
0.0
  0
LINE
  5
1E14
100
AcDbEntity
  8
SECUNVI
100
AcDbLine
 10
5432.420949
 20
-12150.130292
 30
-3219.667988
 11
5221.589852
 21
-12149.683161
 31
-3219.667988
210
-0.4155648916357901
220
-0.9095635331518817
230
0.0
  0
LINE
  5
1E15
100
AcDbEntity
  8
SECUNVI
100
AcDbLine
 10
5010.758756
 20
-12149.236031
 30
-3219.667988
 11
4799.927659
 21
-12148.7889
 31
-3219.667988
210
-0.4155648916357901
220
-0.9095635331518817
230
0.0
  0
LINE
  5
1E16
100
AcDbEntity
  8
VIGACURVA_AUX
100
AcDbLine
 10
4589.096562
 20
-12148.341769
 30
-3847.704768
 11
5010.758756
 21
-12149.236031
 31
-3619.667988
210
-0.4155648916357901
220
-0.9095635331518817
230
0.0
  0
LINE
  5
1E17
100
AcDbEntity
  8
VIGACURVA_AUX
100
AcDbLine
 10
5010.758756
 20
-12149.236031
 30
-3619.667988
 11
5432.420949
 21
-12150.130292
 31
-3503.386073
210
-0.4155648916357901
220
-0.9095635331518817
230
0.0
  0
LINE
  5
1E18
100
AcDbEntity
  8
VIGASN
100
AcDbLine
 10
5432.420949
 20
-12150.130292
 30
-3619.667988
 11
5066.635958
 21
-12149.354535
 31
-3619.667988
210
-0.4155648916357901
220
-0.9095635331518817
230
0.0
  0
LINE
  5
1E19
100
AcDbEntity
  8
SECUNPI
100
AcDbLine
 10
6061.147768
 20
-12146.286172
 30
-3219.667988
 11
6061.147768
 21
-12146.286172
 31
-3025.123051
210
-0.4155648916357901
220
-0.9095635331518817
230
0.0
  0
LINE
  5
1E1A
100
AcDbEntity
  8
SECUNPI
100
AcDbLine
 10
5851.572162
 20
-12147.567545
 30
-3219.667988
 11
5851.572162
 21
-12147.567545
 31
-2969.891338
210
-0.4155648916357901
220
-0.9095635331518817
230
0.0
  0
LINE
  5
1E1B
100
AcDbEntity
  8
SECUNPI
100
AcDbLine
 10
5641.996556
 20
-12148.848918
 30
-3219.667988
 11
5641.996556
 21
-12148.848918
 31
-2922.293682
210
-0.4155648916357901
220
-0.9095635331518817
230
0.0
  0
LINE
  5
1E1C
100
AcDbEntity
  8
SECUNPI
100
AcDbLine
 10
6061.147768
 20
-12146.286172
 30
-3336.001804
 11
6061.147768
 21
-12146.286172
 31
-3219.667988
210
-0.4155648916357901
220
-0.9095635331518817
230
0.0
  0
LINE
  5
1E1D
100
AcDbEntity
  8
SECUNPI
100
AcDbLine
 10
5851.572162
 20
-12147.567545
 30
-3366.351802
 11
5851.572162
 21
-12147.567545
 31
-3219.667988
210
-0.4155648916357901
220
-0.9095635331518817
230
0.0
  0
LINE
  5
1E1E
100
AcDbEntity
  8
SECUNPI
100
AcDbLine
 10
5641.996556
 20
-12148.848918
 30
-3416.114857
 11
5641.996556
 21
-12148.848918
 31
-3219.667988
210
-0.4155648916357901
220
-0.9095635331518817
230
0.0
  0
LINE
  5
1E1F
100
AcDbEntity
  8
SECUNVI
100
AcDbLine
 10
5641.996556
 20
-12148.848918
 30
-3219.667988
 11
5851.572162
 21
-12147.567545
 31
-3219.667988
210
-0.4155648916357901
220
-0.9095635331518817
230
0.0
  0
LINE
  5
1E20
100
AcDbEntity
  8
SECUNVI
100
AcDbLine
 10
6061.147768
 20
-12146.286172
 30
-3219.667988
 11
6270.723375
 21
-12145.004798
 31
-3219.667988
210
-0.4155648916357901
220
-0.9095635331518817
230
0.0
  0
LINE
  5
1E21
100
AcDbEntity
  8
SECUNVI
100
AcDbLine
 10
6061.147768
 20
-12146.286172
 30
-3219.667988
 11
5851.572162
 21
-12147.567545
 31
-3219.667988
210
-0.4155648916357901
220
-0.9095635331518817
230
0.0
  0
LINE
  5
1E22
100
AcDbEntity
  8
SECUNVI
100
AcDbLine
 10
5641.996556
 20
-12148.848918
 30
-3219.667988
 11
5432.420949
 21
-12150.130292
 31
-3219.667988
210
-0.4155648916357901
220
-0.9095635331518817
230
0.0
  0
LINE
  5
1E23
100
AcDbEntity
  8
SECUNPI
100
AcDbLine
 10
6693.946418
 20
-12136.253066
 30
-3312.087042
 11
6693.946418
 21
-12136.253066
 31
-3219.667988
210
-0.4155648916357901
220
-0.9095635331518817
230
0.0
  0
LINE
  5
1E24
100
AcDbEntity
  8
SECUNPI
100
AcDbLine
 10
6482.334897
 20
-12140.628932
 30
-3308.687014
 11
6482.334897
 21
-12140.628932
 31
-3219.667988
210
-0.4155648916357901
220
-0.9095635331518817
230
0.0
  0
LINE
  5
1E25
100
AcDbEntity
  8
SECUNPI
100
AcDbLine
 10
6905.55794
 20
-12131.8772
 30
-3326.106102
 11
6905.55794
 21
-12131.8772
 31
-3249.421205
210
-0.4155648916357901
220
-0.9095635331518817
230
0.0
  0
LINE
  5
1E26
100
AcDbEntity
  8
SECUNVI
100
AcDbLine
 10
6482.334897
 20
-12140.628932
 30
-3219.667988
 11
6693.946418
 21
-12136.253066
 31
-3219.667988
210
-0.4155648916357901
220
-0.9095635331518817
230
0.0
  0
LINE
  5
1E27
100
AcDbEntity
  8
SECUNPI
100
AcDbLine
 10
6693.946418
 20
-12136.253066
 30
-3219.667988
 11
6693.946418
 21
-12136.253066
 31
-3193.165134
210
-0.4155648916357901
220
-0.9095635331518817
230
0.0
  0
LINE
  5
1E28
100
AcDbEntity
  8
SECUNPI
100
AcDbLine
 10
6482.334897
 20
-12140.628932
 30
-3219.667988
 11
6482.334897
 21
-12140.628932
 31
-3136.909063
210
-0.4155648916357901
220
-0.9095635331518817
230
0.0
  0
LINE
  5
1E29
100
AcDbEntity
  8
SECUNVI
100
AcDbLine
 10
6693.946418
 20
-12136.253066
 30
-3219.667988
 11
6793.638934
 21
-12134.191548
 31
-3219.667988
210
-0.4155648916357901
220
-0.9095635331518817
230
0.0
  0
LINE
  5
1E2A
100
AcDbEntity
  8
SECUNVI
100
AcDbLine
 10
6270.723375
 20
-12145.004798
 30
-3219.667988
 11
6482.334897
 21
-12140.628932
 31
-3219.667988
210
-0.4155648916357901
220
-0.9095635331518817
230
0.0
  0
LINE
  5
1E2B
100
AcDbEntity
  8
SECUNPI
100
AcDbLine
 10
4168.820805
 20
-12148.943283
 30
-4019.667988
 11
4168.820805
 21
-12148.943283
 31
-4133.686378
210
-0.4155648916357901
220
-0.9095635331518817
230
0.0
  0
LINE
  5
1E2C
100
AcDbEntity
  8
SECUNPI
100
AcDbLine
 10
4168.820805
 20
-12148.943283
 30
-3619.667988
 11
4168.820805
 21
-12148.943283
 31
-4019.667988
210
-0.4155648916357901
220
-0.9095635331518817
230
0.0
  0
LINE
  5
1E2D
100
AcDbEntity
  8
SECUNPI
100
AcDbLine
 10
4378.958684
 20
-12148.642526
 30
-3619.667988
 11
4378.958684
 21
-12148.642526
 31
-3988.977751
210
-0.4155648916357901
220
-0.9095635331518817
230
0.0
  0
LINE
  5
1E2E
100
AcDbEntity
  8
SECUNPI
100
AcDbLine
 10
3958.682926
 20
-12149.244041
 30
-4019.667988
 11
3958.682926
 21
-12149.244041
 31
-4288.894078
210
-0.4155648916357901
220
-0.9095635331518817
230
0.0
  0
LINE
  5
1E2F
100
AcDbEntity
  8
SECUNPI
100
AcDbLine
 10
3958.682926
 20
-12149.244041
 30
-3619.667988
 11
3958.682926
 21
-12149.244041
 31
-4019.667988
210
-0.4155648916357901
220
-0.9095635331518817
230
0.0
  0
LINE
  5
1E30
100
AcDbEntity
  8
SECUNVI
100
AcDbLine
 10
4168.820805
 20
-12148.943283
 30
-4019.667988
 11
3958.682926
 21
-12149.244041
 31
-4019.667988
210
-0.4155648916357901
220
-0.9095635331518817
230
0.0
  0
LINE
  5
1E31
100
AcDbEntity
  8
SECUNVI
100
AcDbLine
 10
4334.392016
 20
-12148.706312
 30
-4019.667988
 11
4168.820805
 21
-12148.943283
 31
-4019.667988
210
-0.4155648916357901
220
-0.9095635331518817
230
0.0
  0
LINE
  5
1E32
100
AcDbEntity
  8
SECUNVI
100
AcDbLine
 10
3958.682926
 20
-12149.244041
 30
-4019.667988
 11
3748.545047
 21
-12149.544798
 31
-4019.667988
210
-0.4155648916357901
220
-0.9095635331518817
230
0.0
  0
LINE
  5
1E33
100
AcDbEntity
  8
SECUNPI
100
AcDbLine
 10
4168.820805
 20
-12148.943283
 30
-3219.667988
 11
4168.820805
 21
-12148.943283
 31
-3619.667988
210
-0.4155648916357901
220
-0.9095635331518817
230
0.0
  0
LINE
  5
1E34
100
AcDbEntity
  8
SECUNPI
100
AcDbLine
 10
4168.820805
 20
-12148.943283
 30
-2987.36293
 11
4168.820805
 21
-12148.943283
 31
-3219.667988
210
-0.4155648916357901
220
-0.9095635331518817
230
0.0
  0
LINE
  5
1E35
100
AcDbEntity
  8
SECUNPI
100
AcDbLine
 10
4378.958684
 20
-12148.642526
 30
-3219.667988
 11
4378.958684
 21
-12148.642526
 31
-3619.667988
210
-0.4155648916357901
220
-0.9095635331518817
230
0.0
  0
LINE
  5
1E36
100
AcDbEntity
  8
SECUNPI
100
AcDbLine
 10
4378.958684
 20
-12148.642526
 30
-2885.882755
 11
4378.958684
 21
-12148.642526
 31
-3219.667988
210
-0.4155648916357901
220
-0.9095635331518817
230
0.0
  0
LINE
  5
1E37
100
AcDbEntity
  8
SECUNPI
100
AcDbLine
 10
3958.682926
 20
-12149.244041
 30
-3219.667988
 11
3958.682926
 21
-12149.244041
 31
-3619.667988
210
-0.4155648916357901
220
-0.9095635331518817
230
0.0
  0
LINE
  5
1E38
100
AcDbEntity
  8
SECUNPI
100
AcDbLine
 10
3958.682926
 20
-12149.244041
 30
-3150.45394
 11
3958.682926
 21
-12149.244041
 31
-3219.667988
210
-0.4155648916357901
220
-0.9095635331518817
230
0.0
  0
LINE
  5
1E39
100
AcDbEntity
  8
SECUNVI
100
AcDbLine
 10
4589.096562
 20
-12148.341769
 30
-3219.667988
 11
4378.958684
 21
-12148.642526
 31
-3219.667988
210
-0.4155648916357901
220
-0.9095635331518817
230
0.0
  0
LINE
  5
1E3A
100
AcDbEntity
  8
SECUNVI
100
AcDbLine
 10
4168.820805
 20
-12148.943283
 30
-3219.667988
 11
3958.682926
 21
-12149.244041
 31
-3219.667988
210
-0.4155648916357901
220
-0.9095635331518817
230
0.0
  0
LINE
  5
1E3B
100
AcDbEntity
  8
SECUNVI
100
AcDbLine
 10
3958.682926
 20
-12149.244041
 30
-3219.667988
 11
3903.316619
 21
-12149.323283
 31
-3219.667988
210
-0.4155648916357901
220
-0.9095635331518817
230
0.0
  0
LINE
  5
1E3C
100
AcDbEntity
  8
VB_AUXB
100
AcDbLine
 10
3024.489606
 20
-12093.489378
 30
-4819.667988
 11
3115.549218
 21
-12100.539093
 31
-4819.667988
210
-0.4155648916357901
220
-0.9095635331518817
230
0.0
  0
LINE
  5
1E3D
100
AcDbEntity
  8
VIGASN
100
AcDbLine
 10
3389.59472
 20
-12121.755336
 30
-4419.667988
 11
3748.545047
 21
-12149.544798
 31
-4419.667988
210
-0.4155648916357901
220
-0.9095635331518817
230
0.0
  0
LINE
  5
1E3E
100
AcDbEntity
  8
SECUNPI
100
AcDbLine
 10
3337.921274
 20
-12117.754845
 30
-4583.479581
 11
3337.921274
 21
-12117.754845
 31
-4793.825835
210
-0.4155648916357901
220
-0.9095635331518817
230
0.0
  0
LINE
  5
1E3F
100
AcDbEntity
  8
SECUNPI
100
AcDbLine
 10
3132.609387
 20
-12101.859869
 30
-4921.717561
 11
3132.609387
 21
-12101.859869
 31
-4962.623249
210
-0.4155648916357901
220
-0.9095635331518817
230
0.0
  0
LINE
  5
1E40
100
AcDbEntity
  8
SECUNPI
100
AcDbLine
 10
3543.233161
 20
-12133.649821
 30
-4419.667988
 11
3543.233161
 21
-12133.649821
 31
-4625.646443
210
-0.4155648916357901
220
-0.9095635331518817
230
0.0
  0
LINE
  5
1E41
100
AcDbEntity
  8
SECUNPI
100
AcDbLine
 10
3543.233161
 20
-12133.649821
 30
-4019.667988
 11
3543.233161
 21
-12133.649821
 31
-4419.667988
210
-0.4155648916357901
220
-0.9095635331518817
230
0.0
  0
LINE
  5
1E42
100
AcDbEntity
  8
SECUNPI
100
AcDbLine
 10
3543.233161
 20
-12133.649821
 30
-3932.614008
 11
3543.233161
 21
-12133.649821
 31
-4019.667988
210
-0.4155648916357901
220
-0.9095635331518817
230
0.0
  0
LINE
  5
1E43
100
AcDbEntity
  8
SECUNVI
100
AcDbLine
 10
3543.233161
 20
-12133.649821
 30
-4019.667988
 11
3748.545047
 21
-12149.544798
 31
-4019.667988
210
-0.4155648916357901
220
-0.9095635331518817
230
0.0
  0
LINE
  5
1E44
100
AcDbEntity
  8
VB_AUXB
100
AcDbLine
 10
3374.999592
 20
-12120.6254
 30
-4019.667988
 11
3515.772472
 21
-12131.523851
 31
-4019.667988
210
-0.4155648916357901
220
-0.9095635331518817
230
0.0
  0
LINE
  5
1E45
100
AcDbEntity
  8
VB_AUXB
100
AcDbLine
 10
3507.854981
 20
-12130.910889
 30
-3619.667988
 11
3543.233161
 21
-12133.649821
 31
-3619.667988
210
-0.4155648916357901
220
-0.9095635331518817
230
0.0
  0
LINE
  5
1E46
100
AcDbEntity
  8
VB_VOL
100
AcDbLine
 10
4549.118085
 20
-12275.724983
 30
-2826.673632
 11
4589.096562
 21
-12148.341769
 31
-2826.673632
  0
LINE
  5
1E47
100
AcDbEntity
  8
SECUNVOL
100
AcDbLine
 10
4565.86877
 20
-12222.352361
 30
-3855.614927
 11
4589.096562
 21
-12148.341769
 31
-3855.614927
  0
LINE
  5
1E48
100
AcDbEntity
  8
SECUNPE
100
AcDbLine
 10
4565.86877
 20
-12222.352361
 30
-3855.614927
 11
4562.027664
 21
-12234.591259
 31
-3619.667988
  0
LINE
  5
1E49
100
AcDbEntity
  8
SECUNVOL
100
AcDbLine
 10
4555.51585
 20
-12255.339817
 30
-3219.667988
 11
4589.096562
 21
-12148.341769
 31
-3219.667988
  0
LINE
  5
1E4A
100
AcDbEntity
  8
SECUNVOL
100
AcDbLine
 10
4562.027664
 20
-12234.591259
 30
-3619.667988
 11
4589.096562
 21
-12148.341769
 31
-3619.667988
  0
LINE
  5
1E4B
100
AcDbEntity
  8
SECUNVOL
100
AcDbLine
 10
5823.616048
 20
-12236.643967
 30
-3366.351802
 11
5851.572162
 21
-12147.567545
 31
-3366.351802
  0
LINE
  5
1E4C
100
AcDbEntity
  8
SECUNVOL
100
AcDbLine
 10
7097.106771
 20
-12191.426982
 30
-3353.297627
 11
7117.169462
 21
-12127.501334
 31
-3353.297627
  0
LINE
  5
1E4D
100
AcDbEntity
  8
VB_VOL
100
AcDbLine
 10
5822.563084
 20
-12239.999019
 30
-2969.891338
 11
5851.572162
 21
-12147.567545
 31
-2969.891338
  0
LINE
  5
1E4E
100
AcDbEntity
  8
SECUNPE
100
AcDbLine
 10
5823.226469
 20
-12237.885281
 30
-3219.667988
 11
5822.563084
 21
-12239.999019
 31
-2969.891338
  0
LINE
  5
1E4F
100
AcDbEntity
  8
SECUNVOL
100
AcDbLine
 10
5823.226469
 20
-12237.885281
 30
-3219.667988
 11
5851.572162
 21
-12147.567545
 31
-3219.667988
  0
LINE
  5
1E50
100
AcDbEntity
  8
VB_VOL
100
AcDbLine
 10
7097.106771
 20
-12191.426982
 30
-3305.52766
 11
7117.169462
 21
-12127.501334
 31
-3305.52766
  0
LINE
  5
1E51
100
AcDbEntity
  8
VB_VOL
100
AcDbLine
 10
3927.180221
 20
-12249.620946
 30
-3150.45394
 11
3958.682926
 21
-12149.244041
 31
-3150.45394
  0
LINE
  5
1E52
100
AcDbEntity
  8
VB_VOL
100
AcDbLine
 10
3724.376174
 20
-12226.553954
 30
-3413.149683
 11
3748.545047
 21
-12149.544798
 31
-3413.149683
  0
LINE
  5
1E53
100
AcDbEntity
  8
VB_VOL
100
AcDbLine
 10
4339.008932
 20
-12275.934213
 30
-2885.882755
 11
4378.958684
 21
-12148.642526
 31
-2885.882755
  0
LINE
  5
1E54
100
AcDbEntity
  8
VB_VOL
100
AcDbLine
 10
4129.841635
 20
-12273.142408
 30
-2827.961754
 11
4168.820805
 21
-12148.943283
 31
-2827.961754
  0
LINE
  5
1E55
100
AcDbEntity
  8
VB_VOL
100
AcDbLine
 10
4760.171794
 20
-12275.462805
 30
-2806.419115
 11
4799.927659
 21
-12148.7889
 31
-2806.419115
  0
LINE
  5
1E56
100
AcDbEntity
  8
VB_VOL
100
AcDbLine
 10
4973.202133
 20
-12268.902501
 30
-2816.147468
 11
5010.758756
 21
-12149.236031
 31
-2816.147468
  0
LINE
  5
1E57
100
AcDbEntity
  8
VB_VOL
100
AcDbLine
 10
5186.542938
 20
-12261.352963
 30
-2843.625007
 11
5221.589852
 21
-12149.683161
 31
-2843.625007
  0
LINE
  5
1E58
100
AcDbEntity
  8
VB_VOL
100
AcDbLine
 10
5399.811891
 20
-12254.032363
 30
-2880.445032
 11
5432.420949
 21
-12150.130292
 31
-2880.445032
  0
LINE
  5
1E59
100
AcDbEntity
  8
VB_VOL
100
AcDbLine
 10
5610.886554
 20
-12247.974554
 30
-2922.293682
 11
5641.996556
 21
-12148.848918
 31
-2922.293682
  0
LINE
  5
1E5A
100
AcDbEntity
  8
VB_VOL
100
AcDbLine
 10
6033.982274
 20
-12232.843447
 30
-3025.123051
 11
6061.147768
 21
-12146.286172
 31
-3025.123051
  0
LINE
  5
1E5B
100
AcDbEntity
  8
VB_VOL
100
AcDbLine
 10
6246.091664
 20
-12223.488689
 30
-3080.652992
 11
6270.723375
 21
-12145.004798
 31
-3080.652992
  0
LINE
  5
1E5C
100
AcDbEntity
  8
VB_VOL
100
AcDbLine
 10
6458.438877
 20
-12216.768694
 30
-3136.909063
 11
6482.334897
 21
-12140.628932
 31
-3136.909063
  0
LINE
  5
1E5D
100
AcDbEntity
  8
VB_VOL
100
AcDbLine
 10
6671.328175
 20
-12208.321456
 30
-3193.165134
 11
6693.946418
 21
-12136.253066
 31
-3193.165134
  0
LINE
  5
1E5F
100
AcDbEntity
  8
VB_VOL
100
AcDbLine
 10
7311.875766
 20
-12176.91349
 30
-3359.542727
 11
7331.599724
 21
-12114.067145
 31
-3359.542727
  0
LINE
  5
1E60
100
AcDbEntity
  8
VB_VOL
100
AcDbLine
 10
3520.727779
 20
-12205.358602
 30
-3513.151632
 11
3543.233161
 21
-12133.649821
 31
-3513.151632
  0
LINE
  5
1E61
100
AcDbEntity
  8
VB_VOL
100
AcDbLine
 10
3317.098552
 20
-12184.102177
 30
-4131.303106
 11
3337.921274
 21
-12117.754845
 31
-4131.303106
  0
LINE
  5
1E62
100
AcDbEntity
  8
VB_VOL
100
AcDbLine
 10
3368.364013
 20
-12189.402626
 30
-4419.667988
 11
3389.59472
 21
-12121.755336
 31
-4419.667988
  0
LINE
  5
1E67
100
AcDbEntity
  8
VB_VOL
100
AcDbLine
 10
7526.306028
 20
-12163.4793
 30
-3413.557794
 11
7546.029986
 21
-12100.632955
 31
-3413.557794
  0
LINE
  5
1E68
100
AcDbEntity
  8
VB_VOL
100
AcDbLine
 10
7740.73629
 20
-12150.04511
 30
-3467.572862
 11
7760.460248
 21
-12087.198765
 31
-3467.572862
  0
LINE
  5
1E69
100
AcDbEntity
  8
VB_VOL
100
AcDbLine
 10
7955.166552
 20
-12136.610921
 30
-3521.516105
 11
7974.89051
 21
-12073.764576
 31
-3521.516105
  0
LINE
  5
1E6A
100
AcDbEntity
  8
SECUNVOL
100
AcDbLine
 10
6458.438877
 20
-12216.768694
 30
-3308.687014
 11
6482.334897
 21
-12140.628932
 31
-3308.687014
  0
LINE
  5
1E6B
100
AcDbEntity
  8
SECUNVOL
100
AcDbLine
 10
6671.328175
 20
-12208.321456
 30
-3312.087042
 11
6693.946418
 21
-12136.253066
 31
-3312.087042
  0
LINE
  5
1E6C
100
AcDbEntity
  8
SECUNVOL
100
AcDbLine
 10
6885.584566
 20
-12195.51826
 30
-3326.106102
 11
6905.55794
 21
-12131.8772
 31
-3326.106102
  0
LINE
  5
1E6D
100
AcDbEntity
  8
SECUNVOL
100
AcDbLine
 10
6033.792775
 20
-12233.447243
 30
-3336.001804
 11
6061.147768
 21
-12146.286172
 31
-3336.001804
  0
LINE
  5
1E6E
100
AcDbEntity
  8
SECUNVOL
100
AcDbLine
 10
4775.986109
 20
-12225.073737
 30
-3745.984607
 11
4799.927659
 21
-12148.7889
 31
-3745.984607
  0
LINE
  5
1E6F
100
AcDbEntity
  8
SECUNVOL
100
AcDbLine
 10
4986.106811
 20
-12227.784394
 30
-3643.546684
 11
5010.758756
 21
-12149.236031
 31
-3643.546684
  0
LINE
  5
1E70
100
AcDbEntity
  8
SECUNVOL
100
AcDbLine
 10
5195.579254
 20
-12232.560594
 30
-3553.449624
 11
5221.589852
 21
-12149.683161
 31
-3553.449624
  0
LINE
  5
1E71
100
AcDbEntity
  8
SECUNVOL
100
AcDbLine
 10
5405.409724
 20
-12236.196017
 30
-3484.577174
 11
5432.420949
 21
-12150.130292
 31
-3484.577174
  0
LINE
  5
1E72
100
AcDbEntity
  8
SECUNVOL
100
AcDbLine
 10
5613.43932
 20
-12239.84069
 30
-3416.114857
 11
5641.996556
 21
-12148.848918
 31
-3416.114857
  0
LINE
  5
1E73
100
AcDbEntity
  8
SECUNVOL
100
AcDbLine
 10
4355.799569
 20
-12222.434291
 30
-3988.977751
 11
4378.958684
 21
-12148.642526
 31
-3988.977751
  0
LINE
  5
1E74
100
AcDbEntity
  8
SECUNVOL
100
AcDbLine
 10
4311.289813
 20
-12222.31674
 30
-4019.667988
 11
4334.392016
 21
-12148.706312
 31
-4019.667988
  0
LINE
  5
1E75
100
AcDbEntity
  8
SECUNVOL
100
AcDbLine
 10
4145.911437
 20
-12221.939282
 30
-4133.686378
 11
4168.820805
 21
-12148.943283
 31
-4133.686378
  0
LINE
  5
1E76
100
AcDbEntity
  8
SECUNVOL
100
AcDbLine
 10
3936.092801
 20
-12221.222839
 30
-4288.894078
 11
3958.682926
 21
-12149.244041
 31
-4288.894078
  0
LINE
  5
1E77
100
AcDbEntity
  8
SECUNVOL
100
AcDbLine
 10
3726.149955
 20
-12220.902165
 30
-4459.22617
 11
3748.545047
 21
-12149.544798
 31
-4459.22617
  0
LINE
  5
1E78
100
AcDbEntity
  8
SECUNVOL
100
AcDbLine
 10
3520.820769
 20
-12205.062307
 30
-4625.646443
 11
3543.233161
 21
-12133.649821
 31
-4625.646443
  0
LINE
  5
1E79
100
AcDbEntity
  8
SECUNVOL
100
AcDbLine
 10
3285.918064
 20
-12180.866184
 30
-4819.667988
 11
3306.488913
 21
-12115.321393
 31
-4819.667988
  0
LINE
  5
1E7A
100
AcDbEntity
  8
SECUNPE
100
AcDbLine
 10
4350.178162
 20
-12240.345753
 30
-3619.667988
 11
4355.799569
 21
-12222.434291
 31
-3988.977751
  0
LINE
  5
1E7B
100
AcDbEntity
  8
SECUNPE
100
AcDbLine
 10
4139.585315
 20
-12242.096172
 30
-3619.667988
 11
4144.508191
 21
-12226.410438
 31
-4019.667988
  0
LINE
  5
1E7C
100
AcDbEntity
  8
SECUNPE
100
AcDbLine
 10
3725.404617
 20
-12223.277029
 30
-4019.667988
 11
3726.082878
 21
-12221.115891
 31
-4419.667988
  0
LINE
  5
1E7D
100
AcDbEntity
  8
SECUNPE
100
AcDbLine
 10
3520.770117
 20
-12205.223699
 30
-4019.667988
 11
3520.803552
 21
-12205.117166
 31
-4419.667988
  0
LINE
  5
1E7E
100
AcDbEntity
  8
SECUNVOL
100
AcDbLine
 10
3317.098552
 20
-12184.102177
 30
-4793.825835
 11
3337.921274
 21
-12117.754845
 31
-4793.825835
  0
LINE
  5
1E7F
100
AcDbEntity
  8
SECUNVOL
100
AcDbLine
 10
3113.431865
 20
-12162.965109
 30
-4962.623249
 11
3132.609387
 21
-12101.859869
 31
-4962.623249
  0
LINE
  5
1E80
100
AcDbEntity
  8
SECUNPE
100
AcDbLine
 10
3317.098552
 20
-12184.102177
 30
-4793.825835
 11
3317.098552
 21
-12184.102177
 31
-4583.479581
  0
LINE
  5
1E81
100
AcDbEntity
  8
SECUNPE
100
AcDbLine
 10
3113.431865
 20
-12162.965109
 30
-4962.623249
 11
3113.431865
 21
-12162.965109
 31
-4921.717561
  0
LINE
  5
1E82
100
AcDbEntity
  8
SECUNPE
100
AcDbLine
 10
4775.986109
 20
-12225.073737
 30
-3745.984607
 11
4773.860008
 21
-12231.84812
 31
-3619.667988
210
-0.4155648916357901
220
-0.9095635331518817
230
0.0
  0
LINE
  5
1E83
100
AcDbEntity
  8
SECUNPE
100
AcDbLine
 10
4986.106811
 20
-12227.784394
 30
-3643.546684
 11
4985.734382
 21
-12228.971061
 31
-3619.667988
210
-0.4155648916357901
220
-0.9095635331518817
230
0.0
  0
LINE
  5
1E84
100
AcDbEntity
  8
SECUNPE
100
AcDbLine
 10
5195.579254
 20
-12232.560594
 30
-3553.449624
 11
5191.330097
 21
-12246.099663
 31
-3219.667988
210
-0.4155648916357901
220
-0.9095635331518817
230
0.0
  0
LINE
  5
1E85
100
AcDbEntity
  8
SECUNPE
100
AcDbLine
 10
5402.9551
 20
-12244.017173
 30
-3219.667988
 11
5399.811891
 21
-12254.032363
 31
-2880.445032
210
-0.4155648916357901
220
-0.9095635331518817
230
0.0
  0
LINE
  5
1E86
100
AcDbEntity
  8
SECUNPE
100
AcDbLine
 10
5612.423805
 20
-12243.07642
 30
-3219.667988
 11
5610.886554
 21
-12247.974554
 31
-2922.293682
210
-0.4155648916357901
220
-0.9095635331518817
230
0.0
  0
LINE
  5
1E87
100
AcDbEntity
  8
SECUNPE
100
AcDbLine
 10
6033.792775
 20
-12233.447243
 30
-3336.001804
 11
6033.863687
 21
-12233.221297
 31
-3219.667988
210
-0.4155648916357901
220
-0.9095635331518817
230
0.0
  0
LINE
  5
1E88
100
AcDbEntity
  8
SECUNVOL
100
AcDbLine
 10
4767.1274
 20
-12253.300193
 30
-3219.667988
 11
4799.927659
 21
-12148.7889
 31
-3219.667988
  0
LINE
  5
1E89
100
AcDbEntity
  8
SECUNVOL
100
AcDbLine
 10
4773.860008
 20
-12231.84812
 30
-3619.667988
 11
4799.927659
 21
-12148.7889
 31
-3619.667988
  0
LINE
  5
1E8A
100
AcDbEntity
  8
SECUNVOL
100
AcDbLine
 10
4979.495712
 20
-12248.849303
 30
-3219.667988
 11
5010.758756
 21
-12149.236031
 31
-3219.667988
  0
LINE
  5
1E8B
100
AcDbEntity
  8
SECUNVOL
100
AcDbLine
 10
5191.330097
 20
-12246.099663
 30
-3219.667988
 11
5221.589852
 21
-12149.683161
 31
-3219.667988
  0
LINE
  5
1E8C
100
AcDbEntity
  8
SECUNVOL
100
AcDbLine
 10
5402.9551
 20
-12244.017173
 30
-3219.667988
 11
5432.420949
 21
-12150.130292
 31
-3219.667988
  0
LINE
  5
1E8D
100
AcDbEntity
  8
SECUNVOL
100
AcDbLine
 10
5612.423805
 20
-12243.07642
 30
-3219.667988
 11
5641.996556
 21
-12148.848918
 31
-3219.667988
  0
LINE
  5
1E8E
100
AcDbEntity
  8
SECUNVOL
100
AcDbLine
 10
6033.863687
 20
-12233.221297
 30
-3219.667988
 11
6061.147768
 21
-12146.286172
 31
-3219.667988
  0
LINE
  5
1E8F
100
AcDbEntity
  8
SECUNVOL
100
AcDbLine
 10
6246.091664
 20
-12223.488689
 30
-3219.667988
 11
6270.723375
 21
-12145.004798
 31
-3219.667988
  0
LINE
  5
1E90
100
AcDbEntity
  8
SECUNVOL
100
AcDbLine
 10
6458.438877
 20
-12216.768694
 30
-3219.667988
 11
6482.334897
 21
-12140.628932
 31
-3219.667988
  0
LINE
  5
1E91
100
AcDbEntity
  8
SECUNVOL
100
AcDbLine
 10
6671.328175
 20
-12208.321456
 30
-3219.667988
 11
6693.946418
 21
-12136.253066
 31
-3219.667988
  0
LINE
  5
1E92
100
AcDbEntity
  8
SECUNPE
100
AcDbLine
 10
3933.985093
 20
-12227.938617
 30
-4019.667988
 11
3930.853587
 21
-12237.916518
 31
-3619.667988
210
0.4155648916357901
220
0.9095635331518817
230
0.0
  0
LINE
  5
1E93
100
AcDbEntity
  8
SECUNPE
100
AcDbLine
 10
6034.10751
 20
-12232.444406
 30
-2819.667988
 11
6034.183156
 21
-12232.203377
 31
-2695.568612
210
0.4155648916357901
220
0.9095635331518817
230
0.0
  0
LINE
  5
1E95
100
AcDbEntity
  8
SECUNPE
100
AcDbLine
 10
5822.208468
 20
-12241.128929
 30
-2819.667988
 11
5821.696353
 21
-12242.760678
 31
-2643.551059
210
0.4155648916357901
220
0.9095635331518817
230
0.0
  0
LINE
  5
1E96
100
AcDbEntity
  8
SECUNVOL
100
AcDbLine
 10
6246.091664
 20
-12223.488689
 30
-3322.410426
 11
6270.723375
 21
-12145.004798
 31
-3322.410426
  0
LINE
  5
1E97
100
AcDbEntity
  8
SECUNPE
100
AcDbLine
 10
6246.091664
 20
-12223.488689
 30
-3219.667988
 11
6246.091664
 21
-12223.488689
 31
-3080.652992
210
0.4155648916357901
220
0.9095635331518817
230
0.0
  0
LINE
  5
1E98
100
AcDbEntity
  8
SECUNVE
100
AcDbLine
 10
6034.10751
 20
-12232.444406
 30
-2819.667988
 11
6246.091664
 21
-12223.488689
 31
-2819.667988
210
0.4155648916357901
220
0.9095635331518817
230
0.0
  0
LINE
  5
1E9A
100
AcDbEntity
  8
SECUNPE
100
AcDbLine
 10
5610.166602
 20
-12250.268533
 30
-2783.022212
 11
5609.209551
 21
-12253.317979
 31
-2597.884969
210
0.4155648916357901
220
0.9095635331518817
230
0.0
  0
LINE
  5
1E9B
100
AcDbEntity
  8
SECUNVE
100
AcDbLine
 10
5610.356039
 20
-12249.66493
 30
-2819.667988
 11
5399.248737
 21
-12255.826739
 31
-2819.667988
210
0.4155648916357901
220
0.9095635331518817
230
0.0
  0
LINE
  5
1E9C
100
AcDbEntity
  8
SECUNPE
100
AcDbLine
 10
5398.52639
 20
-12258.12835
 30
-2741.710485
 11
5396.761767
 21
-12263.750957
 31
-2551.268035
210
0.4155648916357901
220
0.9095635331518817
230
0.0
  0
LINE
  5
1E9D
100
AcDbEntity
  8
SECUNVE
100
AcDbLine
 10
5399.248737
 20
-12255.826739
 30
-2819.667988
 11
5186.237956
 21
-12262.324724
 31
-2819.667988
210
0.4155648916357901
220
0.9095635331518817
230
0.0
  0
LINE
  5
1E9E
100
AcDbEntity
  8
SECUNPE
100
AcDbLine
 10
5184.790288
 20
-12266.937421
 30
-2705.950142
 11
5182.454141
 21
-12274.381075
 31
-2522.440095
210
0.4155648916357901
220
0.9095635331518817
230
0.0
  0
LINE
  5
1E9F
100
AcDbEntity
  8
SECUNVE
100
AcDbLine
 10
5186.237956
 20
-12262.324724
 30
-2819.667988
 11
4973.257042
 21
-12268.727546
 31
-2819.667988
210
0.4155648916357901
220
0.9095635331518817
230
0.0
  0
LINE
  5
1EA1
100
AcDbEntity
  8
SECUNVE
100
AcDbLine
 10
4973.257042
 20
-12268.727546
 30
-2819.667988
 11
4760.394793
 21
-12274.752266
 31
-2819.667988
210
0.4155648916357901
220
0.9095635331518817
230
0.0
  0
LINE
  5
1EA2
100
AcDbEntity
  8
SECUNPE
100
AcDbLine
 10
4757.882055
 20
-12282.75859
 30
-2670.380331
 11
4754.816964
 21
-12292.524871
 31
-2488.276141
210
0.4155648916357901
220
0.9095635331518817
230
0.0
  0
LINE
  5
1EA3
100
AcDbEntity
  8
SECUNPE
100
AcDbLine
 10
4546.862237
 20
-12282.91278
 30
-2688.10406
 11
4543.7835
 21
-12292.722543
 31
-2498.987063
210
0.4155648916357901
220
0.9095635331518817
230
0.0
  0
LINE
  5
1EA4
100
AcDbEntity
  8
SECUNPE2
100
AcDbLine
 10
4336.806397
 20
-12282.952138
 30
-2741.18277
 11
4333.815502
 21
-12292.482011
 31
-2544.689845
210
0.4155648916357901
220
0.9095635331518817
230
0.0
  0
LINE
  5
1EA5
100
AcDbEntity
  8
SECUNVE2
100
AcDbLine
 10
4338.001051
 20
-12279.145618
 30
-2819.667988
 11
4129.739562
 21
-12273.467642
 31
-2819.667988
210
0.4155648916357901
220
0.9095635331518817
230
0.0
  0
LINE
  5
1EA6
100
AcDbEntity
  8
SECUNPE2
100
AcDbLine
 10
4129.739562
 20
-12273.467642
 30
-2819.667988
 11
4127.275136
 21
-12281.320031
 31
-2619.425174
210
0.4155648916357901
220
0.9095635331518817
230
0.0
  0
LINE
  5
1EA7
100
AcDbEntity
  8
SECUNVE2
100
AcDbLine
 10
3924.590576
 20
-12257.872319
 30
-2819.667988
 11
3816.543649
 21
-12243.507448
 31
-2819.667988
210
0.4155648916357901
220
0.9095635331518817
230
0.0
  0
LINE
  5
1EA8
100
AcDbEntity
  8
SECUNPE2
100
AcDbLine
 10
3924.590576
 20
-12257.872319
 30
-2819.667988
 11
3923.95102
 21
-12259.910133
 31
-2737.974878
210
0.4155648916357901
220
0.9095635331518817
230
0.0
  0
LINE
  5
1EA9
100
AcDbEntity
  8
SECUNPE
100
AcDbLine
 10
4549.118085
 20
-12275.724983
 30
-2826.673632
 11
4555.51585
 21
-12255.339817
 31
-3219.667988
210
0.4155648916357901
220
0.9095635331518817
230
0.0
  0
LINE
  5
1EAA
100
AcDbEntity
  8
SECUNPE
100
AcDbLine
 10
4555.51585
 20
-12255.339817
 30
-3219.667988
 11
4562.027664
 21
-12234.591259
 31
-3619.667988
210
0.4155648916357901
220
0.9095635331518817
230
0.0
  0
LINE
  5
1EAB
100
AcDbEntity
  8
SECUNPE
100
AcDbLine
 10
4760.316681
 20
-12275.001154
 30
-2815.027175
 11
4760.394793
 21
-12274.752266
 31
-2819.667988
210
0.4155648916357901
220
0.9095635331518817
230
0.0
  0
LINE
  5
1EAC
100
AcDbEntity
  8
SECUNPE
100
AcDbLine
 10
4760.171794
 20
-12275.462805
 30
-2806.419115
 11
4767.1274
 21
-12253.300193
 31
-3219.667988
210
0.4155648916357901
220
0.9095635331518817
230
0.0
  0
LINE
  5
1EAD
100
AcDbEntity
  8
SECUNPE
100
AcDbLine
 10
4767.1274
 20
-12253.300193
 30
-3219.667988
 11
4773.860008
 21
-12231.84812
 31
-3619.667988
210
0.4155648916357901
220
0.9095635331518817
230
0.0
  0
LINE
  5
1EAE
100
AcDbEntity
  8
SECUNPE
100
AcDbLine
 10
4973.257042
 20
-12268.727546
 30
-2819.667988
 11
4973.328362
 21
-12268.500299
 31
-2824.240779
210
0.4155648916357901
220
0.9095635331518817
230
0.0
  0
LINE
  5
1EAF
100
AcDbEntity
  8
SECUNPE
100
AcDbLine
 10
4973.257042
 20
-12268.727546
 30
-2819.667988
 11
4979.495712
 21
-12248.849303
 31
-3219.667988
210
0.4155648916357901
220
0.9095635331518817
230
0.0
  0
LINE
  5
1EB0
100
AcDbEntity
  8
SECUNPE
100
AcDbLine
 10
5186.542938
 20
-12261.352963
 30
-2843.625007
 11
5191.330097
 21
-12246.099663
 31
-3219.667988
210
0.4155648916357901
220
0.9095635331518817
230
0.0
  0
LINE
  5
1EB1
100
AcDbEntity
  8
SECUNPE
100
AcDbLine
 10
5402.9551
 20
-12244.017173
 30
-3219.667988
 11
5405.409724
 21
-12236.196017
 31
-3484.577174
210
0.4155648916357901
220
0.9095635331518817
230
0.0
  0
LINE
  5
1EB2
100
AcDbEntity
  8
SECUNPE
100
AcDbLine
 10
5612.423805
 20
-12243.07642
 30
-3219.667988
 11
5613.43932
 21
-12239.84069
 31
-3416.114857
210
0.4155648916357901
220
0.9095635331518817
230
0.0
  0
LINE
  5
1EB3
100
AcDbEntity
  8
SECUNPE
100
AcDbLine
 10
5823.226469
 20
-12237.885281
 30
-3219.667988
 11
5823.616048
 21
-12236.643967
 31
-3366.351802
210
0.4155648916357901
220
0.9095635331518817
230
0.0
  0
LINE
  5
1EB4
100
AcDbEntity
  8
SECUNPE
100
AcDbLine
 10
5822.563084
 20
-12239.999019
 30
-2969.891338
 11
5822.191195
 21
-12241.183969
 31
-2829.86799
210
0.4155648916357901
220
0.9095635331518817
230
0.0
  0
LINE
  5
1EB5
100
AcDbEntity
  8
SECUNPE
100
AcDbLine
 10
6034.10751
 20
-12232.444406
 30
-2819.667988
 11
6034.068351
 21
-12232.56918
 31
-2883.910331
210
0.4155648916357901
220
0.9095635331518817
230
0.0
  0
LINE
  5
1EB6
100
AcDbEntity
  8
SECUNPE
100
AcDbLine
 10
6246.091664
 20
-12223.488689
 30
-2819.667988
 11
6246.091664
 21
-12223.488689
 31
-2939.340573
210
0.4155648916357901
220
0.9095635331518817
230
0.0
  0
LINE
  5
1EB7
100
AcDbEntity
  8
SECUNPE
100
AcDbLine
 10
6246.091664
 20
-12223.488689
 30
-3219.667988
 11
6246.091664
 21
-12223.488689
 31
-3322.410426
210
0.4155648916357901
220
0.9095635331518817
230
0.0
  0
LINE
  5
1EB8
100
AcDbEntity
  8
SECUNVOL
100
AcDbLine
 10
4344.089606
 20
-12259.745685
 30
-3219.667988
 11
4378.958684
 21
-12148.642526
 31
-3219.667988
  0
LINE
  5
1EB9
100
AcDbEntity
  8
SECUNVOL
100
AcDbLine
 10
4350.178162
 20
-12240.345753
 30
-3619.667988
 11
4378.958684
 21
-12148.642526
 31
-3619.667988
  0
LINE
  5
1EBA
100
AcDbEntity
  8
SECUNVOL
100
AcDbLine
 10
4139.585315
 20
-12242.096172
 30
-3619.667988
 11
4168.820805
 21
-12148.943283
 31
-3619.667988
  0
LINE
  5
1EBB
100
AcDbEntity
  8
SECUNVOL
100
AcDbLine
 10
4134.662439
 20
-12257.781907
 30
-3219.667988
 11
4168.820805
 21
-12148.943283
 31
-3219.667988
  0
LINE
  5
1EBC
100
AcDbEntity
  8
SECUNVOL
100
AcDbLine
 10
4144.508191
 20
-12226.410438
 30
-4019.667988
 11
4168.820805
 21
-12148.943283
 31
-4019.667988
  0
LINE
  5
1EBD
100
AcDbEntity
  8
SECUNVOL
100
AcDbLine
 10
3933.985093
 20
-12227.938617
 30
-4019.667988
 11
3958.682926
 21
-12149.244041
 31
-4019.667988
  0
LINE
  5
1EBE
100
AcDbEntity
  8
SECUNVOL
100
AcDbLine
 10
3930.853587
 20
-12237.916518
 30
-3619.667988
 11
3958.682926
 21
-12149.244041
 31
-3619.667988
  0
LINE
  5
1EBF
100
AcDbEntity
  8
SECUNVOL
100
AcDbLine
 10
3927.722081
 20
-12247.894418
 30
-3219.667988
 11
3958.682926
 21
-12149.244041
 31
-3219.667988
  0
LINE
  5
1EC0
100
AcDbEntity
  8
SECUNVOL
100
AcDbLine
 10
3724.726357
 20
-12225.438167
 30
-3619.667988
 11
3748.545047
 21
-12149.544798
 31
-3619.667988
  0
LINE
  5
1EC1
100
AcDbEntity
  8
SECUNVOL
100
AcDbLine
 10
3725.404617
 20
-12223.277029
 30
-4019.667988
 11
3748.545047
 21
-12149.544798
 31
-4019.667988
  0
LINE
  5
1EC2
100
AcDbEntity
  8
SECUNVOL
100
AcDbLine
 10
3520.770117
 20
-12205.223699
 30
-4019.667988
 11
3543.233161
 21
-12133.649821
 31
-4019.667988
  0
LINE
  5
1EC3
100
AcDbEntity
  8
SECUNVOL
100
AcDbLine
 10
3520.803552
 20
-12205.117166
 30
-4419.667988
 11
3543.233161
 21
-12133.649821
 31
-4419.667988
  0
LINE
  5
1EC4
100
AcDbEntity
  8
VB_VOL
100
AcDbLine
 10
2908.119978
 20
-12147.070133
 30
-5142.605925
 11
2927.297501
 21
-12085.964893
 31
-5142.605925
  0
LINE
  5
1EC5
100
AcDbEntity
  8
SECUNPE
100
AcDbLine
 10
2908.119978
 20
-12147.070133
 30
-5142.605925
 11
2908.119978
 21
-12147.070133
 31
-4948.180762
210
0.4155648916357901
220
0.9095635331518817
230
0.0
  0
LINE
  5
1EC6
100
AcDbEntity
  8
SECUNPE
100
AcDbLine
 10
2908.119978
 20
-12147.070133
 30
-4819.667988
 11
2908.119978
 21
-12147.070133
 31
-4646.23335
210
0.4155648916357901
220
0.9095635331518817
230
0.0
  0
LINE
  5
1EC7
100
AcDbEntity
  8
SECUNPE
100
AcDbLine
 10
3113.431865
 20
-12162.965109
 30
-4676.706036
 11
3113.431865
 21
-12162.965109
 31
-4419.667988
210
0.4155648916357901
220
0.9095635331518817
230
0.0
  0
LINE
  5
1EC8
100
AcDbEntity
  8
SECUNPE
100
AcDbLine
 10
3113.431865
 20
-12162.965109
 30
-4419.667988
 11
3113.431865
 21
-12162.965109
 31
-4153.696806
210
0.4155648916357901
220
0.9095635331518817
230
0.0
  0
LINE
  5
1EC9
100
AcDbEntity
  8
SECUNPE2
100
AcDbLine
 10
3317.098552
 20
-12184.102177
 30
-4131.303106
 11
3317.098552
 21
-12184.102177
 31
-4019.667988
210
0.4155648916357901
220
0.9095635331518817
230
0.0
  0
LINE
  5
1ECA
100
AcDbEntity
  8
SECUNPE2
100
AcDbLine
 10
3317.098552
 20
-12184.102177
 30
-4019.667988
 11
3317.098552
 21
-12184.102177
 31
-3619.667988
210
0.4155648916357901
220
0.9095635331518817
230
0.0
  0
LINE
  5
1ECB
100
AcDbEntity
  8
SECUNPE2
100
AcDbLine
 10
3317.098552
 20
-12184.102177
 30
-3619.667988
 11
3317.098552
 21
-12184.102177
 31
-3519.529931
210
0.4155648916357901
220
0.9095635331518817
230
0.0
  0
LINE
  5
1ECC
100
AcDbEntity
  8
SECUNPE
100
AcDbLine
 10
3520.820769
 20
-12205.062307
 30
-4625.646443
 11
3520.803552
 21
-12205.117166
 31
-4419.667988
210
0.4155648916357901
220
0.9095635331518817
230
0.0
  0
LINE
  5
1ECE
100
AcDbEntity
  8
SECUNPE2
100
AcDbLine
 10
3520.770117
 20
-12205.223699
 30
-4019.667988
 11
3520.762841
 21
-12205.246885
 31
-3932.614008
210
0.4155648916357901
220
0.9095635331518817
230
0.0
  0
LINE
  5
1ECF
100
AcDbEntity
  8
SECUNPE2
100
AcDbLine
 10
3520.727779
 20
-12205.358602
 30
-3513.151632
 11
3520.703248
 21
-12205.436766
 31
-3219.667988
210
0.4155648916357901
220
0.9095635331518817
230
0.0
  0
LINE
  5
1ED0
100
AcDbEntity
  8
SECUNPE2
100
AcDbLine
 10
3520.703248
 20
-12205.436766
 30
-3219.667988
 11
3520.696241
 21
-12205.459092
 31
-3135.840866
210
0.4155648916357901
220
0.9095635331518817
230
0.0
  0
LINE
  5
1ED1
100
AcDbEntity
  8
SECUNPE
100
AcDbLine
 10
3725.404617
 20
-12223.277029
 30
-4019.667988
 11
3724.726357
 21
-12225.438167
 31
-3619.667988
210
0.4155648916357901
220
0.9095635331518817
230
0.0
  0
LINE
  5
1ED2
100
AcDbEntity
  8
SECUNPE2
100
AcDbLine
 10
3724.726357
 20
-12225.438167
 30
-3619.667988
 11
3724.376174
 21
-12226.553954
 31
-3413.149683
210
0.4155648916357901
220
0.9095635331518817
230
0.0
  0
LINE
  5
1ED5
100
AcDbEntity
  8
SECUNPE2
100
AcDbLine
 10
3924.590576
 20
-12257.872319
 30
-2819.667988
 11
3925.740567
 21
-12254.208107
 31
-2966.561105
210
0.4155648916357901
220
0.9095635331518817
230
0.0
  0
LINE
  5
1ED6
100
AcDbEntity
  8
SECUNPE2
100
AcDbLine
 10
3927.180221
 20
-12249.620946
 30
-3150.45394
 11
3927.722081
 21
-12247.894418
 31
-3219.667988
210
0.4155648916357901
220
0.9095635331518817
230
0.0
  0
LINE
  5
1ED7
100
AcDbEntity
  8
SECUNPE
100
AcDbLine
 10
3927.722081
 20
-12247.894418
 30
-3219.667988
 11
3930.853587
 21
-12237.916518
 31
-3619.667988
210
0.4155648916357901
220
0.9095635331518817
230
0.0
  0
LINE
  5
1ED8
100
AcDbEntity
  8
SECUNPE2
100
AcDbLine
 10
4131.803416
 20
-12266.891596
 30
-2987.36293
 11
4134.662439
 21
-12257.781907
 31
-3219.667988
210
0.4155648916357901
220
0.9095635331518817
230
0.0
  0
LINE
  5
1ED9
100
AcDbEntity
  8
SECUNPE
100
AcDbLine
 10
4134.662439
 20
-12257.781907
 30
-3219.667988
 11
4139.585315
 21
-12242.096172
 31
-3619.667988
210
0.4155648916357901
220
0.9095635331518817
230
0.0
  0
LINE
  5
1EDA
100
AcDbEntity
  8
SECUNPE
100
AcDbLine
 10
3933.985093
 20
-12227.938617
 30
-4019.667988
 11
3936.092801
 21
-12221.222839
 31
-4288.894078
210
0.4155648916357901
220
0.9095635331518817
230
0.0
  0
LINE
  5
1EDB
100
AcDbEntity
  8
SECUNPE
100
AcDbLine
 10
4145.911437
 20
-12221.939282
 30
-4133.686378
 11
4144.508191
 21
-12226.410438
 31
-4019.667988
210
0.4155648916357901
220
0.9095635331518817
230
0.0
  0
LINE
  5
1EDC
100
AcDbEntity
  8
SECUNPE
100
AcDbLine
 10
4350.178162
 20
-12240.345753
 30
-3619.667988
 11
4344.089606
 21
-12259.745685
 31
-3219.667988
210
0.4155648916357901
220
0.9095635331518817
230
0.0
  0
LINE
  5
1EDD
100
AcDbEntity
  8
SECUNPE2
100
AcDbLine
 10
4344.089606
 20
-12259.745685
 30
-3219.667988
 11
4339.008932
 21
-12275.934213
 31
-2885.882755
210
0.4155648916357901
220
0.9095635331518817
230
0.0
  0
LINE
  5
1EDF
100
AcDbEntity
  8
SECUNVE2
100
AcDbLine
 10
3520.703248
 20
-12205.436766
 30
-3219.667988
 11
3695.583405
 21
-12224.496941
 31
-3219.667988
210
0.4155648916357901
220
0.9095635331518817
230
0.0
  0
LINE
  5
1EE0
100
AcDbEntity
  8
SECUNVE2
100
AcDbLine
 10
3724.048096
 20
-12227.599305
 30
-3219.667988
 11
3874.058856
 21
-12242.547141
 31
-3219.667988
210
0.4155648916357901
220
0.9095635331518817
230
0.0
  0
LINE
  5
1EE1
100
AcDbEntity
  8
SECUNVE
100
AcDbLine
 10
3927.722081
 20
-12247.894418
 30
-3219.667988
 11
4134.662439
 21
-12257.781907
 31
-3219.667988
210
0.4155648916357901
220
0.9095635331518817
230
0.0
  0
LINE
  5
1EE2
100
AcDbEntity
  8
SECUNVE
100
AcDbLine
 10
4134.662439
 20
-12257.781907
 30
-3219.667988
 11
4344.089606
 21
-12259.745685
 31
-3219.667988
210
0.4155648916357901
220
0.9095635331518817
230
0.0
  0
LINE
  5
1EE3
100
AcDbEntity
  8
SECUNVE
100
AcDbLine
 10
4344.089606
 20
-12259.745685
 30
-3219.667988
 11
4555.51585
 21
-12255.339817
 31
-3219.667988
210
0.4155648916357901
220
0.9095635331518817
230
0.0
  0
LINE
  5
1EE4
100
AcDbEntity
  8
SECUNVE
100
AcDbLine
 10
4555.51585
 20
-12255.339817
 30
-3219.667988
 11
4767.1274
 21
-12253.300193
 31
-3219.667988
210
0.4155648916357901
220
0.9095635331518817
230
0.0
  0
LINE
  5
1EE5
100
AcDbEntity
  8
SECUNVE
100
AcDbLine
 10
4767.1274
 20
-12253.300193
 30
-3219.667988
 11
4979.495712
 21
-12248.849303
 31
-3219.667988
210
0.4155648916357901
220
0.9095635331518817
230
0.0
  0
LINE
  5
1EE6
100
AcDbEntity
  8
SECUNVE
100
AcDbLine
 10
4979.495712
 20
-12248.849303
 30
-3219.667988
 11
5191.330097
 21
-12246.099663
 31
-3219.667988
210
0.4155648916357901
220
0.9095635331518817
230
0.0
  0
LINE
  5
1EE7
100
AcDbEntity
  8
SECUNVE
100
AcDbLine
 10
5191.330097
 20
-12246.099663
 30
-3219.667988
 11
5402.9551
 21
-12244.017173
 31
-3219.667988
210
0.4155648916357901
220
0.9095635331518817
230
0.0
  0
LINE
  5
1EE8
100
AcDbEntity
  8
SECUNVE
100
AcDbLine
 10
5402.9551
 20
-12244.017173
 30
-3219.667988
 11
5612.423805
 21
-12243.07642
 31
-3219.667988
210
0.4155648916357901
220
0.9095635331518817
230
0.0
  0
LINE
  5
1EE9
100
AcDbEntity
  8
SECUNPE
100
AcDbLine
 10
7311.875766
 20
-12176.91349
 30
-3219.667988
 11
7311.875766
 21
-12176.91349
 31
-3024.97012
210
-0.4155648916357901
220
-0.9095635331518817
230
0.0
  0
LINE
  5
1EEA
100
AcDbEntity
  8
SECUNPE
100
AcDbLine
 10
7526.306028
 20
-12163.4793
 30
-3427.739603
 11
7526.306028
 21
-12163.4793
 31
-3413.557794
210
-0.4155648916357901
220
-0.9095635331518817
230
0.0
  0
LINE
  5
1EEB
100
AcDbEntity
  8
SECUNPE
100
AcDbLine
 10
7526.306028
 20
-12163.4793
 30
-3219.667988
 11
7526.306028
 21
-12163.4793
 31
-3078.985188
210
-0.4155648916357901
220
-0.9095635331518817
230
0.0
  0
LINE
  5
1EEC
100
AcDbEntity
  8
SECUNPE
100
AcDbLine
 10
7740.73629
 20
-12150.04511
 30
-3326.700185
 11
7740.73629
 21
-12150.04511
 31
-3219.667988
210
-0.4155648916357901
220
-0.9095635331518817
230
0.0
  0
LINE
  5
1EED
100
AcDbEntity
  8
SECUNPE
100
AcDbLine
 10
7740.73629
 20
-12150.04511
 30
-3474.627854
 11
7740.73629
 21
-12150.04511
 31
-3467.572862
210
-0.4155648916357901
220
-0.9095635331518817
230
0.0
  0
LINE
  5
1EEE
100
AcDbEntity
  8
SECUNPE
100
AcDbLine
 10
7955.166552
 20
-12136.610921
 30
-3380.64771
 11
7955.166552
 21
-12136.610921
 31
-3219.667988
210
-0.4155648916357901
220
-0.9095635331518817
230
0.0
  0
LINE
  5
1EEF
100
AcDbEntity
  8
SECUNVE
100
AcDbLine
 10
5612.423805
 20
-12243.07642
 30
-3219.667988
 11
5823.226469
 21
-12237.885281
 31
-3219.667988
210
0.4155648916357901
220
0.9095635331518817
230
0.0
  0
LINE
  5
1EF0
100
AcDbEntity
  8
SECUNVE
100
AcDbLine
 10
5823.226469
 20
-12237.885281
 30
-3219.667988
 11
6033.863687
 21
-12233.221297
 31
-3219.667988
210
0.4155648916357901
220
0.9095635331518817
230
0.0
  0
LINE
  5
1EF1
100
AcDbEntity
  8
SECUNVE
100
AcDbLine
 10
6033.863687
 20
-12233.221297
 30
-3219.667988
 11
6246.091664
 21
-12223.488689
 31
-3219.667988
210
0.4155648916357901
220
0.9095635331518817
230
0.0
  0
LINE
  5
1EF2
100
AcDbEntity
  8
SECUNVE
100
AcDbLine
 10
6246.091664
 20
-12223.488689
 30
-3219.667988
 11
6458.438877
 21
-12216.768694
 31
-3219.667988
210
0.4155648916357901
220
0.9095635331518817
230
0.0
  0
LINE
  5
1EF3
100
AcDbEntity
  8
SECUNVE
100
AcDbLine
 10
6458.438877
 20
-12216.768694
 30
-3219.667988
 11
6671.328175
 21
-12208.321456
 31
-3219.667988
210
0.4155648916357901
220
0.9095635331518817
230
0.0
  0
LINE
  5
1EF4
100
AcDbEntity
  8
SECUNVE
100
AcDbLine
 10
7311.875766
 20
-12176.91349
 30
-3219.667988
 11
7526.306028
 21
-12163.4793
 31
-3219.667988
210
0.4155648916357901
220
0.9095635331518817
230
0.0
  0
LINE
  5
1EF5
100
AcDbEntity
  8
SECUNVE
100
AcDbLine
 10
7526.306028
 20
-12163.4793
 30
-3219.667988
 11
7740.73629
 21
-12150.04511
 31
-3219.667988
210
0.4155648916357901
220
0.9095635331518817
230
0.0
  0
LINE
  5
1EF6
100
AcDbEntity
  8
VB_VOL
100
AcDbLine
 10
6885.584566
 20
-12195.51826
 30
-3249.421205
 11
6905.55794
 21
-12131.8772
 31
-3249.421205
  0
LINE
  5
1EF7
100
AcDbEntity
  8
SECUNVE
100
AcDbLine
 10
6671.328175
 20
-12208.321456
 30
-3219.667988
 11
6772.266717
 21
-12202.28973
 31
-3219.667988
210
0.4155648916357901
220
0.9095635331518817
230
0.0
  0
LINE
  5
1EF8
100
AcDbEntity
  8
SECUNVE
100
AcDbLine
 10
6885.584566
 20
-12195.51826
 30
-3219.667988
 11
7097.106771
 21
-12191.426982
 31
-3219.667988
210
0.4155648916357901
220
0.9095635331518817
230
0.0
  0
LINE
  5
1EF9
100
AcDbEntity
  8
SECUNVE
100
AcDbLine
 10
7097.106771
 20
-12191.426982
 30
-3219.667988
 11
7311.875766
 21
-12176.91349
 31
-3219.667988
210
0.4155648916357901
220
0.9095635331518817
230
0.0
  0
LINE
  5
1EFA
100
AcDbEntity
  8
SECUNPE
100
AcDbLine
 10
6458.438877
 20
-12216.768694
 30
-3136.909063
 11
6458.438877
 21
-12216.768694
 31
-3219.667988
210
0.4155648916357901
220
0.9095635331518817
230
0.0
  0
LINE
  5
1EFB
100
AcDbEntity
  8
SECUNPE
100
AcDbLine
 10
6671.328175
 20
-12208.321456
 30
-3193.165134
 11
6671.328175
 21
-12208.321456
 31
-3219.667988
210
0.4155648916357901
220
0.9095635331518817
230
0.0
  0
LINE
  5
1EFC
100
AcDbEntity
  8
SECUNPE
100
AcDbLine
 10
6885.584566
 20
-12195.51826
 30
-3249.421205
 11
6885.584566
 21
-12195.51826
 31
-3326.106102
210
0.4155648916357901
220
0.9095635331518817
230
0.0
  0
LINE
  5
1EFE
100
AcDbEntity
  8
SECUNPE
100
AcDbLine
 10
7311.875766
 20
-12176.91349
 30
-3359.542727
 11
7311.875766
 21
-12176.91349
 31
-3219.667988
210
0.4155648916357901
220
0.9095635331518817
230
0.0
  0
LINE
  5
1EFF
100
AcDbEntity
  8
SECUNPE
100
AcDbLine
 10
7526.306028
 20
-12163.4793
 30
-3272.685118
 11
7526.306028
 21
-12163.4793
 31
-3219.667988
210
0.4155648916357901
220
0.9095635331518817
230
0.0
  0
LINE
  5
1F00
100
AcDbEntity
  8
SECUNVOL
100
AcDbLine
 10
7311.875766
 20
-12176.91349
 30
-3380.851352
 11
7331.599724
 21
-12114.067145
 31
-3380.851352
  0
LINE
  5
1F01
100
AcDbEntity
  8
SECUNVOL
100
AcDbLine
 10
7526.306028
 20
-12163.4793
 30
-3427.739603
 11
7546.029986
 21
-12100.632955
 31
-3427.739603
  0
LINE
  5
1F02
100
AcDbEntity
  8
SECUNVOL
100
AcDbLine
 10
7740.73629
 20
-12150.04511
 30
-3474.627854
 11
7760.460248
 21
-12087.198765
 31
-3474.627854
  0
LINE
  5
1F03
100
AcDbEntity
  8
SECUNVE2
100
AcDbLine
 10
3317.098552
 20
-12184.102177
 30
-3619.667988
 11
3485.646915
 21
-12201.672335
 31
-3619.667988
210
0.4155648916357901
220
0.9095635331518817
230
0.0
  0
LINE
  5
1F05
100
AcDbEntity
  8
SECUNVE2
100
AcDbLine
 10
3643.409248
 20
-12218.141686
 30
-3619.667988
 11
3724.726357
 21
-12225.438167
 31
-3619.667988
210
0.4155648916357901
220
0.9095635331518817
230
0.0
  0
LINE
  5
1F06
100
AcDbEntity
  8
SECUNVE
100
AcDbLine
 10
3724.726357
 20
-12225.438167
 30
-3619.667988
 11
3930.853587
 21
-12237.916518
 31
-3619.667988
210
0.4155648916357901
220
0.9095635331518817
230
0.0
  0
LINE
  5
1F07
100
AcDbEntity
  8
SECUNVE
100
AcDbLine
 10
3930.853587
 20
-12237.916518
 30
-3619.667988
 11
4139.585315
 21
-12242.096172
 31
-3619.667988
210
0.4155648916357901
220
0.9095635331518817
230
0.0
  0
LINE
  5
1F08
100
AcDbEntity
  8
SECUNVE
100
AcDbLine
 10
4139.585315
 20
-12242.096172
 30
-3619.667988
 11
4350.178162
 21
-12240.345753
 31
-3619.667988
210
0.4155648916357901
220
0.9095635331518817
230
0.0
  0
LINE
  5
1F09
100
AcDbEntity
  8
SECUNVE
100
AcDbLine
 10
4350.178162
 20
-12240.345753
 30
-3619.667988
 11
4562.027664
 21
-12234.591259
 31
-3619.667988
210
0.4155648916357901
220
0.9095635331518817
230
0.0
  0
LINE
  5
1F0A
100
AcDbEntity
  8
SECUNVE
100
AcDbLine
 10
4562.027664
 20
-12234.591259
 30
-3619.667988
 11
4773.860008
 21
-12231.84812
 31
-3619.667988
210
0.4155648916357901
220
0.9095635331518817
230
0.0
  0
LINE
  5
1F0B
100
AcDbEntity
  8
SECUNVE
100
AcDbLine
 10
4773.860008
 20
-12231.84812
 30
-3619.667988
 11
4985.734382
 21
-12228.971061
 31
-3619.667988
210
0.4155648916357901
220
0.9095635331518817
230
0.0
  0
LINE
  5
1F0C
100
AcDbEntity
  8
SECUNVE2
100
AcDbLine
 10
3171.622347
 20
-12169.004272
 30
-4019.667988
 11
3317.098552
 21
-12184.102177
 31
-4019.667988
210
0.4155648916357901
220
0.9095635331518817
230
0.0
  0
LINE
  5
1F0E
100
AcDbEntity
  8
SECUNVE
100
AcDbLine
 10
3520.770117
 20
-12205.223699
 30
-4019.667988
 11
3725.404617
 21
-12223.277029
 31
-4019.667988
210
0.4155648916357901
220
0.9095635331518817
230
0.0
  0
LINE
  5
1F0F
100
AcDbEntity
  8
SECUNVE
100
AcDbLine
 10
3725.404617
 20
-12223.277029
 30
-4019.667988
 11
3933.985093
 21
-12227.938617
 31
-4019.667988
210
0.4155648916357901
220
0.9095635331518817
230
0.0
  0
LINE
  5
1F10
100
AcDbEntity
  8
SECUNVE
100
AcDbLine
 10
3933.985093
 20
-12227.938617
 30
-4019.667988
 11
4144.508191
 21
-12226.410438
 31
-4019.667988
210
0.4155648916357901
220
0.9095635331518817
230
0.0
  0
LINE
  5
1F11
100
AcDbEntity
  8
SECUNVE
100
AcDbLine
 10
4144.508191
 20
-12226.410438
 30
-4019.667988
 11
4311.289813
 21
-12222.31674
 31
-4019.667988
210
0.4155648916357901
220
0.9095635331518817
230
0.0
  0
LINE
  5
1F12
100
AcDbEntity
  8
SECUNVE
100
AcDbLine
 10
3016.447728
 20
-12152.899839
 30
-4419.667988
 11
3113.431865
 21
-12162.965109
 31
-4419.667988
210
0.4155648916357901
220
0.9095635331518817
230
0.0
  0
LINE
  5
1F14
100
AcDbEntity
  8
SECUNVE
100
AcDbLine
 10
3368.364013
 20
-12189.402626
 30
-4419.667988
 11
3520.803552
 21
-12205.117166
 31
-4419.667988
210
0.4155648916357901
220
0.9095635331518817
230
0.0
  0
LINE
  5
1F15
100
AcDbEntity
  8
SECUNVE
100
AcDbLine
 10
3520.803552
 20
-12205.117166
 30
-4419.667988
 11
3726.082878
 21
-12221.115891
 31
-4419.667988
210
0.4155648916357901
220
0.9095635331518817
230
0.0
  0
LINE
  5
1F16
100
AcDbEntity
  8
SECUNVE
100
AcDbLine
 10
3113.431865
 20
-12162.965109
 30
-4419.667988
 11
3209.416108
 21
-12172.926608
 31
-4419.667988
210
0.4155648916357901
220
0.9095635331518817
230
0.0
  0
LINE
  5
1F17
100
AcDbEntity
  8
SECUNVE
100
AcDbLine
 10
2908.119978
 20
-12147.070133
 30
-4819.667988
 11
3005.312083
 21
-12154.594618
 31
-4819.667988
210
0.4155648916357901
220
0.9095635331518817
230
0.0
  0
LINE
  5
1F18
100
AcDbEntity
  8
SECUNVE
100
AcDbLine
 10
3174.880016
 20
-12169.342361
 30
-4819.667988
 11
3285.918064
 21
-12180.866184
 31
-4819.667988
210
0.4155648916357901
220
0.9095635331518817
230
0.0
  0
LINE
  5
1F19
100
AcDbEntity
  8
SECUNVE
100
AcDbLine
 10
3113.431865
 20
-12162.965109
 30
-4819.667988
 11
3174.880016
 21
-12169.342361
 31
-4819.667988
210
0.4155648916357901
220
0.9095635331518817
230
0.0
  0
LINE
  5
1F1A
100
AcDbEntity
  8
SECUNVE2
100
AcDbLine
 10
3317.098552
 20
-12184.102177
 30
-4019.667988
 11
3353.879754
 21
-12187.919428
 31
-4019.667988
210
0.4155648916357901
220
0.9095635331518817
230
0.0
  0
LINE
  5
1F1B
100
AcDbEntity
  8
SECUNVE2
100
AcDbLine
 10
3287.768282
 20
-12181.831466
 30
-3619.667988
 11
3317.098552
 21
-12184.102177
 31
-3619.667988
210
0.4155648916357901
220
0.9095635331518817
230
0.0
  0
LINE
  5
1F1C
100
AcDbEntity
  8
SECUNVE2
100
AcDbLine
 10
3469.375276
 20
-12201.463022
 30
-3219.667988
 11
3520.703248
 21
-12205.436766
 31
-3219.667988
210
0.4155648916357901
220
0.9095635331518817
230
0.0
  0
LINE
  5
1F1D
100
AcDbEntity
  8
SECUNVE2
100
AcDbLine
 10
3924.590576
 20
-12257.872319
 30
-2819.667988
 11
4129.739562
 21
-12273.467642
 31
-2819.667988
210
0.4155648916357901
220
0.9095635331518817
230
0.0
  0
LINE
  5
1F1E
100
AcDbEntity
  8
SECUNPE
100
AcDbLine
 10
6458.438877
 20
-12216.768694
 30
-3308.687014
 11
6458.438877
 21
-12216.768694
 31
-3219.667988
210
0.4155648916357901
220
0.9095635331518817
230
0.0
  0
LINE
  5
1F1F
100
AcDbEntity
  8
SECUNPE
100
AcDbLine
 10
6458.438877
 20
-12216.768694
 30
-2995.708671
 11
6458.438877
 21
-12216.768694
 31
-2819.667988
210
0.4155648916357901
220
0.9095635331518817
230
0.0
  0
LINE
  5
1F20
100
AcDbEntity
  8
SECUNPE
100
AcDbLine
 10
6671.328175
 20
-12208.321456
 30
-2858.013606
 11
6671.328175
 21
-12208.321456
 31
-3052.076769
210
0.4155648916357901
220
0.9095635331518817
230
0.0
  0
LINE
  5
1F21
100
AcDbEntity
  8
SECUNPE
100
AcDbLine
 10
6671.328175
 20
-12208.321456
 30
-3219.667988
 11
6671.328175
 21
-12208.321456
 31
-3312.087042
210
0.4155648916357901
220
0.9095635331518817
230
0.0
  0
LINE
  5
1F22
100
AcDbEntity
  8
SECUNPE
100
AcDbLine
 10
7097.106771
 20
-12191.426982
 30
-3353.297627
 11
7097.106771
 21
-12191.426982
 31
-3305.52766
210
0.4155648916357901
220
0.9095635331518817
230
0.0
  0
LINE
  5
1F23
100
AcDbEntity
  8
SECUNPE
100
AcDbLine
 10
7097.106771
 20
-12191.426982
 30
-3164.654983
 11
7097.106771
 21
-12191.426982
 31
-2970.80168
210
0.4155648916357901
220
0.9095635331518817
230
0.0
  0
LINE
  5
1F24
100
AcDbEntity
  8
SECUNPE
100
AcDbLine
 10
7311.875766
 20
-12176.91349
 30
-3359.542727
 11
7311.875766
 21
-12176.91349
 31
-3380.851352
210
0.4155648916357901
220
0.9095635331518817
230
0.0
  0
LINE
  5
1F42
100
AcDbEntity
  8
SECUNPI
100
AcDbLine
 10
7331.599724
 20
-12114.067145
 30
-3380.851352
 11
7331.599724
 21
-12114.067145
 31
-3359.542727
210
-0.4155648916357901
220
-0.9095635331518817
230
0.0
  0
LINE
  5
1F43
100
AcDbEntity
  8
SECUNPI
100
AcDbLine
 10
7546.029986
 20
-12100.632955
 30
-3427.739603
 11
7546.029986
 21
-12100.632955
 31
-3413.557794
210
-0.4155648916357901
220
-0.9095635331518817
230
0.0
  0
LINE
  5
1F45
100
AcDbEntity
  8
SECUNVE
100
AcDbLine
 10
4338.001051
 20
-12279.145618
 30
-2819.667988
 11
4549.004036
 21
-12276.088376
 31
-2819.667988
  0
LINE
  5
1F46
100
AcDbEntity
  8
SECUNVE
100
AcDbLine
 10
4549.004036
 20
-12276.088376
 30
-2819.667988
 11
4760.394793
 21
-12274.752266
 31
-2819.667988
  0
LINE
  5
1F47
100
AcDbEntity
  8
ALIN2
100
AcDbLine
 10
3748.545047
 20
-12149.544798
 30
-3446.028707
 11
3902.524694
 21
-12149.324416
 31
-3219.667988
210
-0.0000000000000001
220
-1.0
230
0.0
  0
LINE
  5
1F48
100
AcDbEntity
  8
ALIN2
100
AcDbLine
 10
3902.524694
 20
-12149.324416
 30
-3219.667988
 11
3958.682926
 21
-12149.244041
 31
-3169.442892
210
-0.0000000000000001
220
-1.0
230
0.0
  0
LINE
  5
1F49
100
AcDbEntity
  8
ALIN2
100
AcDbLine
 10
4378.958684
 20
-12148.642526
 30
-2911.432676
 11
4589.096562
 21
-12148.341769
 31
-2836.460481
210
-0.0000000000000001
220
-1.0
230
0.0
  0
LINE
  5
1F4A
100
AcDbEntity
  8
ALIN2
100
AcDbLine
 10
3958.682926
 20
-12149.244041
 30
-3169.442892
 11
4168.820805
 21
-12148.943283
 31
-3013.898177
210
-0.0000000000000001
220
-1.0
230
0.0
  0
LINE
  5
1F4B
100
AcDbEntity
  8
ALIN2
100
AcDbLine
 10
4168.820805
 20
-12148.943283
 30
-3013.898177
 11
4378.958684
 21
-12148.642526
 31
-2911.432676
210
-0.0000000000000001
220
-1.0
230
0.0
  0
LINE
  5
1F4D
100
AcDbEntity
  8
SECUNVE2
100
AcDbLine
 10
3927.722081
 20
-12247.894418
 30
-3219.667988
 11
3873.29129
 21
-12242.470657
 31
-3219.667988
210
-0.0000000000000001
220
-1.0
230
0.0
  0
LINE
  5
1F4E
100
AcDbEntity
  8
SECUNPE
100
AcDbLine
 10
6033.982274
 20
-12232.843447
 30
-3025.123051
 11
6033.863687
 21
-12233.221297
 31
-3219.667988
  0
LINE
  5
1F4F
100
AcDbEntity
  8
ALIN2
100
AcDbLine
 10
3251.42738
 20
-12111.032226
 30
-4693.667988
 11
3337.921274
 21
-12117.754845
 31
-4476.56612
210
-0.0000000000000001
220
-1.0
230
0.0
  0
LINE
  5
1F50
100
AcDbEntity
  8
ALIN2
100
AcDbLine
 10
3337.921274
 20
-12117.754845
 30
-4476.56612
 11
3360.592674
 21
-12119.510035
 31
-4419.667988
210
-0.0000000000000001
220
-1.0
230
0.0
  0
LINE
  5
1F51
100
AcDbEntity
  8
ALIN2
100
AcDbLine
 10
3360.592674
 20
-12119.510035
 30
-4419.667988
 11
3519.975057
 21
-12131.84921
 31
-4019.667988
210
-0.0000000000000001
220
-1.0
230
0.0
  0
LINE
  5
1F52
100
AcDbEntity
  8
ALIN2
100
AcDbLine
 10
3519.975057
 20
-12131.84921
 30
-4019.667988
 11
3543.233161
 21
-12133.649821
 31
-3961.297413
210
-0.0000000000000001
220
-1.0
230
0.0
  0
LINE
  5
1F53
100
AcDbEntity
  8
ALIN2
100
AcDbLine
 10
3543.233161
 20
-12133.649821
 30
-3961.297413
 11
3679.357441
 21
-12144.188384
 31
-3619.667988
210
-0.0000000000000001
220
-1.0
230
0.0
  0
LINE
  5
1F54
100
AcDbEntity
  8
ALIN2
100
AcDbLine
 10
3679.357441
 20
-12144.188384
 30
-3619.667988
 11
3748.545047
 21
-12149.544798
 31
-3446.028707
210
-0.0000000000000001
220
-1.0
230
0.0
  0
LINE
  5
1F56
100
AcDbEntity
  8
VB_AUXB
100
AcDbLine
 10
2927.297501
 20
-12085.964893
 30
-4948.180762
 11
2927.297501
 21
-12085.964893
 31
-5142.605925
210
0.0
220
-1.0
230
0.0000000000000001
  0
LINE
  5
1F57
100
AcDbEntity
  8
VB_AUXB
100
AcDbLine
 10
3132.609387
 20
-12101.859869
 30
-4676.706036
 11
3132.609387
 21
-12101.859869
 31
-4799.211799
210
0.0
220
-1.0
230
0.0000000000000001
  0
LINE
  5
1F58
100
AcDbEntity
  8
VB_AUXB
100
AcDbLine
 10
3337.921274
 20
-12117.754845
 30
-4131.303106
 11
3337.921274
 21
-12117.754845
 31
-4357.391343
210
0.0
220
-1.0
230
0.0000000000000001
  0
LINE
  5
1F60
100
AcDbEntity
  8
VB_AUXB
100
AcDbLine
 10
7331.599724
 20
-12114.067145
 30
-3359.542727
 11
7331.599724
 21
-12114.067145
 31
-3219.667988
210
0.0
220
-1.0
230
0.0000000000000001
  0
LINE
  5
1F61
100
AcDbEntity
  8
VB_AUXB
100
AcDbLine
 10
7546.029986
 20
-12100.632955
 30
-3413.557794
 11
7546.029986
 21
-12100.632955
 31
-3272.685118
210
0.0
220
-1.0
230
0.0000000000000001
  0
LINE
  5
1F63
100
AcDbEntity
  8
VB_AUXB
100
AcDbLine
 10
7760.460248
 20
-12087.198765
 30
-3467.572862
 11
7760.460248
 21
-12087.198765
 31
-3326.700185
210
0.0
220
-1.0
230
0.0000000000000001
  0
LINE
  5
1F64
100
AcDbEntity
  8
VBCONTORNO
100
AcDbLine
 10
6905.55794
 20
-12131.8772
 30
-3108.444867
 11
7117.169462
 21
-12127.501334
 31
-3164.654983
210
0.0
220
-1.0
230
0.0
  0
LINE
  5
1F65
100
AcDbEntity
  8
VBCONTORNO
100
AcDbLine
 10
7117.169462
 20
-12127.501334
 30
-3164.654983
 11
7331.599724
 21
-12114.067145
 31
-3219.667988
210
0.0
220
-1.0
230
0.0
  0
LINE
  5
1F66
100
AcDbEntity
  8
VBCONTORNO
100
AcDbLine
 10
7331.599724
 20
-12114.067145
 30
-3219.667988
 11
7546.029986
 21
-12100.632955
 31
-3272.685118
210
0.0
220
-1.0
230
0.0
  0
LINE
  5
1F67
100
AcDbEntity
  8
VBCONTORNO
100
AcDbLine
 10
7546.029986
 20
-12100.632955
 30
-3272.685118
 11
7760.460248
 21
-12087.198765
 31
-3326.700185
210
0.0
220
-1.0
230
0.0
  0
LINE
  5
1F68
100
AcDbEntity
  8
VBCONTORNO
100
AcDbLine
 10
6905.55794
 20
-12131.8772
 30
-3249.421205
 11
7117.169462
 21
-12127.501334
 31
-3305.52766
210
0.0
220
-1.0
230
0.0
  0
LINE
  5
1F69
100
AcDbEntity
  8
VBCONTORNO
100
AcDbLine
 10
7117.169462
 20
-12127.501334
 30
-3305.52766
 11
7331.599724
 21
-12114.067145
 31
-3359.542727
210
0.0
220
-1.0
230
0.0
  0
LINE
  5
1F6A
100
AcDbEntity
  8
VBCONTORNO
100
AcDbLine
 10
7331.599724
 20
-12114.067145
 30
-3359.542727
 11
7546.029986
 21
-12100.632955
 31
-3413.557794
210
0.0
220
-1.0
230
0.0
  0
LINE
  5
1F6B
100
AcDbEntity
  8
VBCONTORNO
100
AcDbLine
 10
7546.029986
 20
-12100.632955
 30
-3413.557794
 11
7760.460248
 21
-12087.198765
 31
-3467.572862
210
0.0
220
-1.0
230
0.0
  0
TEXT
  5
1F72
100
AcDbEntity
  8
VBCONTORNO
100
AcDbText
 10
3700.154175
 20
-3062.288336
 30
11855.460568
 40
50.2
  1
1
210
0.0
220
-1.0
230
0.0
100
AcDbText
  0
TEXT
  5
1F73
100
AcDbEntity
  8
VBCONTORNO
100
AcDbText
 10
4540.70569
 20
-2579.874537
 30
11854.25754
 40
50.2
  1
2
210
0.0
220
-1.0
230
0.0
100
AcDbText
  0
TEXT
  5
1F74
100
AcDbEntity
  8
VBCONTORNO
100
AcDbText
 10
5384.030077
 20
-2633.480962
 30
11856.046062
 40
50.2
  1
3
210
0.0
220
-1.0
230
0.0
100
AcDbText
  0
TEXT
  5
1F75
100
AcDbEntity
  8
VBCONTORNO
100
AcDbText
 10
6254.464515
 20
-2895.640672
 30
11856.046062
 40
50.2
  1
4
210
0.0
220
-1.0
230
0.0
100
AcDbText
  0
TEXT
  5
1F76
100
AcDbEntity
  8
VBCONTORNO
100
AcDbText
 10
7093.102215
 20
-3126.023468
 30
11856.046062
 40
50.2
  1
5
210
0.0
220
-1.0
230
0.0
100
AcDbText
  0
TEXT
  5
1F77
100
AcDbEntity
  8
VBCONTORNO
100
AcDbText
 10
7955.587479
 20
-3332.573578
 30
11856.046062
 40
50.2
  1
6
210
0.0
220
-1.0
230
0.0
100
AcDbText
  0
LINE
  5
1F78
100
AcDbEntity
  8
VB_AUXB
100
AcDbLine
 10
7974.89051
 20
-12073.764576
 30
-3380.64771
 11
7974.89051
 21
-12073.764576
 31
-3521.516105
210
0.0
220
-1.0
230
0.0000000000000001
  0
LINE
  5
1F79
100
AcDbEntity
  8
VBCONTORNO
100
AcDbLine
 10
7760.460248
 20
-12087.198765
 30
-3326.700185
 11
7974.89051
 21
-12073.764576
 31
-3380.64771
210
0.0
220
-1.0
230
0.0
  0
LINE
  5
1F7A
100
AcDbEntity
  8
VBCONTORNO
100
AcDbLine
 10
7760.460248
 20
-12087.198765
 30
-3467.572862
 11
7974.89051
 21
-12073.764576
 31
-3521.516105
210
0.0
220
-1.0
230
0.0
  0
LINE
  5
1F8B
100
AcDbEntity
  8
VIGACURVA_AUX
100
AcDbLine
 10
3543.233161
 20
-12133.649821
 30
-4599.495278
 11
3543.233161
 21
-12133.649821
 31
-4651.797608
210
0.0
220
-1.0
230
0.0
  0
LINE
  5
1F8C
100
AcDbEntity
  8
VIGACURVA_AUX
100
AcDbLine
 10
3337.921274
 20
-12117.754845
 30
-4767.983681
 11
3337.921274
 21
-12117.754845
 31
-4819.667988
210
0.0
220
-1.0
230
0.0
  0
LINE
  5
1F8D
100
AcDbEntity
  8
VIGACURVA_AUX
100
AcDbLine
 10
3132.609387
 20
-12103.342526
 30
-4936.472084
 11
3132.609387
 21
-12103.342526
 31
-4988.774414
210
0.0
220
-1.0
230
0.0
  0
LINE
  5
1F8E
100
AcDbEntity
  8
VIGACURVA_AUX
100
AcDbLine
 10
3958.682926
 20
-12149.244041
 30
-4262.960879
 11
3958.682926
 21
-12149.244041
 31
-4314.827277
210
0.0
220
-1.0
230
0.0
  0
LINE
  5
1F8F
100
AcDbEntity
  8
VIGACURVA_AUX
100
AcDbLine
 10
4168.820805
 20
-12148.943283
 30
-4105.712414
 11
4168.820805
 21
-12148.943283
 31
-4155.875965
210
0.0
220
-1.0
230
0.0
  0
LINE
  5
1F90
100
AcDbEntity
  8
VIGACURVA_AUX
100
AcDbLine
 10
4378.958684
 20
-12148.642526
 30
-3964.997062
 11
4378.958684
 21
-12148.642526
 31
-4012.958439
210
0.0
220
-1.0
230
0.0
  0
LINE
  5
1F91
100
AcDbEntity
  8
VIGACURVA_AUX
100
AcDbLine
 10
5010.758756
 20
-12149.236031
 30
-3665.74956
 11
5010.758756
 21
-12149.236031
 31
-3621.343807
210
0.0
220
-1.0
230
0.0
  0
LINE
  5
1F92
100
AcDbEntity
  8
VIGACURVA_AUX
100
AcDbLine
 10
5221.589852
 20
-12149.683161
 30
-3575.100198
 11
5221.589852
 21
-12149.683161
 31
-3531.799049
210
0.0
220
-1.0
230
0.0
  0
LINE
  5
1F93
100
AcDbEntity
  8
VIGACURVA_AUX
100
AcDbLine
 10
5641.996556
 20
-12148.848918
 30
-3436.831631
 11
5641.996556
 21
-12148.848918
 31
-3395.398083
210
0.0
220
-1.0
230
0.0
  0
LINE
  5
1F94
100
AcDbEntity
  8
VIGACURVA_AUX
100
AcDbLine
 10
5844.774177
 20
-12147.567545
 30
-3387.735322
 11
5844.774177
 21
-12147.567545
 31
-3346.937203
210
0.0
220
-1.0
230
0.0
  0
LINE
  5
1F95
100
AcDbEntity
  8
VIGACURVA_AUX
100
AcDbLine
 10
6061.147768
 20
-12146.286172
 30
-3356.193124
 11
6061.147768
 21
-12146.286172
 31
-3315.810485
210
0.0
220
-1.0
230
0.0
  0
LINE
  5
1F96
100
AcDbEntity
  8
VIGACURVA_AUX
100
AcDbLine
 10
6482.334897
 20
-12140.628932
 30
-3328.690552
 11
6482.334897
 21
-12140.628932
 31
-3288.683476
210
0.0
220
-1.0
230
0.0
  0
LINE
  5
1F97
100
AcDbEntity
  8
VIGACURVA_AUX
100
AcDbLine
 10
6693.946418
 20
-12136.253066
 30
-3332.115243
 11
6693.946418
 21
-12136.253066
 31
-3292.058841
210
0.0
220
-1.0
230
0.0
  0
LINE
  5
1F98
100
AcDbEntity
  8
VIGACURVA_AUX
100
AcDbLine
 10
6905.55794
 20
-12131.8772
 30
-3346.171029
 11
6905.55794
 21
-12131.8772
 31
-3306.041175
210
0.0
220
-1.0
230
0.0
  0
LINE
  5
1F9A
100
AcDbEntity
  8
VIGACURVA_AUX
100
AcDbLine
 10
7331.599724
 20
-12114.067145
 30
-3401.181592
 11
7331.599724
 21
-12114.067145
 31
-3360.521113
210
0.0
220
-1.0
230
0.0
  0
LINE
  5
1F9B
100
AcDbEntity
  8
VIGACURVA
100
AcDbLine
 10
5641.996556
 20
-12148.848918
 30
-3416.114857
 11
5844.774177
 21
-12147.567545
 31
-3367.336262
210
0.0
220
-1.0
230
0.0
  0
LINE
  5
1F9C
100
AcDbEntity
  8
VIGACURVA
100
AcDbLine
 10
5844.774177
 20
-12147.567545
 30
-3367.336262
 11
6061.147768
 21
-12146.286172
 31
-3336.001804
210
0.0
220
-1.0
230
0.0
  0
LINE
  5
1F9D
100
AcDbEntity
  8
VIGACURVA
100
AcDbLine
 10
6482.334897
 20
-12140.628932
 30
-3308.687014
 11
6693.946418
 21
-12136.253066
 31
-3312.087042
210
0.0
220
-1.0
230
0.0
  0
LINE
  5
1F9E
100
AcDbEntity
  8
VIGACURVA
100
AcDbLine
 10
6693.946418
 20
-12136.253066
 30
-3312.087042
 11
6905.55794
 21
-12131.8772
 31
-3326.106102
210
0.0
220
-1.0
230
0.0
  0
LINE
  5
1F9F
100
AcDbEntity
  8
VIGACURVA
100
AcDbLine
 10
3958.682926
 20
-12149.244041
 30
-4288.894078
 11
4168.820805
 21
-12148.943283
 31
-4133.686378
210
0.0
220
-1.0
230
0.0
  0
LINE
  5
1FA0
100
AcDbEntity
  8
VIGACURVA
100
AcDbLine
 10
3337.921274
 20
-12117.754845
 30
-4793.825835
 11
3543.233161
 21
-12133.649821
 31
-4625.646443
210
0.0
220
-1.0
230
0.0
  0
LINE
  5
1FA1
100
AcDbEntity
  8
VIGACURVA
100
AcDbLine
 10
7331.599724
 20
-12114.067145
 30
-3380.851352
 11
7546.029986
 21
-12100.632955
 31
-3427.739603
210
0.0
220
-1.0
230
0.0
  0
LINE
  5
1FA2
100
AcDbEntity
  8
VB
100
AcDbLine
 10
2927.297501
 20
-12085.964893
 30
-5045.393343
 11
2530.907945
 21
-12083.819958
 31
-5317.591353
  0
LINE
  5
1FA4
100
AcDbEntity
  8
VIGACURVA
100
AcDbLine
 10
4378.958684
 20
-12148.642526
 30
-3988.977751
 11
4589.096562
 21
-12148.341769
 31
-3855.614927
210
0.0
220
-1.0
230
0.0
  0
LINE
  5
1FA5
100
AcDbEntity
  8
VIGACURVA_AUX
100
AcDbLine
 10
4799.927659
 20
-12148.7889
 30
-3723.253194
 11
4799.927659
 21
-12148.7889
 31
-3768.71602
210
0.0
220
-1.0
230
0.0
  0
LINE
  5
1FA6
100
AcDbEntity
  8
VIGACURVA
100
AcDbLine
 10
4589.096562
 20
-12148.341769
 30
-3855.614927
 11
4799.927659
 21
-12148.7889
 31
-3745.984607
210
0.0
220
1.0
230
0.0
  0
LINE
  5
1FA7
100
AcDbEntity
  8
VIGACURVA
100
AcDbLine
 10
4799.927659
 20
-12148.7889
 30
-3745.984607
 11
5010.758756
 21
-12149.236031
 31
-3643.546684
210
0.0
220
1.0
230
0.0
  0
LINE
  5
1FA8
100
AcDbEntity
  8
VIGACURVA
100
AcDbLine
 10
3543.233161
 20
-12133.649821
 30
-4625.646443
 11
3748.545047
 21
-12149.544798
 31
-4459.22617
210
0.0
220
1.0
230
0.0
  0
LINE
  5
1FA9
100
AcDbEntity
  8
VIGACURVA
100
AcDbLine
 10
5221.589852
 20
-12149.683161
 30
-3553.449624
 11
5432.420949
 21
-12150.130292
 31
-3484.577174
210
0.0
220
1.0
230
0.0
  0
LINE
  5
1FAA
100
AcDbEntity
  8
VIGACURVA
100
AcDbLine
 10
5432.420949
 20
-12150.130292
 30
-3484.577174
 11
5641.996556
 21
-12148.848918
 31
-3416.114857
210
0.0
220
1.0
230
0.0
  0
LINE
  5
1FAB
100
AcDbEntity
  8
VIGACURVA
100
AcDbLine
 10
6061.147768
 20
-12146.286172
 30
-3336.001804
 11
6270.723375
 21
-12145.004798
 31
-3322.410426
210
0.0
220
1.0
230
0.0
  0
LINE
  5
1FAC
100
AcDbEntity
  8
VIGACURVA
100
AcDbLine
 10
6270.723375
 20
-12145.004798
 30
-3322.410426
 11
6482.334897
 21
-12140.628932
 31
-3308.687014
210
0.0
220
1.0
230
0.0
  0
LINE
  5
1FAD
100
AcDbEntity
  8
VIGACURVA
100
AcDbLine
 10
6905.55794
 20
-12131.8772
 30
-3326.106102
 11
7117.169462
 21
-12127.501334
 31
-3353.297627
210
0.0
220
1.0
230
0.0
  0
LINE
  5
1FAE
100
AcDbEntity
  8
VIGACURVA
100
AcDbLine
 10
7117.169462
 20
-12127.501334
 30
-3353.297627
 11
7331.599724
 21
-12114.067145
 31
-3380.851352
210
0.0
220
1.0
230
0.0
  0
LINE
  5
1FAF
100
AcDbEntity
  8
SECUNPI
100
AcDbLine
 10
7760.460248
 20
-12087.198765
 30
-3467.572862
 11
7760.460248
 21
-12087.198765
 31
-3474.627854
210
0.0
220
1.0
230
0.0
  0
LINE
  5
1FB0
100
AcDbEntity
  8
VIGACURVA
100
AcDbLine
 10
4168.820805
 20
-12148.943283
 30
-4133.686378
 11
4334.392016
 21
-12148.706312
 31
-4019.667988
210
0.0
220
1.0
230
0.0
  0
LINE
  5
1FB1
100
AcDbEntity
  8
VIGACURVA
100
AcDbLine
 10
4334.392016
 20
-12148.706312
 30
-4019.667988
 11
4378.958684
 21
-12148.642526
 31
-3988.977751
210
0.0
220
1.0
230
0.0
  0
LINE
  5
1FB2
100
AcDbEntity
  8
VIGACURVA
100
AcDbLine
 10
3306.488913
 20
-12115.321393
 30
-4819.667988
 11
3337.921274
 21
-12117.754845
 31
-4793.825835
210
0.0
220
1.0
230
0.0
  0
LINE
  5
1FB3
100
AcDbEntity
  8
VIGACURVA
100
AcDbLine
 10
2927.297501
 20
-12085.964893
 30
-5142.605925
 11
3132.609387
 21
-12101.859869
 31
-4962.623249
210
0.0
220
1.0
230
0.0
  0
LINE
  5
1FB4
100
AcDbEntity
  8
VIGACURVA
100
AcDbLine
 10
3132.609387
 20
-12101.859869
 30
-4962.623249
 11
3306.488913
 21
-12115.321393
 31
-4819.667988
210
0.0
220
1.0
230
0.0
  0
LINE
  5
1FB5
100
AcDbEntity
  8
VIGACURVAE
100
AcDbLine
 10
7955.166552
 20
-12136.610921
 30
-3521.516105
 11
7740.73629
 21
-12150.04511
 31
-3474.627854
210
0.0
220
1.0
230
0.0
  0
LINE
  5
1FB6
100
AcDbEntity
  8
VIGACURVAE
100
AcDbLine
 10
7740.73629
 20
-12150.04511
 30
-3474.627854
 11
7526.306028
 21
-12163.4793
 31
-3427.739603
210
0.0
220
1.0
230
0.0
  0
LINE
  5
1FB7
100
AcDbEntity
  8
VIGACURVAE
100
AcDbLine
 10
7526.306028
 20
-12163.4793
 30
-3427.739603
 11
7311.875766
 21
-12176.91349
 31
-3380.851352
210
0.0
220
1.0
230
0.0
  0
LINE
  5
1FB8
100
AcDbEntity
  8
VIGACURVAE
100
AcDbLine
 10
7311.875766
 20
-12176.91349
 30
-3380.851352
 11
7097.106771
 21
-12191.426982
 31
-3353.297627
210
0.0
220
1.0
230
0.0
  0
LINE
  5
1FB9
100
AcDbEntity
  8
VIGACURVAE
100
AcDbLine
 10
7097.106771
 20
-12191.426982
 30
-3353.297627
 11
6885.584566
 21
-12195.51826
 31
-3326.106102
210
0.0
220
1.0
230
0.0
  0
LINE
  5
1FBA
100
AcDbEntity
  8
VIGACURVAE
100
AcDbLine
 10
6885.584566
 20
-12195.51826
 30
-3326.106102
 11
6671.328175
 21
-12208.321456
 31
-3312.087042
210
0.0
220
1.0
230
0.0
  0
LINE
  5
1FBB
100
AcDbEntity
  8
VIGACURVAE
100
AcDbLine
 10
6671.328175
 20
-12208.321456
 30
-3312.087042
 11
6458.438877
 21
-12216.768694
 31
-3308.687014
210
0.0
220
1.0
230
0.0
  0
LINE
  5
1FBC
100
AcDbEntity
  8
VIGACURVAE
100
AcDbLine
 10
6458.438877
 20
-12216.768694
 30
-3308.687014
 11
6246.091664
 21
-12223.488689
 31
-3322.410426
210
0.0
220
1.0
230
0.0
  0
LINE
  5
1FBD
100
AcDbEntity
  8
VIGACURVAE
100
AcDbLine
 10
6246.091664
 20
-12223.488689
 30
-3322.410426
 11
6033.792775
 21
-12233.447243
 31
-3336.001804
210
0.0
220
1.0
230
0.0
  0
LINE
  5
1FBE
100
AcDbEntity
  8
VIGACURVAE
100
AcDbLine
 10
6033.792775
 20
-12233.447243
 30
-3336.001804
 11
5823.616048
 21
-12236.643967
 31
-3366.351802
210
0.0
220
1.0
230
0.0
  0
LINE
  5
1FBF
100
AcDbEntity
  8
VIGACURVAE
100
AcDbLine
 10
5823.616048
 20
-12236.643967
 30
-3366.351802
 11
5613.43932
 21
-12239.84069
 31
-3416.114857
210
0.0
220
1.0
230
0.0
  0
LINE
  5
1FC0
100
AcDbEntity
  8
VIGACURVAE
100
AcDbLine
 10
5613.43932
 20
-12239.84069
 30
-3416.114857
 11
5405.409724
 21
-12236.196017
 31
-3484.577174
210
0.0
220
1.0
230
0.0
  0
LINE
  5
1FC1
100
AcDbEntity
  8
VIGACURVAE
100
AcDbLine
 10
5405.409724
 20
-12236.196017
 30
-3484.577174
 11
5195.579254
 21
-12232.560594
 31
-3553.449624
210
0.0
220
1.0
230
0.0
  0
LINE
  5
1FC2
100
AcDbEntity
  8
VIGACURVAE
100
AcDbLine
 10
4986.106811
 20
-12227.784394
 30
-3643.546684
 11
4775.986109
 21
-12225.073737
 31
-3745.984607
210
0.0
220
1.0
230
0.0
  0
LINE
  5
1FC3
100
AcDbEntity
  8
VIGACURVAE
100
AcDbLine
 10
4775.986109
 20
-12225.073737
 30
-3745.984607
 11
4565.86877
 21
-12222.352361
 31
-3855.614927
210
0.0
220
1.0
230
0.0
  0
LINE
  5
1FC4
100
AcDbEntity
  8
VIGACURVAE
100
AcDbLine
 10
4565.86877
 20
-12222.352361
 30
-3855.614927
 11
4355.799569
 21
-12222.434291
 31
-3988.977751
210
0.0
220
1.0
230
0.0
  0
LINE
  5
1FC5
100
AcDbEntity
  8
VIGACURVAE
100
AcDbLine
 10
4355.799569
 20
-12222.434291
 30
-3988.977751
 11
4311.289813
 21
-12222.31674
 31
-4019.667988
210
0.0
220
1.0
230
0.0
  0
LINE
  5
1FC6
100
AcDbEntity
  8
VIGACURVAE
100
AcDbLine
 10
4311.289813
 20
-12222.31674
 30
-4019.667988
 11
4145.911437
 21
-12221.939282
 31
-4133.686378
210
0.0
220
1.0
230
0.0
  0
LINE
  5
1FC7
100
AcDbEntity
  8
VIGACURVAE
100
AcDbLine
 10
4145.911437
 20
-12221.939282
 30
-4133.686378
 11
3936.092801
 21
-12221.222839
 31
-4288.894078
210
0.0
220
1.0
230
0.0
  0
LINE
  5
1FC8
100
AcDbEntity
  8
VIGACURVAE
100
AcDbLine
 10
3726.149955
 20
-12220.902165
 30
-4459.22617
 11
3520.820769
 21
-12205.062307
 31
-4625.646443
210
0.0
220
1.0
230
0.0
  0
LINE
  5
1FC9
100
AcDbEntity
  8
VIGACURVAE
100
AcDbLine
 10
3520.820769
 20
-12205.062307
 30
-4625.646443
 11
3317.098552
 21
-12184.102177
 31
-4793.825835
210
0.0
220
1.0
230
0.0
  0
LINE
  5
1FCA
100
AcDbEntity
  8
VIGACURVAE
100
AcDbLine
 10
3317.098552
 20
-12184.102177
 30
-4793.825835
 11
3285.918064
 21
-12180.866184
 31
-4819.667988
210
0.0
220
1.0
230
0.0
  0
LINE
  5
1FCB
100
AcDbEntity
  8
VIGACURVAE
100
AcDbLine
 10
3285.918064
 20
-12180.866184
 30
-4819.667988
 11
3113.431865
 21
-12162.965109
 31
-4962.623249
210
0.0
220
1.0
230
0.0
  0
LINE
  5
1FCC
100
AcDbEntity
  8
VIGACURVAE
100
AcDbLine
 10
3113.431865
 20
-12162.965109
 30
-4962.623249
 11
2908.119978
 21
-12147.070133
 31
-5142.605925
210
0.0
220
1.0
230
0.0
  0
LINE
  5
1FCD
100
AcDbEntity
  8
SECUNVOL
100
AcDbLine
 10
3776.14475
 20
-12220.978529
 30
-4419.667988
 11
3798.586287
 21
-12149.473177
 31
-4419.667988
  0
LINE
  5
1FCE
100
AcDbEntity
  8
VIGACURVAE
100
AcDbLine
 10
3726.149955
 20
-12220.902165
 30
-4459.22617
 11
3776.14475
 21
-12220.978529
 31
-4419.667988
  0
LINE
  5
1FCF
100
AcDbEntity
  8
VIGACURVAE
100
AcDbLine
 10
3776.14475
 20
-12220.978529
 30
-4419.667988
 11
3936.092801
 21
-12221.222839
 31
-4288.894078
  0
LINE
  5
1FD0
100
AcDbEntity
  8
SECUNVE
100
AcDbLine
 10
3726.082878
 20
-12221.115891
 30
-4419.667988
 11
3776.14475
 21
-12220.978529
 31
-4419.667988
  0
LINE
  5
1FD1
100
AcDbEntity
  8
VIGACURVA
100
AcDbLine
 10
3748.545047
 20
-12149.544798
 30
-4459.22617
 11
3798.586287
 21
-12149.473177
 31
-4419.667988
  0
LINE
  5
1FD2
100
AcDbEntity
  8
VIGACURVA
100
AcDbLine
 10
3798.586287
 20
-12149.473177
 30
-4419.667988
 11
3958.682926
 21
-12149.244041
 31
-4288.894078
  0
LINE
  5
1FD3
100
AcDbEntity
  8
SECUNVOL
100
AcDbLine
 10
4985.734382
 20
-12228.971061
 30
-3619.667988
 11
5010.758756
 21
-12149.236031
 31
-3619.667988
  0
LINE
  5
1FD4
100
AcDbEntity
  8
SECUNVOL
100
AcDbLine
 10
5041.611585
 20
-12229.089565
 30
-3619.667988
 11
5066.635958
 21
-12149.354535
 31
-3619.667988
  0
LINE
  5
1FD5
100
AcDbEntity
  8
VIGASN
100
AcDbLine
 10
5010.758756
 20
-12149.236031
 30
-3619.667988
 11
4589.096562
 21
-12148.341769
 31
-3619.667988
210
-0.4155648916357901
220
-0.9095635331518817
230
0.0
  0
LINE
  5
1FD6
100
AcDbEntity
  8
VIGACURVA
100
AcDbLine
 10
5010.758756
 20
-12149.236031
 30
-3643.546684
 11
5066.635958
 21
-12149.354535
 31
-3619.667988
210
0.0
220
1.0
230
0.0
  0
LINE
  5
1FD7
100
AcDbEntity
  8
VIGACURVA
100
AcDbLine
 10
5066.635958
 20
-12149.354535
 30
-3619.667988
 11
5221.589852
 21
-12149.683161
 31
-3553.449624
210
0.0
220
1.0
230
0.0
  0
LINE
  5
1FD8
100
AcDbEntity
  8
SECUNVE
100
AcDbLine
 10
4985.734382
 20
-12228.971061
 30
-3619.667988
 11
5041.611585
 21
-12229.089565
 31
-3619.667988
210
0.0
220
1.0
230
0.0
  0
LINE
  5
1FD9
100
AcDbEntity
  8
VIGACURVAE
100
AcDbLine
 10
4986.106811
 20
-12227.784394
 30
-3643.546684
 11
5041.611585
 21
-12229.089565
 31
-3619.667988
210
0.0
220
1.0
230
0.0
  0
LINE
  5
1FDA
100
AcDbEntity
  8
VIGACURVAE
100
AcDbLine
 10
5041.611585
 20
-12229.089565
 30
-3619.667988
 11
5195.579254
 21
-12232.560594
 31
-3553.449624
210
0.0
220
1.0
230
0.0
  0
LINE
  5
1FDB
100
AcDbEntity
  8
VIGASN
100
AcDbLine
 10
5010.758756
 20
-12149.236031
 30
-3619.667988
 11
5066.635958
 21
-12149.354535
 31
-3619.667988
210
0.0
220
1.0
230
0.0
  0
LINE
  5
1FDC
100
AcDbEntity
  8
VB_VOL
100
AcDbLine
 10
3113.431865
 20
-12162.965109
 30
-4921.717561
 11
3132.609387
 21
-12101.859869
 31
-4921.717561
  0
LINE
  5
1FDD
100
AcDbEntity
  8
VB
100
AcDbLine
 10
2927.297501
 20
-12085.964893
 30
-5045.393343
 11
3115.549218
 21
-12100.539093
 31
-4819.667988
210
0.0
220
1.0
230
0.0
  0
LINE
  5
1FDE
100
AcDbEntity
  8
VB_VOL
100
AcDbLine
 10
3317.098552
 20
-12184.102177
 30
-4583.479581
 11
3337.921274
 21
-12117.754845
 31
-4583.479581
  0
LINE
  5
1FDF
100
AcDbEntity
  8
VB_VOL
100
AcDbLine
 10
3520.762841
 20
-12205.246885
 30
-3932.614008
 11
3543.233161
 21
-12133.649821
 31
-3932.614008
  0
LINE
  5
1FE0
100
AcDbEntity
  8
VB_VOL
100
AcDbLine
 10
3723.964755
 20
-12227.864856
 30
-3170.517859
 11
3748.545047
 21
-12149.544798
 31
-3170.517859
  0
LINE
  5
1FE1
100
AcDbEntity
  8
VB_VOL
100
AcDbLine
 10
3925.740567
 20
-12254.208107
 30
-2966.561105
 11
3958.682926
 21
-12149.244041
 31
-2966.561105
  0
LINE
  5
1FE2
100
AcDbEntity
  8
VB_VOL
100
AcDbLine
 10
4131.803416
 20
-12266.891596
 30
-2987.36293
 11
4168.820805
 21
-12148.943283
 31
-2987.36293
  0
LINE
  5
1FE3
100
AcDbEntity
  8
VB_VOL
100
AcDbLine
 10
4336.806397
 20
-12282.952138
 30
-2741.18277
 11
4378.958684
 21
-12148.642526
 31
-2741.18277
  0
LINE
  5
1FE4
100
AcDbEntity
  8
VB_VOL
100
AcDbLine
 10
4546.862237
 20
-12282.91278
 30
-2688.10406
 11
4589.096562
 21
-12148.341769
 31
-2688.10406
  0
LINE
  5
1FE5
100
AcDbEntity
  8
VB_VOL
100
AcDbLine
 10
4757.882055
 20
-12282.75859
 30
-2670.380331
 11
4799.927659
 21
-12148.7889
 31
-2670.380331
  0
LINE
  5
1FE7
100
AcDbEntity
  8
VB_VOL
100
AcDbLine
 10
5184.790288
 20
-12266.937421
 30
-2705.950142
 11
5221.589852
 21
-12149.683161
 31
-2705.950142
  0
LINE
  5
1FE8
100
AcDbEntity
  8
VB_VOL
100
AcDbLine
 10
5398.52639
 20
-12258.12835
 30
-2741.710485
 11
5432.420949
 21
-12150.130292
 31
-2741.710485
  0
LINE
  5
1FE9
100
AcDbEntity
  8
VB_VOL
100
AcDbLine
 10
5610.166602
 20
-12250.268533
 30
-2783.022212
 11
5641.996556
 21
-12148.848918
 31
-2783.022212
  0
LINE
  5
1FEA
100
AcDbEntity
  8
VB_VOL
100
AcDbLine
 10
5822.191195
 20
-12241.183969
 30
-2829.86799
 11
5851.572162
 21
-12147.567545
 31
-2829.86799
  0
LINE
  5
1FEB
100
AcDbEntity
  8
VB_VOL
100
AcDbLine
 10
6034.068351
 20
-12232.56918
 30
-2883.910331
 11
6061.147768
 21
-12146.286172
 31
-2883.910331
  0
LINE
  5
1FEC
100
AcDbEntity
  8
VB_VOL
100
AcDbLine
 10
6246.091664
 20
-12223.488689
 30
-2939.340573
 11
6270.723375
 21
-12145.004798
 31
-2939.340573
  0
LINE
  5
1FED
100
AcDbEntity
  8
VB_VOL
100
AcDbLine
 10
6458.438877
 20
-12216.768694
 30
-2995.708671
 11
6482.334897
 21
-12140.628932
 31
-2995.708671
  0
LINE
  5
1FEE
100
AcDbEntity
  8
VB_VOL
100
AcDbLine
 10
6671.328175
 20
-12208.321456
 30
-3052.076769
 11
6693.946418
 21
-12136.253066
 31
-3052.076769
  0
LINE
  5
1FEF
100
AcDbEntity
  8
VB_VOL
100
AcDbLine
 10
7097.106771
 20
-12191.426982
 30
-3164.654983
 11
7117.169462
 21
-12127.501334
 31
-3164.654983
  0
LINE
  5
1FF0
100
AcDbEntity
  8
VB_VOL
100
AcDbLine
 10
7311.875766
 20
-12176.91349
 30
-3219.667988
 11
7331.599724
 21
-12114.067145
 31
-3219.667988
  0
LINE
  5
1FF1
100
AcDbEntity
  8
VB_VOL
100
AcDbLine
 10
7526.306028
 20
-12163.4793
 30
-3272.685118
 11
7546.029986
 21
-12100.632955
 31
-3272.685118
  0
LINE
  5
1FF2
100
AcDbEntity
  8
VB_VOL
100
AcDbLine
 10
7740.73629
 20
-12150.04511
 30
-3326.700185
 11
7760.460248
 21
-12087.198765
 31
-3326.700185
  0
LINE
  5
1FF3
100
AcDbEntity
  8
VB_VOL
100
AcDbLine
 10
7955.166552
 20
-12136.610921
 30
-3380.64771
 11
7974.89051
 21
-12073.764576
 31
-3380.64771
  0
LINE
  5
1FF4
100
AcDbEntity
  8
VB_VOL
100
AcDbLine
 10
2908.119978
 20
-12147.070133
 30
-4948.180762
 11
2927.297501
 21
-12085.964893
 31
-4948.180762
  0
LINE
  5
1FF5
100
AcDbEntity
  8
VB
100
AcDbLine
 10
3132.609387
 20
-12101.859869
 30
-4799.211799
 11
3308.98161
 21
-12115.514375
 31
-4419.667988
210
0.0
220
1.0
230
0.0
  0
LINE
  5
1FF6
100
AcDbEntity
  8
VB
100
AcDbLine
 10
3337.921274
 20
-12117.754845
 30
-4357.391343
 11
3543.233161
 21
-12133.649821
 31
-3722.88282
210
0.0
220
1.0
230
0.0
  0
LINE
  5
1FF7
100
AcDbEntity
  8
VB
100
AcDbLine
 10
3592.395157
 20
-12137.455879
 30
-3619.667988
 11
3748.545047
 21
-12149.544798
 31
-3291.833771
210
0.0
220
1.0
230
0.0
  0
LINE
  5
1FF8
100
AcDbEntity
  8
VB
100
AcDbLine
 10
3813.538869
 20
-12149.451776
 30
-3219.667988
 11
3958.682926
 21
-12149.244041
 31
-3058.507522
210
0.0
220
1.0
230
0.0
  0
LINE
  5
1FF9
100
AcDbEntity
  8
VB
100
AcDbLine
 10
3958.682926
 20
-12149.244041
 30
-3058.507522
 11
4168.820805
 21
-12148.943283
 31
-2907.662342
210
0.0
220
1.0
230
0.0
  0
LINE
  5
1FFA
100
AcDbEntity
  8
VB
100
AcDbLine
 10
4168.820805
 20
-12148.943283
 30
-2907.662342
 11
4378.958684
 21
-12148.642526
 31
-2813.532762
210
0.0
220
1.0
230
0.0
  0
LINE
  5
1FFB
100
AcDbEntity
  8
VB
100
AcDbLine
 10
4378.958684
 20
-12148.642526
 30
-2813.532762
 11
4589.096562
 21
-12148.341769
 31
-2757.388846
210
0.0
220
1.0
230
0.0
  0
LINE
  5
1FFC
100
AcDbEntity
  8
VB
100
AcDbLine
 10
4589.096562
 20
-12148.341769
 30
-2757.388846
 11
4799.927659
 21
-12148.7889
 31
-2738.399723
210
0.0
220
1.0
230
0.0
  0
LINE
  5
1FFD
100
AcDbEntity
  8
VB
100
AcDbLine
 10
4799.927659
 20
-12148.7889
 30
-2738.399723
 11
5010.789312
 21
-12149.236031
 31
-2747.782558
210
0.0
220
1.0
230
0.0
  0
LINE
  5
1FFE
100
AcDbEntity
  8
VB
100
AcDbLine
 10
5010.789312
 20
-12149.236031
 30
-2747.782558
 11
5221.589852
 21
-12149.683161
 31
-2774.787575
210
0.0
220
1.0
230
0.0
  0
LINE
  5
1FFF
100
AcDbEntity
  8
VB
100
AcDbLine
 10
5221.589852
 20
-12149.683161
 30
-2774.787575
 11
5432.420949
 21
-12150.130292
 31
-2811.077759
210
0.0
220
1.0
230
0.0
  0
LINE
  5
2000
100
AcDbEntity
  8
VB
100
AcDbLine
 10
5432.420949
 20
-12150.130292
 30
-2811.077759
 11
5641.996556
 21
-12148.848918
 31
-2852.657947
210
0.0
220
1.0
230
0.0
  0
LINE
  5
2001
100
AcDbEntity
  8
VB
100
AcDbLine
 10
5641.996556
 20
-12148.848918
 30
-2852.657947
 11
5851.572162
 21
-12147.567545
 31
-2899.879664
210
0.0
220
1.0
230
0.0
  0
LINE
  5
2002
100
AcDbEntity
  8
VB
100
AcDbLine
 10
5851.572162
 20
-12147.567545
 30
-2899.879664
 11
6061.147768
 21
-12146.286172
 31
-2954.516691
210
0.0
220
1.0
230
0.0
  0
LINE
  5
2003
100
AcDbEntity
  8
VB
100
AcDbLine
 10
6061.147768
 20
-12146.286172
 30
-2954.516691
 11
6270.723375
 21
-12145.004798
 31
-3009.996783
210
0.0
220
1.0
230
0.0
  0
LINE
  5
2004
100
AcDbEntity
  8
VB
100
AcDbLine
 10
6270.723375
 20
-12145.004798
 30
-3009.996783
 11
6482.334897
 21
-12140.628932
 31
-3066.308867
210
0.0
220
1.0
230
0.0
  0
LINE
  5
2005
100
AcDbEntity
  8
VB
100
AcDbLine
 10
6482.334897
 20
-12140.628932
 30
-3066.308867
 11
6693.946418
 21
-12136.253066
 31
-3122.620951
210
0.0
220
1.0
230
0.0
  0
LINE
  5
2006
100
AcDbEntity
  8
VB
100
AcDbLine
 10
6693.946418
 20
-12136.253066
 30
-3122.620951
 11
6905.55794
 21
-12131.8772
 31
-3178.933036
210
0.0
220
1.0
230
0.0
  0
LINE
  5
2007
100
AcDbEntity
  8
VB
100
AcDbLine
 10
6905.55794
 20
-12131.8772
 30
-3178.933036
 11
7117.169462
 21
-12127.501334
 31
-3235.091321
210
0.0
220
1.0
230
0.0
  0
LINE
  5
2008
100
AcDbEntity
  8
VB
100
AcDbLine
 10
7117.169462
 20
-12127.501334
 30
-3235.091321
 11
7331.599724
 21
-12114.067145
 31
-3289.605357
210
0.0
220
1.0
230
0.0
  0
LINE
  5
2009
100
AcDbEntity
  8
VB
100
AcDbLine
 10
7331.599724
 20
-12114.067145
 30
-3289.605357
 11
7546.029986
 21
-12100.632955
 31
-3343.121456
210
0.0
220
1.0
230
0.0
  0
LINE
  5
200A
100
AcDbEntity
  8
VB
100
AcDbLine
 10
7546.029986
 20
-12100.632955
 30
-3343.121456
 11
7760.460248
 21
-12087.198765
 31
-3397.136523
210
0.0
220
1.0
230
0.0
  0
LINE
  5
200B
100
AcDbEntity
  8
VB
100
AcDbLine
 10
7760.460248
 20
-12087.198765
 30
-3397.136523
 11
7974.89051
 21
-12073.764576
 31
-3451.081907
210
0.0
220
1.0
230
0.0
  0
LINE
  5
200C
100
AcDbEntity
  8
VBCONTORNO
100
AcDbLine
 10
2927.297501
 20
-12085.964893
 30
-4948.180762
 11
3132.609387
 21
-12101.859869
 31
-4676.706036
210
0.0
220
1.0
230
0.0
  0
LINE
  5
200D
100
AcDbEntity
  8
VBCONTORNO
100
AcDbLine
 10
3229.368982
 20
-12109.35087
 30
-4419.667988
 11
3337.921274
 21
-12117.754845
 31
-4131.303106
210
0.0
220
1.0
230
0.0
  0
LINE
  5
200E
100
AcDbEntity
  8
VBCONTORNO
100
AcDbLine
 10
3337.921274
 20
-12117.754845
 30
-4131.303106
 11
3374.999592
 21
-12120.6254
 31
-4019.667988
210
0.0
220
1.0
230
0.0
  0
LINE
  5
200F
100
AcDbEntity
  8
VBCONTORNO
100
AcDbLine
 10
3132.609387
 20
-12101.859869
 30
-4921.717561
 11
2927.297501
 21
-12085.964893
 31
-5142.605925
210
0.0
220
1.0
230
0.0
  0
LINE
  5
2010
100
AcDbEntity
  8
VBCONTORNO
100
AcDbLine
 10
3132.609387
 20
-12101.859869
 30
-4921.717561
 11
3337.921274
 21
-12117.754845
 31
-4583.479581
210
0.0
220
1.0
230
0.0
  0
LINE
  5
2011
100
AcDbEntity
  8
VBCONTORNO
100
AcDbLine
 10
3389.59472
 20
-12121.755336
 30
-4419.667988
 11
3543.233161
 21
-12133.649821
 31
-3932.614008
210
0.0
220
1.0
230
0.0
  0
LINE
  5
203F
100
AcDbEntity
  8
ALIN2E
100
AcDbLine
 10
7955.166552
 20
-12136.610921
 30
-3186.939798
 11
7740.73629
 21
-12150.04511
 31
-3133.000255
210
0.0
220
-1.0
230
0.0
  0
LINE
  5
2040
100
AcDbEntity
  8
ALIN2E
100
AcDbLine
 10
7740.73629
 20
-12150.04511
 30
-3133.000255
 11
7526.306028
 21
-12163.4793
 31
-3078.985188
210
0.0
220
-1.0
230
0.0
  0
LINE
  5
2041
100
AcDbEntity
  8
ALIN2E
100
AcDbLine
 10
7526.306028
 20
-12163.4793
 30
-3078.985188
 11
7311.875766
 21
-12176.91349
 31
-3024.97012
210
0.0
220
-1.0
230
0.0
  0
LINE
  5
2042
100
AcDbEntity
  8
ALIN2E
100
AcDbLine
 10
7311.875766
 20
-12176.91349
 30
-3024.97012
 11
7097.106771
 21
-12191.426982
 31
-2970.80168
210
0.0
220
-1.0
230
0.0
  0
LINE
  5
2045
100
AcDbEntity
  8
ALIN2E
100
AcDbLine
 10
6671.328175
 20
-12208.321456
 30
-2858.013606
 11
6528.34759
 21
-12213.994785
 31
-2819.667988
210
0.0
220
-1.0
230
0.0
  0
LINE
  5
2046
100
AcDbEntity
  8
ALIN2E
100
AcDbLine
 10
6458.438877
 20
-12216.768694
 30
-2800.919339
 11
6246.091664
 21
-12223.488689
 31
-2744.018841
210
0.0
220
-1.0
230
0.0
  0
LINE
  5
2047
100
AcDbEntity
  8
ALIN2E
100
AcDbLine
 10
6246.091664
 20
-12223.488689
 30
-2744.018841
 11
6034.183156
 21
-12232.203377
 31
-2695.568612
210
0.0
220
-1.0
230
0.0
  0
LINE
  5
2048
100
AcDbEntity
  8
ALIN2E
100
AcDbLine
 10
6034.183156
 20
-12232.203377
 30
-2695.568612
 11
5821.696353
 21
-12242.760678
 31
-2643.551059
210
0.0
220
-1.0
230
0.0
  0
LINE
  5
2049
100
AcDbEntity
  8
ALIN2E
100
AcDbLine
 10
5821.696353
 20
-12242.760678
 30
-2643.551059
 11
5609.209551
 21
-12253.317979
 31
-2597.884969
210
0.0
220
-1.0
230
0.0
  0
LINE
  5
204A
100
AcDbEntity
  8
ALIN2E
100
AcDbLine
 10
5609.209551
 20
-12253.317979
 30
-2597.884969
 11
5396.761767
 21
-12263.750957
 31
-2551.268035
210
0.0
220
-1.0
230
0.0
  0
LINE
  5
204B
100
AcDbEntity
  8
ALIN2E
100
AcDbLine
 10
5396.761767
 20
-12263.750957
 30
-2551.268035
 11
5182.454141
 21
-12274.381075
 31
-2522.440095
210
0.0
220
-1.0
230
0.0
  0
LINE
  5
204C
100
AcDbEntity
  8
ALIN2E
100
AcDbLine
 10
5182.454141
 20
-12274.381075
 30
-2522.440095
 11
4968.142486
 21
-12285.024027
 31
-2491.742001
210
0.0
220
-1.0
230
0.0
  0
LINE
  5
204D
100
AcDbEntity
  8
ALIN2E
100
AcDbLine
 10
4968.142486
 20
-12285.024027
 30
-2491.742001
 11
4754.816964
 21
-12292.524871
 31
-2488.276141
210
0.0
220
-1.0
230
0.0
  0
LINE
  5
204E
100
AcDbEntity
  8
ALIN2E
100
AcDbLine
 10
4754.816964
 20
-12292.524871
 30
-2488.276141
 11
4543.7835
 21
-12292.722543
 31
-2498.987063
210
0.0
220
-1.0
230
0.0
  0
LINE
  5
204F
100
AcDbEntity
  8
ALIN2E
100
AcDbLine
 10
4543.7835
 20
-12292.722543
 30
-2498.987063
 11
4333.815502
 21
-12292.482011
 31
-2544.689845
210
0.0
220
-1.0
230
0.0
  0
LINE
  5
2050
100
AcDbEntity
  8
ALIN2E
100
AcDbLine
 10
4333.815502
 20
-12292.482011
 30
-2544.689845
 11
4127.275136
 21
-12281.320031
 31
-2619.425174
210
0.0
220
-1.0
230
0.0
  0
LINE
  5
2051
100
AcDbEntity
  8
ALIN2E
100
AcDbLine
 10
4127.275136
 20
-12281.320031
 30
-2619.425174
 11
3923.95102
 21
-12259.910133
 31
-2737.974878
210
0.0
220
-1.0
230
0.0
  0
LINE
  5
2053
100
AcDbEntity
  8
ALIN2E
100
AcDbLine
 10
3723.514192
 20
-12229.300482
 30
-2904.801167
 11
3520.696241
 21
-12205.459092
 31
-3135.840866
210
0.0
220
-1.0
230
0.0
  0
LINE
  5
2057
100
AcDbEntity
  8
ALIN2E
100
AcDbLine
 10
2908.119978
 20
-12147.070133
 30
-4646.23335
 11
3016.447728
 21
-12152.899839
 31
-4419.667988
210
0.0
220
-1.0
230
0.0
  0
LINE
  5
2058
100
AcDbEntity
  8
ALIN2E
100
AcDbLine
 10
3016.447728
 20
-12152.899839
 30
-4419.667988
 11
3113.431865
 21
-12162.965109
 31
-4153.696806
210
0.0
220
-1.0
230
0.0
  0
LINE
  5
2059
100
AcDbEntity
  8
ALIN2E
100
AcDbLine
 10
3113.431865
 20
-12162.965109
 30
-4153.696806
 11
3171.622347
 21
-12169.004272
 31
-4019.667988
210
0.0
220
-1.0
230
0.0
  0
LINE
  5
205A
100
AcDbEntity
  8
ALIN2E
100
AcDbLine
 10
3171.622347
 20
-12169.004272
 30
-4019.667988
 11
3287.768282
 21
-12181.831466
 31
-3619.667988
210
0.0
220
-1.0
230
0.0
  0
LINE
  5
205B
100
AcDbEntity
  8
ALIN2E
100
AcDbLine
 10
3287.768282
 20
-12181.831466
 30
-3619.667988
 11
3317.098552
 21
-12184.102177
 31
-3519.529931
210
0.0
220
-1.0
230
0.0
  0
LINE
  5
205C
100
AcDbEntity
  8
ALIN2E
100
AcDbLine
 10
3317.098552
 20
-12184.102177
 30
-3519.529931
 11
3469.375276
 21
-12201.463022
 31
-3219.667988
210
0.0
220
-1.0
230
0.0
  0
LINE
  5
205D
100
AcDbEntity
  8
ALIN2E
100
AcDbLine
 10
3469.375276
 20
-12201.463022
 30
-3219.667988
 11
3520.696241
 21
-12205.459092
 31
-3135.840866
210
0.0
220
-1.0
230
0.0
  0
LINE
  5
205F
100
AcDbEntity
  8
ALIN2E
100
AcDbLine
 10
3723.514192
 20
-12229.300482
 30
-2904.801167
 11
3816.543649
 21
-12243.507448
 31
-2819.667988
210
0.0
220
-1.0
230
0.0
  0
LINE
  5
2060
100
AcDbEntity
  8
ALIN2E
100
AcDbLine
 10
3816.543649
 20
-12243.507448
 30
-2819.667988
 11
3923.95102
 21
-12259.910133
 31
-2737.974878
210
0.0
220
-1.0
230
0.0
  0
LINE
  5
2065
100
AcDbEntity
  8
SECUNVE
100
AcDbLine
 10
6246.091664
 20
-12223.488689
 30
-2819.667988
 11
6458.438877
 21
-12216.768694
 31
-2819.667988
210
0.0
220
-1.0
230
0.0
  0
LINE
  5
2066
100
AcDbEntity
  8
SECUNVE
100
AcDbLine
 10
6458.438877
 20
-12216.768694
 30
-2819.667988
 11
6528.34759
 21
-12213.994785
 31
-2819.667988
210
0.0
220
-1.0
230
0.0
  0
LINE
  5
2067
100
AcDbEntity
  8
ALIN2E
100
AcDbLine
 10
6528.34759
 20
-12213.994785
 30
-2819.667988
 11
6458.438877
 21
-12216.768694
 31
-2800.919339
210
0.0
220
-1.0
230
0.0
  0
LINE
  5
2068
100
AcDbEntity
  8
SECUNPE
100
AcDbLine
 10
6246.091664
 20
-12223.488689
 30
-2819.667988
 11
6246.091664
 21
-12223.488689
 31
-2744.018841
210
0.0
220
-1.0
230
0.0
  0
LINE
  5
2069
100
AcDbEntity
  8
SECUNPE
100
AcDbLine
 10
6458.438877
 20
-12216.768694
 30
-2819.667988
 11
6458.438877
 21
-12216.768694
 31
-2800.919339
210
0.0
220
-1.0
230
0.0
  0
LINE
  5
206A
100
AcDbEntity
  8
SECUNPE
100
AcDbLine
 10
7740.73629
 20
-12150.04511
 30
-3133.000255
 11
7740.73629
 21
-12150.04511
 31
-3219.667988
210
0.0
220
-1.0
230
0.0
  0
LINE
  5
206B
100
AcDbEntity
  8
SECUNVE
100
AcDbLine
 10
7740.73629
 20
-12150.04511
 30
-3219.667988
 11
7955.166552
 21
-12136.610921
 31
-3219.667988
210
0.0
220
-1.0
230
0.0
  0
LINE
  5
206C
100
AcDbEntity
  8
SECUNPE
100
AcDbLine
 10
7955.166552
 20
-12136.610921
 30
-3219.667988
 11
7955.166552
 21
-12136.610921
 31
-3186.939798
210
0.0
220
-1.0
230
0.0
  0
LINE
  5
206D
100
AcDbEntity
  8
VB_VOL
100
AcDbLine
 10
3113.431865
 20
-12162.965109
 30
-4676.706036
 11
3132.609387
 21
-12101.859869
 31
-4676.706036
210
0.0
220
-1.0
230
0.0
  0
LINE
  5
206E
100
AcDbEntity
  8
SECUNPE
100
AcDbLine
 10
3113.431865
 20
-12162.965109
 30
-4676.706036
 11
3113.431865
 21
-12162.965109
 31
-4819.667988
210
0.0
220
-1.0
230
0.0
  0
LINE
  5
206F
100
AcDbEntity
  8
SECUNPE
100
AcDbLine
 10
3113.431865
 20
-12162.965109
 30
-4819.667988
 11
3113.431865
 21
-12162.965109
 31
-4921.717561
210
0.0
220
-1.0
230
0.0
  0
LINE
  5
2073
100
AcDbEntity
  8
VB_VOL
100
AcDbLine
 10
3174.880016
 20
-12169.342361
 30
-4819.667988
 11
3194.553911
 21
-12106.655533
 31
-4819.667988
210
0.0
220
-1.0
230
0.0
  0
LINE
  5
2074
100
AcDbEntity
  8
VB_VOL
100
AcDbLine
 10
3005.312083
 20
-12154.594618
 30
-4819.667988
 11
3024.489606
 21
-12093.489378
 31
-4819.667988
210
0.0
220
-1.0
230
0.0
  0
LINE
  5
2075
100
AcDbEntity
  8
SECUNVE
100
AcDbLine
 10
3005.312083
 20
-12154.594618
 30
-4819.667988
 11
3113.431865
 21
-12162.965109
 31
-4819.667988
210
0.0
220
-1.0
230
0.0
  0
LINE
  5
2076
100
AcDbEntity
  8
SECUNVI
100
AcDbLine
 10
3194.553911
 20
-12106.655533
 30
-4819.667988
 11
3306.488913
 21
-12115.321393
 31
-4819.667988
210
-0.4155648916357901
220
-0.9095635331518817
230
0.0
  0
LINE
  5
2078
100
AcDbEntity
  8
VB
100
AcDbLine
 10
3132.609387
 20
-12101.859869
 30
-4799.211799
 11
3115.549218
 21
-12100.539093
 31
-4819.667988
210
0.0
220
-1.0
230
0.0
  0
LINE
  5
2079
100
AcDbEntity
  8
VB_AUXB
100
AcDbLine
 10
3132.609387
 20
-12101.859869
 30
-4819.667988
 11
3194.553911
 21
-12106.655533
 31
-4819.667988
210
0.0
220
-1.0
230
0.0
  0
LINE
  5
207C
100
AcDbEntity
  8
SECUNPE2
100
AcDbLine
 10
3317.098552
 20
-12184.102177
 30
-4131.303106
 11
3317.098552
 21
-12184.102177
 31
-4419.667988
210
0.0
220
-1.0
230
0.0
  0
LINE
  5
207D
100
AcDbEntity
  8
SECUNPE
100
AcDbLine
 10
3317.098552
 20
-12184.102177
 30
-4419.667988
 11
3317.098552
 21
-12184.102177
 31
-4583.479581
210
0.0
220
-1.0
230
0.0
  0
LINE
  5
207E
100
AcDbEntity
  8
SECUNVE
100
AcDbLine
 10
3317.098552
 20
-12184.102177
 30
-4419.667988
 11
3368.364013
 21
-12189.402626
 31
-4419.667988
210
0.0
220
-1.0
230
0.0
  0
LINE
  5
207F
100
AcDbEntity
  8
VB_AUXB
100
AcDbLine
 10
3229.368982
 20
-12109.35087
 30
-4419.667988
 11
3308.98161
 21
-12115.514375
 31
-4419.667988
210
0.0
220
-1.0
230
0.0
  0
LINE
  5
2080
100
AcDbEntity
  8
VB_VOL
100
AcDbLine
 10
3209.416108
 20
-12172.926608
 30
-4419.667988
 11
3229.368982
 21
-12109.35087
 31
-4419.667988
  0
LINE
  5
2081
100
AcDbEntity
  8
SECUNVE
100
AcDbLine
 10
3209.416108
 20
-12172.926608
 30
-4419.667988
 11
3317.098552
 21
-12184.102177
 31
-4419.667988
210
0.0
220
-1.0
230
0.0
  0
LINE
  5
2082
100
AcDbEntity
  8
VB_AUXB
100
AcDbLine
 10
3132.609387
 20
-12101.859869
 30
-4819.667988
 11
3132.609387
 21
-12101.859869
 31
-4921.717561
210
0.0
220
-1.0
230
0.0000000000000001
  0
LINE
  5
2083
100
AcDbEntity
  8
VB_AUXB
100
AcDbLine
 10
3115.549218
 20
-12100.539093
 30
-4819.667988
 11
3132.609387
 21
-12101.859869
 31
-4819.667988
210
0.0
220
-1.0
230
0.0
  0
LINE
  5
2084
100
AcDbEntity
  8
VB_AUXB
100
AcDbLine
 10
3132.609387
 20
-12101.859869
 30
-4819.667988
 11
3132.609387
 21
-12101.859869
 31
-4799.211799
210
0.0
220
-1.0
230
0.0
  0
LINE
  5
2085
100
AcDbEntity
  8
VB_AUXB
100
AcDbLine
 10
3337.921274
 20
-12117.754845
 30
-4419.667988
 11
3389.59472
 21
-12121.755336
 31
-4419.667988
210
0.0
220
-1.0
230
0.0
  0
LINE
  5
2086
100
AcDbEntity
  8
VB_AUXB
100
AcDbLine
 10
3337.921274
 20
-12117.754845
 30
-4419.667988
 11
3337.921274
 21
-12117.754845
 31
-4583.479581
210
0.0
220
-1.0
230
0.0000000000000001
  0
LINE
  5
2087
100
AcDbEntity
  8
VB_AUXB
100
AcDbLine
 10
3308.98161
 20
-12115.514375
 30
-4419.667988
 11
3337.921274
 21
-12117.754845
 31
-4419.667988
210
0.0
220
-1.0
230
0.0
  0
LINE
  5
2088
100
AcDbEntity
  8
VB_AUXB
100
AcDbLine
 10
3337.921274
 20
-12117.754845
 30
-4419.667988
 11
3337.921274
 21
-12117.754845
 31
-4357.391343
210
0.0
220
-1.0
230
0.0
  0
LINE
  5
2089
100
AcDbEntity
  8
VB
100
AcDbLine
 10
3337.921274
 20
-12117.754845
 30
-4357.391343
 11
3308.98161
 21
-12115.514375
 31
-4419.667988
210
0.0
220
-1.0
230
0.0
  0
LINE
  5
208A
100
AcDbEntity
  8
VB_VOL
100
AcDbLine
 10
3493.302152
 20
-12203.120914
 30
-4019.667988
 11
3515.772472
 21
-12131.523851
 31
-4019.667988
  0
LINE
  5
208B
100
AcDbEntity
  8
VB_VOL
100
AcDbLine
 10
3353.879754
 20
-12187.919428
 30
-4019.667988
 11
3374.999592
 21
-12120.6254
 31
-4019.667988
  0
LINE
  5
208C
100
AcDbEntity
  8
SECUNVI
100
AcDbLine
 10
3543.233161
 20
-12133.649821
 30
-4019.667988
 11
3515.772472
 21
-12131.523851
 31
-4019.667988
210
0.0
220
-1.0
230
0.0
  0
LINE
  5
208D
100
AcDbEntity
  8
SECUNVE2
100
AcDbLine
 10
3520.770117
 20
-12205.223699
 30
-4019.667988
 11
3493.302152
 21
-12203.120914
 31
-4019.667988
210
0.0
220
-1.0
230
0.0
  0
LINE
  5
208E
100
AcDbEntity
  8
SECUNVE2
100
AcDbLine
 10
3493.302152
 20
-12203.120914
 30
-4019.667988
 11
3353.879754
 21
-12187.919428
 31
-4019.667988
210
0.0
220
-1.0
230
0.0
  0
LINE
  5
208F
100
AcDbEntity
  8
SECUNPE2
100
AcDbLine
 10
3520.727779
 20
-12205.358602
 30
-3513.151632
 11
3520.736682
 21
-12205.330233
 31
-3619.667988
210
0.0
220
-1.0
230
0.0
  0
LINE
  5
2090
100
AcDbEntity
  8
SECUNPE2
100
AcDbLine
 10
3520.736682
 20
-12205.330233
 30
-3619.667988
 11
3520.762841
 21
-12205.246885
 31
-3932.614008
210
0.0
220
-1.0
230
0.0
  0
LINE
  5
2091
100
AcDbEntity
  8
VB_VOL
100
AcDbLine
 10
3643.409248
 20
-12218.141686
 30
-3619.667988
 11
3666.921227
 21
-12143.225589
 31
-3619.667988
  0
LINE
  5
2098
100
AcDbEntity
  8
VBCONTORNO
100
AcDbLine
 10
3374.999592
 20
-12120.6254
 30
-4019.667988
 11
3543.233161
 21
-12133.649821
 31
-3513.151632
210
0.0
220
-1.0
230
0.0
  0
LINE
  5
2099
100
AcDbEntity
  8
VIGASN
100
AcDbLine
 10
3666.921227
 20
-12143.225589
 30
-3619.667988
 11
3748.545047
 21
-12149.544798
 31
-3619.667988
210
0.0
220
-1.0
230
0.0
  0
LINE
  5
209A
100
AcDbEntity
  8
VB_VOL
100
AcDbLine
 10
3485.646915
 20
-12201.672335
 30
-3619.667988
 11
3507.854981
 21
-12130.910889
 31
-3619.667988
  0
LINE
  5
209B
100
AcDbEntity
  8
SECUNVE2
100
AcDbLine
 10
3485.646915
 20
-12201.672335
 30
-3619.667988
 11
3520.736682
 21
-12205.330233
 31
-3619.667988
210
0.0
220
-1.0
230
0.0
  0
LINE
  5
209C
100
AcDbEntity
  8
VB_AUXB
100
AcDbLine
 10
3592.395157
 20
-12137.455879
 30
-3619.667988
 11
3666.921227
 21
-12143.225589
 31
-3619.667988
210
-0.4155648916357901
220
-0.9095635331518817
230
0.0
  0
LINE
  5
209D
100
AcDbEntity
  8
VB_AUXB
100
AcDbLine
 10
3543.233161
 20
-12133.649821
 30
-3722.88282
 11
3543.233161
 21
-12133.649821
 31
-3932.614008
210
0.0
220
-1.0
230
0.0000000000000001
  0
LINE
  5
209E
100
AcDbEntity
  8
VB_AUXB
100
AcDbLine
 10
3592.395157
 20
-12137.455879
 30
-3619.667988
 11
3543.233161
 21
-12133.649821
 31
-3619.667988
210
0.0
220
-1.0
230
0.0
  0
LINE
  5
209F
100
AcDbEntity
  8
VB_AUXB
100
AcDbLine
 10
3543.233161
 20
-12133.649821
 30
-3619.667988
 11
3543.233161
 21
-12133.649821
 31
-3722.88282
210
0.0
220
-1.0
230
0.0
  0
LINE
  5
20A0
100
AcDbEntity
  8
VB
100
AcDbLine
 10
3543.233161
 20
-12133.649821
 30
-3722.88282
 11
3592.395157
 21
-12137.455879
 31
-3619.667988
210
0.0
220
-1.0
230
0.0
  0
LINE
  5
20A1
100
AcDbEntity
  8
SECUNPE2
100
AcDbLine
 10
3724.376174
 20
-12226.553954
 30
-3413.149683
 11
3724.048096
 21
-12227.599305
 31
-3219.667988
210
0.0
220
-1.0
230
0.0
  0
LINE
  5
20A2
100
AcDbEntity
  8
SECUNPE2
100
AcDbLine
 10
3724.048096
 20
-12227.599305
 30
-3219.667988
 11
3723.964755
 21
-12227.864856
 31
-3170.517859
210
0.0
220
-1.0
230
0.0
  0
LINE
  5
20A3
100
AcDbEntity
  8
VB_VOL
100
AcDbLine
 10
3695.583405
 20
-12224.496941
 30
-3219.667988
 11
3719.093468
 21
-12149.58695
 31
-3219.667988
  0
LINE
  5
20A4
100
AcDbEntity
  8
VB_VOL
100
AcDbLine
 10
3874.058856
 20
-12242.547141
 30
-3219.667988
 11
3903.316619
 21
-12149.323283
 31
-3219.667988
  0
LINE
  5
20AB
100
AcDbEntity
  8
SECUNVE2
100
AcDbLine
 10
3695.583405
 20
-12224.496941
 30
-3219.667988
 11
3724.048096
 21
-12227.599305
 31
-3219.667988
210
0.0
220
-1.0
230
0.0
  0
LINE
  5
20AC
100
AcDbEntity
  8
VB_AUXB
100
AcDbLine
 10
3748.545047
 20
-12149.544798
 30
-3291.833771
 11
3748.545047
 21
-12149.544798
 31
-3413.149683
210
0.0
220
-1.0
230
0.0000000000000001
  0
LINE
  5
20AE
100
AcDbEntity
  8
VB
100
AcDbLine
 10
3748.545047
 20
-12149.544798
 30
-3291.833771
 11
3813.538869
 21
-12149.451776
 31
-3219.667988
210
0.0
220
-1.0
230
0.0
  0
LINE
  5
20AF
100
AcDbEntity
  8
VB_AUXB
100
AcDbLine
 10
3748.545047
 20
-12149.544798
 30
-3291.833771
 11
3748.545047
 21
-12149.544798
 31
-3219.667988
210
0.0
220
-1.0
230
0.0
  0
LINE
  5
20B0
100
AcDbEntity
  8
VB_AUXB
100
AcDbLine
 10
3748.545047
 20
-12149.544798
 30
-3219.667988
 11
3813.538869
 21
-12149.451776
 31
-3219.667988
210
0.0
220
-1.0
230
0.0
  0
LINE
  5
20B1
100
AcDbEntity
  8
SECUNPE2
100
AcDbLine
 10
3927.180221
 20
-12249.620946
 30
-3150.45394
 11
3925.740567
 21
-12254.208107
 31
-2966.561105
210
0.0
220
-1.0
230
0.0
  0
LINE
  5
20B2
100
AcDbEntity
  8
SECUNPE2
100
AcDbLine
 10
4129.739562
 20
-12273.467642
 30
-2819.667988
 11
4129.841635
 21
-12273.142408
 31
-2827.961754
210
0.0
220
-1.0
230
0.0
  0
LINE
  5
20B3
100
AcDbEntity
  8
SECUNPE2
100
AcDbLine
 10
4129.841635
 20
-12273.142408
 30
-2827.961754
 11
4131.803416
 21
-12266.891596
 31
-2987.36293
210
0.0
220
-1.0
230
0.0
  0
LINE
  5
20B4
100
AcDbEntity
  8
SECUNPE2
100
AcDbLine
 10
4336.806397
 20
-12282.952138
 30
-2741.18277
 11
4338.001051
 21
-12279.145618
 31
-2819.667988
210
0.0
220
-1.0
230
0.0
  0
LINE
  5
20B5
100
AcDbEntity
  8
SECUNPE2
100
AcDbLine
 10
4338.001051
 20
-12279.145618
 30
-2819.667988
 11
4339.008932
 21
-12275.934213
 31
-2885.882755
210
0.0
220
-1.0
230
0.0
  0
LINE
  5
20B8
100
AcDbEntity
  8
SECUNPE
100
AcDbLine
 10
4546.862237
 20
-12282.91278
 30
-2688.10406
 11
4549.004036
 21
-12276.088376
 31
-2819.667988
210
0.0
220
-1.0
230
0.0
  0
LINE
  5
20B9
100
AcDbEntity
  8
SECUNPE
100
AcDbLine
 10
4549.004036
 20
-12276.088376
 30
-2819.667988
 11
4549.118085
 21
-12275.724983
 31
-2826.673632
210
0.0
220
-1.0
230
0.0
  0
LINE
  5
20BC
100
AcDbEntity
  8
SECUNPE
100
AcDbLine
 10
4757.882055
 20
-12282.75859
 30
-2670.380331
 11
4760.171794
 21
-12275.462805
 31
-2806.419115
210
0.0
220
-1.0
230
0.0
  0
LINE
  5
20BD
100
AcDbEntity
  8
VB_VOL
100
AcDbLine
 10
4971.069603
 20
-12275.892094
 30
-2679.417647
 11
5010.819868
 21
-12149.236031
 31
-2679.417647
  0
LINE
  5
20BF
100
AcDbEntity
  8
SECUNPE
100
AcDbLine
 10
4973.202133
 20
-12268.902501
 30
-2816.147468
 11
4973.257042
 21
-12268.727546
 31
-2819.667988
210
0.0
220
-1.0
230
0.0
  0
LINE
  5
20C0
100
AcDbEntity
  8
SECUNPE
100
AcDbLine
 10
4973.202133
 20
-12268.902501
 30
-2816.147468
 11
4971.069603
 21
-12275.892094
 31
-2679.417647
210
0.0
220
-1.0
230
0.0
  0
LINE
  5
20C1
100
AcDbEntity
  8
SECUNPE
100
AcDbLine
 10
4971.069603
 20
-12275.892094
 30
-2679.417647
 11
4968.142486
 21
-12285.024027
 31
-2491.742001
210
0.0
220
-1.0
230
0.0
  0
LINE
  5
20C4
100
AcDbEntity
  8
SECUNPE
100
AcDbLine
 10
5186.542938
 20
-12261.352963
 30
-2843.625007
 11
5186.237956
 21
-12262.324724
 31
-2819.667988
210
0.0
220
-1.0
230
0.0
  0
LINE
  5
20C5
100
AcDbEntity
  8
SECUNPE
100
AcDbLine
 10
5186.237956
 20
-12262.324724
 30
-2819.667988
 11
5184.790288
 21
-12266.937421
 31
-2705.950142
210
0.0
220
-1.0
230
0.0
  0
LINE
  5
20C8
100
AcDbEntity
  8
SECUNPE
100
AcDbLine
 10
5399.811891
 20
-12254.032363
 30
-2880.445032
 11
5399.248737
 21
-12255.826739
 31
-2819.667988
210
0.0
220
-1.0
230
0.0
  0
LINE
  5
20C9
100
AcDbEntity
  8
SECUNPE
100
AcDbLine
 10
5399.248737
 20
-12255.826739
 30
-2819.667988
 11
5398.52639
 21
-12258.12835
 31
-2741.710485
210
0.0
220
-1.0
230
0.0
  0
LINE
  5
20CA
100
AcDbEntity
  8
SECUNPE
100
AcDbLine
 10
5610.886554
 20
-12247.974554
 30
-2922.293682
 11
5610.356039
 21
-12249.66493
 31
-2819.667988
210
0.0
220
-1.0
230
0.0
  0
LINE
  5
20CC
100
AcDbEntity
  8
SECUNPE
100
AcDbLine
 10
6033.982274
 20
-12232.843447
 30
-3025.123051
 11
6034.068351
 21
-12232.56918
 31
-2883.910331
210
0.0
220
-1.0
230
0.0
  0
LINE
  5
20CD
100
AcDbEntity
  8
SECUNPE
100
AcDbLine
 10
6246.091664
 20
-12223.488689
 30
-3080.652992
 11
6246.091664
 21
-12223.488689
 31
-2939.340573
210
0.0
220
-1.0
230
0.0
  0
LINE
  5
20CE
100
AcDbEntity
  8
PILARESN
100
AcDbLine
 10
6270.723375
 20
-12145.004798
 30
-3322.410426
 11
6270.723375
 21
-12145.004798
 31
-3219.667988
210
0.0
220
-1.0
230
0.0
  0
LINE
  5
20CF
100
AcDbEntity
  8
PILARESN
100
AcDbLine
 10
6270.723375
 20
-12145.004798
 30
-3219.667988
 11
6270.723375
 21
-12145.004798
 31
-3080.652992
210
0.0
220
-1.0
230
0.0
  0
LINE
  5
20D0
100
AcDbEntity
  8
SECUNPE
100
AcDbLine
 10
6458.438877
 20
-12216.768694
 30
-3136.909063
 11
6458.438877
 21
-12216.768694
 31
-2995.708671
210
0.0
220
-1.0
230
0.0
  0
LINE
  5
20D1
100
AcDbEntity
  8
SECUNPE
100
AcDbLine
 10
6671.328175
 20
-12208.321456
 30
-3193.165134
 11
6671.328175
 21
-12208.321456
 31
-3052.076769
210
0.0
220
-1.0
230
0.0
  0
LINE
  5
20D2
100
AcDbEntity
  8
SECUNPE
100
AcDbLine
 10
6885.584566
 20
-12195.51826
 30
-3108.444867
 11
6885.584566
 21
-12195.51826
 31
-2914.503615
210
0.0
220
-1.0
230
0.0
  0
LINE
  5
20D5
100
AcDbEntity
  8
VB_VOL
100
AcDbLine
 10
6885.584566
 20
-12195.51826
 30
-3108.444867
 11
6905.55794
 21
-12131.8772
 31
-3108.444867
  0
LINE
  5
20D7
100
AcDbEntity
  8
ALIN2E
100
AcDbLine
 10
6671.328175
 20
-12208.321456
 30
-2858.013606
 11
6885.584566
 21
-12195.51826
 31
-2914.503615
210
0.0
220
-1.0
230
0.0
  0
LINE
  5
20D8
100
AcDbEntity
  8
ALIN2E
100
AcDbLine
 10
6885.584566
 20
-12195.51826
 30
-2914.503615
 11
7097.106771
 21
-12191.426982
 31
-2970.80168
210
0.0
220
-1.0
230
0.0
  0
LINE
  5
20D9
100
AcDbEntity
  8
SECUNPE
100
AcDbLine
 10
7097.106771
 20
-12191.426982
 30
-3305.52766
 11
7097.106771
 21
-12191.426982
 31
-3219.667988
210
0.0
220
-1.0
230
0.0
  0
LINE
  5
20DA
100
AcDbEntity
  8
SECUNPE
100
AcDbLine
 10
7097.106771
 20
-12191.426982
 30
-3219.667988
 11
7097.106771
 21
-12191.426982
 31
-3164.654983
210
0.0
220
-1.0
230
0.0
  0
LINE
  5
20DB
100
AcDbEntity
  8
SECUNPE
100
AcDbLine
 10
7526.306028
 20
-12163.4793
 30
-3272.685118
 11
7526.306028
 21
-12163.4793
 31
-3413.557794
210
0.0
220
-1.0
230
0.0
  0
LINE
  5
20DC
100
AcDbEntity
  8
SECUNPE
100
AcDbLine
 10
7740.73629
 20
-12150.04511
 30
-3467.572862
 11
7740.73629
 21
-12150.04511
 31
-3326.700185
210
0.0
220
-1.0
230
0.0
  0
LINE
  5
20FC
100
AcDbEntity
  8
VB_AUXB
100
AcDbLine
 10
3813.538869
 20
-12149.451776
 30
-3219.667988
 11
3903.316619
 21
-12149.323283
 31
-3219.667988
  0
LINE
  5
20FD
100
AcDbEntity
  8
VB_VOL
100
AcDbLine
 10
6772.266717
 20
-12202.28973
 30
-3219.667988
 11
6793.638934
 21
-12134.191548
 31
-3219.667988
  0
LINE
  5
20FE
100
AcDbEntity
  8
SECUNVE
100
AcDbLine
 10
6772.266717
 20
-12202.28973
 30
-3219.667988
 11
6885.584566
 21
-12195.51826
 31
-3219.667988
  0
LINE
  5
2100
100
AcDbEntity
  8
VB_AUXB
100
AcDbLine
 10
6905.55794
 20
-12131.8772
 30
-3219.667988
 11
6905.55794
 21
-12131.8772
 31
-3249.421205
210
0.0
220
-1.0
230
0.0000000000000001
  0
LINE
  5
2102
100
AcDbEntity
  8
VB_AUXB
100
AcDbLine
 10
6905.55794
 20
-12131.8772
 30
-3219.667988
 11
6905.55794
 21
-12131.8772
 31
-3178.933036
210
0.0
220
-1.0
230
0.0
  0
LINE
  5
210C
100
AcDbEntity
  8
VB_AUXB
100
AcDbLine
 10
7117.169462
 20
-12127.501334
 30
-3164.654983
 11
7117.169462
 21
-12127.501334
 31
-3305.52766
210
0.0
220
-1.0
230
0.0
  0
LINE
  5
2111
100
AcDbEntity
  8
VB_AUXB
100
AcDbLine
 10
6793.638934
 20
-12134.191548
 30
-3149.150194
 11
6793.638934
 21
-12134.191548
 31
-3219.667988
210
0.0
220
-1.0
230
0.0000000000000001
  0
LINE
  5
211D
100
AcDbEntity
  8
VB_AUX
100
AcDbLine
 10
7974.89051
 20
-12073.764576
 30
-3380.64771
 11
7958.287006
 21
-12074.804796
 31
-3446.904874
210
0.0
220
-1.0
230
0.0
  0
LINE
  5
211E
100
AcDbEntity
  8
VB_AUX
100
AcDbLine
 10
7760.460248
 20
-12087.198765
 30
-3326.700185
 11
7743.83734
 21
-12088.240201
 31
-3392.949206
210
0.0
220
-1.0
230
0.0
  0
LINE
  5
211F
100
AcDbEntity
  8
VB_AUX
100
AcDbLine
 10
7760.460248
 20
-12087.198765
 30
-3467.572862
 11
7777.064256
 21
-12086.158514
 31
-3401.313684
210
0.0
220
-1.0
230
0.0
  0
LINE
  5
2120
100
AcDbEntity
  8
VB_AUX
100
AcDbLine
 10
7546.029986
 20
-12100.632955
 30
-3272.685118
 11
7529.542609
 21
-12101.665899
 31
-3339.006645
210
0.0
220
-1.0
230
0.0
  0
LINE
  5
2121
100
AcDbEntity
  8
VB_AUX
100
AcDbLine
 10
7546.029986
 20
-12100.632955
 30
-3413.557794
 11
7562.652894
 21
-12099.591519
 31
-3347.308773
210
0.0
220
-1.0
230
0.0
  0
LINE
  5
2122
100
AcDbEntity
  8
VB_AUX
100
AcDbLine
 10
7331.599724
 20
-12114.067145
 30
-3219.667988
 11
7314.960464
 21
-12115.109605
 31
-3285.375202
210
0.0
220
-1.0
230
0.0
  0
LINE
  5
2123
100
AcDbEntity
  8
VB_AUX
100
AcDbLine
 10
7331.599724
 20
-12114.067145
 30
-3359.542727
 11
7347.970305
 21
-12113.041517
 31
-3293.69102
210
0.0
220
-1.0
230
0.0
  0
LINE
  5
2124
100
AcDbEntity
  8
VB_AUX
100
AcDbLine
 10
7117.169462
 20
-12127.501334
 30
-3164.654983
 11
7099.713646
 21
-12127.862299
 31
-3230.458829
210
0.0
220
-1.0
230
0.0
  0
LINE
  5
2126
100
AcDbEntity
  8
VB_AUX
100
AcDbLine
 10
6905.55794
 20
-12131.8772
 30
-3249.421205
 11
6923.0266
 21
-12131.51597
 31
-3183.568937
210
0.0
220
-1.0
230
0.0
  0
LINE
  5
2127
100
AcDbEntity
  8
VB_AUX
100
AcDbLine
 10
6905.55794
 20
-12131.8772
 30
-3108.444867
 11
6888.047755
 21
-12132.239289
 31
-3174.273389
210
0.0
220
-1.0
230
0.0
  0
LINE
  5
2128
100
AcDbEntity
  8
VB_AUX
100
AcDbLine
 10
6793.638934
 20
-12134.191548
 30
-3219.667988
 11
6811.156478
 21
-12133.829306
 31
-3153.811799
210
0.0
220
-1.0
230
0.0
  0
LINE
  5
2129
100
AcDbEntity
  8
VB_AUX
100
AcDbLine
 10
6693.946418
 20
-12136.253066
 30
-3052.076769
 11
6676.422319
 21
-12136.615443
 31
-3117.957602
210
0.0
220
-1.0
230
0.0
  0
LINE
  5
212A
100
AcDbEntity
  8
VB_AUX
100
AcDbLine
 10
6693.946418
 20
-12136.253066
 30
-3193.165134
 11
6711.470518
 21
-12135.890689
 31
-3127.284301
210
0.0
220
-1.0
230
0.0
  0
LINE
  5
212B
100
AcDbEntity
  8
VB_AUX
100
AcDbLine
 10
6482.334897
 20
-12140.628932
 30
-2995.708671
 11
6464.796883
 21
-12140.991597
 31
-3061.641814
210
0.0
220
-1.0
230
0.0
  0
LINE
  5
212C
100
AcDbEntity
  8
VB_AUX
100
AcDbLine
 10
6482.334897
 20
-12140.628932
 30
-3136.909063
 11
6499.87291
 21
-12140.266268
 31
-3070.97592
210
0.0
220
-1.0
230
0.0
  0
LINE
  5
212D
100
AcDbEntity
  8
VB_AUX
100
AcDbLine
 10
6270.723375
 20
-12145.004798
 30
-2939.340573
 11
6253.244421
 21
-12145.111667
 31
-3005.369651
210
0.0
220
-1.0
230
0.0
  0
LINE
  5
212F
100
AcDbEntity
  8
VB_AUX
100
AcDbLine
 10
6061.147768
 20
-12146.286172
 30
-2883.910331
 11
6043.912523
 21
-12146.39155
 31
-2950.023408
210
0.0
220
-1.0
230
0.0
  0
LINE
  5
2130
100
AcDbEntity
  8
VB_AUX
100
AcDbLine
 10
6061.147768
 20
-12146.286172
 30
-3025.123051
 11
6078.614391
 21
-12146.179378
 31
-2959.140558
210
0.0
220
-1.0
230
0.0
  0
LINE
  5
2131
100
AcDbEntity
  8
VB_AUX
100
AcDbLine
 10
5851.572162
 20
-12147.567545
 30
-2969.891338
 11
5868.662242
 21
-12147.463054
 31
-2904.335102
210
0.0
220
-1.0
230
0.0
  0
LINE
  5
2132
100
AcDbEntity
  8
VB_AUX
100
AcDbLine
 10
5851.572162
 20
-12147.567545
 30
-2829.86799
 11
5836.559814
 21
-12147.659332
 31
-2896.497072
210
0.0
220
-1.0
230
0.0
  0
LINE
  5
2133
100
AcDbEntity
  8
VB_AUX
100
AcDbLine
 10
5641.996556
 20
-12148.848918
 30
-2783.022212
 11
5628.704416
 21
-12148.930188
 31
-2850.020762
210
0.0
220
-1.0
230
0.0
  0
LINE
  5
2134
100
AcDbEntity
  8
VB_AUX
100
AcDbLine
 10
5641.996556
 20
-12148.848918
 30
-2922.293682
 11
5656.928293
 21
-12148.757624
 31
-2856.022376
210
0.0
220
-1.0
230
0.0
  0
LINE
  5
2135
100
AcDbEntity
  8
VB_AUX
100
AcDbLine
 10
5432.420949
 20
-12150.130292
 30
-2741.710485
 11
5420.824455
 21
-12150.105698
 31
-2809.081664
210
0.0
220
-1.0
230
0.0
  0
LINE
  5
2137
100
AcDbEntity
  8
VB_AUX
100
AcDbLine
 10
5221.589852
 20
-12149.683161
 30
-2843.625007
 11
5233.09777
 21
-12149.707567
 31
-2776.768423
210
0.0
220
-1.0
230
0.0
  0
LINE
  5
2138
100
AcDbEntity
  8
VB_AUX
100
AcDbLine
 10
5221.589852
 20
-12149.683161
 30
-2705.950142
 11
5212.913724
 21
-12149.664758
 31
-2773.676102
210
0.0
220
-1.0
230
0.0
  0
LINE
  5
213D
100
AcDbEntity
  8
VB_AUX
100
AcDbLine
 10
5010.819868
 20
-12149.236031
 30
-2679.417647
 11
5007.783759
 21
-12149.229657
 31
-2747.648818
210
0.0
220
-1.0
230
0.0
  0
LINE
  5
213E
100
AcDbEntity
  8
VB_AUX
100
AcDbLine
 10
5010.758756
 20
-12149.236031
 30
-2816.147468
 11
5019.375822
 21
-12149.254243
 31
-2748.882549
210
0.0
220
-1.0
230
0.0
  0
LINE
  5
2141
100
AcDbEntity
  8
VB_AUX
100
AcDbLine
 10
4799.927659
 20
-12148.7889
 30
-2670.380331
 11
4796.888795
 21
-12148.782456
 31
-2738.673427
210
0.0
220
-1.0
230
0.0
  0
LINE
  5
2142
100
AcDbEntity
  8
VB_AUX
100
AcDbLine
 10
4799.927659
 20
-12148.7889
 30
-2806.419115
 11
4802.948363
 21
-12148.795305
 31
-2738.534137
210
0.0
220
-1.0
230
0.0
  0
LINE
  5
2143
100
AcDbEntity
  8
VB_AUX
100
AcDbLine
 10
4589.096562
 20
-12148.341769
 30
-2688.10406
 11
4595.286657
 21
-12148.354897
 31
-2756.831317
210
0.0
220
-1.0
230
0.0
  0
LINE
  5
2145
100
AcDbEntity
  8
VB_AUX
100
AcDbLine
 10
4378.958684
 20
-12148.642526
 30
-2741.18277
 11
4397.000952
 21
-12148.616704
 31
-2808.712291
210
0.0
220
-1.0
230
0.0
  0
LINE
  5
2146
100
AcDbEntity
  8
VB_AUX
100
AcDbLine
 10
4378.958684
 20
-12148.642526
 30
-2885.882755
 11
4351.96623
 21
-12148.681159
 31
-2825.623816
210
0.0
220
-1.0
230
0.0
  0
LINE
  5
2147
100
AcDbEntity
  8
VB_AUX
100
AcDbLine
 10
4168.820805
 20
-12148.943283
 30
-2827.961754
 11
4198.555631
 21
-12148.900726
 31
-2894.342865
210
0.0
220
-1.0
230
0.0
  0
LINE
  5
2148
100
AcDbEntity
  8
VB_AUX
100
AcDbLine
 10
4168.820805
 20
-12148.943283
 30
-2987.36293
 11
4131.06433
 21
-12148.997322
 31
-2934.765414
210
0.0
220
-1.0
230
0.0
  0
LINE
  5
2149
100
AcDbEntity
  8
VB_AUX
100
AcDbLine
 10
3958.682926
 20
-12149.244041
 30
-2966.561105
 11
4002.240604
 21
-12149.181699
 31
-3027.240119
210
0.0
220
-1.0
230
0.0
  0
LINE
  5
214A
100
AcDbEntity
  8
VB_AUX
100
AcDbLine
 10
3958.682926
 20
-12149.244041
 30
-3150.45394
 11
3912.96047
 21
-12149.30948
 31
-3109.275377
210
0.0
220
-1.0
230
0.0
  0
LINE
  5
214B
100
AcDbEntity
  8
VB_AUX
100
AcDbLine
 10
3748.545047
 20
-12149.544798
 30
-3170.517859
 11
3808.872156
 21
-12149.458455
 31
-3224.849666
210
0.0
220
-1.0
230
0.0
  0
LINE
  5
214C
100
AcDbEntity
  8
VB_AUX
100
AcDbLine
 10
3719.093468
 20
-12149.58695
 30
-3219.667988
 11
3771.241127
 21
-12149.512314
 31
-3266.633217
210
0.0
220
-1.0
230
0.0
  0
LINE
  5
214E
100
AcDbEntity
  8
VB_AUX
100
AcDbLine
 10
3543.233161
 20
-12133.649821
 30
-3513.151632
 11
3624.56699
 21
-12139.94658
 31
-3552.123736
210
0.0
220
-1.0
230
0.0
  0
LINE
  5
2150
100
AcDbEntity
  8
VB_AUX
100
AcDbLine
 10
3507.854981
 20
-12130.910889
 30
-3619.667988
 11
3576.68596
 21
-12136.239693
 31
-3652.649198
210
0.0
220
-1.0
230
0.0
  0
LINE
  5
2151
100
AcDbEntity
  8
VB_AUX
100
AcDbLine
 10
3543.233161
 20
-12133.649821
 30
-3932.614008
 11
3481.836036
 21
-12128.896537
 31
-3912.628283
210
0.0
220
-1.0
230
0.0
  0
LINE
  5
2152
100
AcDbEntity
  8
VB_AUX
100
AcDbLine
 10
3515.772472
 20
-12131.523851
 30
-4019.667988
 11
3453.734894
 21
-12126.720983
 31
-3999.473785
210
0.0
220
-1.0
230
0.0
  0
LINE
  5
2153
100
AcDbEntity
  8
VB_AUX
100
AcDbLine
 10
3374.999592
 20
-12120.6254
 30
-4019.667988
 11
3440.320351
 21
-12125.682447
 31
-4040.930917
210
0.0
220
-1.0
230
0.0
  0
LINE
  5
2154
100
AcDbEntity
  8
VB_AUX
100
AcDbLine
 10
3337.921274
 20
-12117.754845
 30
-4131.303106
 11
3404.106794
 21
-12122.878841
 31
-4152.847529
210
0.0
220
-1.0
230
0.0
  0
LINE
  5
2156
100
AcDbEntity
  8
VB_AUX
100
AcDbLine
 10
3229.368982
 20
-12109.35087
 30
-4419.667988
 11
3294.773414
 21
-12114.414395
 31
-4450.243285
210
0.0
220
-1.0
230
0.0
  0
LINE
  5
2157
100
AcDbEntity
  8
VB_AUX
100
AcDbLine
 10
3337.921274
 20
-12117.754845
 30
-4583.479581
 11
3251.609219
 21
-12111.07268
 31
-4543.130377
210
0.0
220
-1.0
230
0.0
  0
LINE
  5
2158
100
AcDbEntity
  8
VB_AUX
100
AcDbLine
 10
3132.609387
 20
-12101.859869
 30
-4676.706036
 11
3179.377517
 21
-12105.480596
 31
-4698.569226
210
0.0
220
-1.0
230
0.0
  0
LINE
  5
2159
100
AcDbEntity
  8
VB_AUX
100
AcDbLine
 10
3024.489606
 20
-12093.489378
 30
-4819.667988
 11
3078.063509
 21
-12097.636999
 31
-4864.615652
210
0.0
220
-1.0
230
0.0
  0
LINE
  5
215A
100
AcDbEntity
  8
VB_AUX
100
AcDbLine
 10
3132.609387
 20
-12101.859869
 30
-4921.717561
 11
3072.499957
 21
-12097.206276
 31
-4871.286692
210
0.0
220
-1.0
230
0.0
  0
LINE
  5
215B
100
AcDbEntity
  8
VB_AUX
100
AcDbLine
 10
3194.553911
 20
-12106.655533
 30
-4819.667988
 11
3135.855007
 21
-12102.111141
 31
-4792.227394
210
0.0
220
-1.0
230
0.0
  0
LINE
  5
215C
100
AcDbEntity
  8
VB_AUX
100
AcDbLine
 10
2927.297501
 20
-12085.964893
 30
-4948.180762
 11
2974.996423
 21
-12089.657681
 31
-4988.19941
210
0.0
220
-1.0
230
0.0
  0
LINE
  5
215F
100
AcDbEntity
  8
VB_AUX
100
AcDbLine
 10
3903.316619
 20
-12149.323283
 30
-3219.667988
 11
3853.746186
 21
-12149.39423
 31
-3175.02386
210
0.0
220
-1.0
230
0.0
  0
LINE
  5
2160
100
AcDbEntity
  8
SECUNPE2
100
AcDbLine
 10
3723.964755
 20
-12227.864856
 30
-3170.517859
 11
3723.514192
 21
-12229.300482
 31
-2904.801167
210
0.0
220
-1.0
230
0.0
  0
LINE
  5
2161
100
AcDbEntity
  8
SECUNPE
100
AcDbLine
 10
4985.734382
 20
-12228.971061
 30
-3619.667988
 11
4979.495712
 21
-12248.849303
 31
-3219.667988
210
0.0
220
-1.0
230
0.0
  0
LINE
  5
2162
100
AcDbEntity
  8
SECUNPE
100
AcDbLine
 10
6885.584566
 20
-12195.51826
 30
-3249.421205
 11
6885.584566
 21
-12195.51826
 31
-3108.444867
210
0.0
220
-1.0
230
0.0
  0
LINE
  5
2163
100
AcDbEntity
  8
SECUNPE
100
AcDbLine
 10
7955.166552
 20
-12136.610921
 30
-3521.516105
 11
7955.166552
 21
-12136.610921
 31
-3380.64771
210
0.0
220
-1.0
230
0.0
  0
LINE
  5
2166
100
AcDbEntity
  8
PILARESN
100
AcDbLine
 10
2927.297501
 20
-12085.964893
 30
-5142.605925
 11
2927.297501
 21
-12085.964893
 31
-5045.393343
210
0.0
220
-1.0
230
0.0
  0
LINE
  5
2167
100
AcDbEntity
  8
PILARESN
100
AcDbLine
 10
3748.545047
 20
-12149.544798
 30
-3413.149683
 11
3748.545047
 21
-12149.544798
 31
-3291.833771
210
0.0
220
-1.0
230
0.0
  0
LINE
  5
2168
100
AcDbEntity
  8
PILARESN
100
AcDbLine
 10
4589.096562
 20
-12148.341769
 30
-2826.673632
 11
4589.096562
 21
-12148.341769
 31
-2757.388846
210
0.0
220
-1.0
230
0.0
  0
LINE
  5
2169
100
AcDbEntity
  8
PILARESN
100
AcDbLine
 10
5432.420949
 20
-12150.130292
 30
-2880.445032
 11
5432.420949
 21
-12150.130292
 31
-2811.077759
210
0.0
220
-1.0
230
0.0
  0
LINE
  5
216A
100
AcDbEntity
  8
PILARESN
100
AcDbLine
 10
6270.723375
 20
-12145.004798
 30
-3080.652992
 11
6270.723375
 21
-12145.004798
 31
-3009.996783
210
0.0
220
-1.0
230
0.0
  0
LINE
  5
216B
100
AcDbEntity
  8
PILARESN
100
AcDbLine
 10
7117.169462
 20
-12127.501334
 30
-3305.52766
 11
7117.169462
 21
-12127.501334
 31
-3235.091321
210
0.0
220
-1.0
230
0.0
  0
LINE
  5
216C
100
AcDbEntity
  8
PILARESN
100
AcDbLine
 10
7974.89051
 20
-12073.764576
 30
-3521.516105
 11
7974.89051
 21
-12073.764576
 31
-3451.081907
210
0.0
220
-1.0
230
0.0
  0
LINE
  5
216E
100
AcDbEntity
  8
PILARESN
100
AcDbLine
 10
3748.545047
 20
-12149.544798
 30
-4459.22617
 11
3748.545047
 21
-12149.544798
 31
-4419.667988
210
0.0
220
-1.0
230
0.0
  0
LINE
  5
216F
100
AcDbEntity
  8
PILARESN
100
AcDbLine
 10
4589.096562
 20
-12148.341769
 30
-3855.614927
 11
4589.096562
 21
-12148.341769
 31
-3619.667988
210
0.0
220
-1.0
230
0.0
  0
LINE
  5
2170
100
AcDbEntity
  8
PILARESN
100
AcDbLine
 10
5432.420949
 20
-12150.130292
 30
-3484.577174
 11
5432.420949
 21
-12150.130292
 31
-3619.667988
210
0.0
220
-1.0
230
0.0
  0
LINE
  5
2171
100
AcDbEntity
  8
PILARESN
100
AcDbLine
 10
7117.169462
 20
-12127.501334
 30
-3353.297627
 11
7117.169462
 21
-12127.501334
 31
-3305.52766
210
0.0
220
-1.0
230
0.0
  0
LINE
  5
2177
100
AcDbEntity
  8
0
100
AcDbLine
 10
15288.450298
 20
-11432.990282
 30
-5188.667988
 11
15288.450298
 21
-9481.350727
 31
-5188.667988
  0
LINE
  5
2178
100
AcDbEntity
  8
0
100
AcDbLine
 10
14520.768551
 20
-11509.004055
 30
-5019.667988
 11
14520.768551
 21
-8626.408444
 31
-5019.667988
  0
LINE
  5
2179
100
AcDbEntity
  8
0
100
AcDbLine
 10
13753.567211
 20
-11583.966342
 30
-4867.667988
 11
13753.567211
 21
-7954.668054
 31
-4867.667988
  0
LINE
  5
2184
100
AcDbEntity
  8
0
100
AcDbLine
 10
9148.917951
 20
-11583.966342
 30
-3904.667988
 11
9148.917951
 21
-7954.668054
 31
-3904.667988
  0
LINE
  5
2185
100
AcDbEntity
  8
0
100
AcDbLine
 10
8381.236204
 20
-11509.004055
 30
-3735.667988
 11
8381.236204
 21
-8626.408444
 31
-3735.667988
  0
LINE
  5
2186
100
AcDbEntity
  8
0
100
AcDbLine
 10
7614.034864
 20
-11583.966342
 30
-3583.667988
 11
7614.034864
 21
-7954.668054
 31
-3583.667988
  0
LINE
  5
2187
100
AcDbEntity
  8
0
100
AcDbLine
 10
6846.353117
 20
-11509.004055
 30
-3414.667988
 11
6846.353117
 21
-8626.408444
 31
-3414.667988
  0
LINE
  5
2188
100
AcDbEntity
  8
0
100
AcDbLine
 10
6079.151777
 20
-11583.966342
 30
-3262.667988
 11
6079.151777
 21
-7954.668054
 31
-3262.667988
  0
LINE
  5
2189
100
AcDbEntity
  8
0
100
AcDbLine
 10
5311.470031
 20
-11509.004055
 30
-3093.667988
 11
5311.470031
 21
-8626.408444
 31
-3093.667988
  0
LINE
  5
218A
100
AcDbEntity
  8
0
100
AcDbLine
 10
4544.26869
 20
-11583.966342
 30
-2941.667988
 11
4544.26869
 21
-7954.668054
 31
-2941.667988
  0
LINE
  5
218B
100
AcDbEntity
  8
0
100
AcDbLine
 10
3776.586944
 20
-11509.004055
 30
-2772.667988
 11
3776.586944
 21
-8626.408444
 31
-2772.667988
  0
LINE
  5
218C
100
AcDbEntity
  8
0
100
AcDbLine
 10
3009.385604
 20
-11583.966342
 30
-2620.667988
 11
3009.385604
 21
-7954.668054
 31
-2620.667988
  0
LINE
  5
218D
100
AcDbEntity
  8
0
100
AcDbLine
 10
12987.357593
 20
-11656.758007
 30
-4671.667988
 11
12985.885464
 21
-8626.408444
 31
-4698.667988
  0
LINE
  5
218E
100
AcDbEntity
  8
0
100
AcDbLine
 10
12221.49867
 20
-11728.782097
 30
-4493.695414
 11
12218.684124
 21
-7954.668054
 31
-4546.667988
  0
LINE
  5
2194
100
AcDbEntity
  8
0
100
AcDbLine
 10
11456.957311
 20
-11797.922373
 30
-4313.667988
 11
11451.002378
 21
-8626.408444
 31
-4377.667988
  0
LINE
  5
2196
100
AcDbEntity
  8
0
100
AcDbLine
 10
9830.071267
 20
-11531.680186
 30
-3919.954123
 11
9916.119291
 21
-8626.408444
 31
-4056.667988
  0
LINE
  5
2197
100
AcDbEntity
  8
0
100
AcDbLine
 10
9355.079764
 20
-11585.659899
 30
-3804.667988
 11
9148.917951
 21
-11583.966342
 31
-3904.667988
  0
LINE
  5
2198
100
AcDbEntity
  8
0
100
AcDbLine
 10
8326.387623
 20
-12048.64312
 30
-3560.777489
 11
8381.236204
 21
-11509.004055
 31
-3735.667988
  0
LINE
  5
2199
100
AcDbEntity
  8
0
100
AcDbLine
 10
7546.029986
 20
-12100.632955
 30
-3343.121456
 11
7614.034864
 21
-11583.966342
 31
-3583.667988
  0
LINE
  5
219A
100
AcDbEntity
  8
0
100
AcDbLine
 10
6693.946418
 20
-12136.253066
 30
-3122.620951
 11
6846.353117
 21
-11509.004055
 31
-3414.667988
  0
LINE
  5
219B
100
AcDbEntity
  8
0
100
AcDbLine
 10
6061.147768
 20
-12146.286172
 30
-2954.516691
 11
6079.151777
 21
-11583.966342
 31
-3262.667988
  0
LINE
  5
219C
100
AcDbEntity
  8
0
100
AcDbLine
 10
5221.589852
 20
-12149.683161
 30
-2774.787575
 11
5311.470031
 21
-11509.004055
 31
-3093.667988
  0
LINE
  5
219D
100
AcDbEntity
  8
0
100
AcDbLine
 10
4378.958684
 20
-12148.642526
 30
-2813.532762
 11
4544.26869
 21
-11583.966342
 31
-2941.667988
  0
LINE
  5
219E
100
AcDbEntity
  8
0
100
AcDbLine
 10
3748.545047
 20
-12149.544798
 30
-3291.833771
 11
3776.586944
 21
-11509.004055
 31
-2772.667988
  0
LINE
  5
219F
100
AcDbEntity
  8
0
100
AcDbLine
 10
2927.297501
 20
-12085.964893
 30
-5045.393343
 11
3009.385604
 21
-11583.966342
 31
-2620.667988
  0
LINE
  5
21A0
100
AcDbEntity
  8
0
100
AcDbLine
 10
10702.029692
 20
-11432.585591
 30
-4129.422565
 11
10683.801037
 21
-7954.668054
 31
-4225.667988
  0
INSERT
  5
21A2
100
AcDbEntity
  8
CC
100
AcDbBlockReference
  2
P8
 10
12249.756472
 20
-11666.93311
 30
-6019.667988
 50
155.445105
  0
INSERT
  5
21AB
100
AcDbEntity
  8
VB
100
AcDbBlockReference
  2
VB
 10
2927.297501
 20
-12085.964893
 30
-5045.393343
  0
LINE
  5
21B2
100
AcDbEntity
  8
SECUNVI
100
AcDbLine
 10
4168.820805
 20
-12148.943283
 30
-3219.667988
 11
4378.958684
 21
-12148.642526
 31
-3219.667988
  0
LINE
  5
21C3
100
AcDbEntity
  8
SECUNPE
100
AcDbLine
 10
5610.356039
 20
-12249.66493
 30
-2819.667988
 11
5610.166602
 21
-12250.268533
 31
-2783.022212
  0
LINE
  5
21C4
100
AcDbEntity
  8
SECUNPE
100
AcDbLine
 10
3726.082878
 20
-12221.115891
 30
-4419.667988
 11
3726.149955
 21
-12220.902165
 31
-4459.22617
  0
LINE
  5
21CF
100
AcDbEntity
  8
SECUNVE
100
AcDbLine
 10
6034.10751
 20
-12232.444406
 30
-2819.667988
 11
5822.208468
 21
-12241.128929
 31
-2819.667988
210
0.0
220
1.0
230
0.0
  0
LINE
  5
21D0
100
AcDbEntity
  8
SECUNVE
100
AcDbLine
 10
5822.208468
 20
-12241.128929
 30
-2819.667988
 11
5610.356039
 21
-12249.66493
 31
-2819.667988
210
0.0
220
1.0
230
0.0
  0
LINE
  5
21D1
100
AcDbEntity
  8
SECUNPE
100
AcDbLine
 10
5822.191195
 20
-12241.183969
 30
-2829.86799
 11
5822.208468
 21
-12241.128929
 31
-2819.667988
210
0.0
220
1.0
230
0.0
  0
LINE
  5
21DA
100
AcDbEntity
  8
VIGACURVA
100
AcDbLine
 10
7760.460248
 20
-12087.198765
 30
-3474.627854
 11
7974.89051
 21
-12073.764576
 31
-3521.516105
210
0.0
220
-1.0
230
0.0
  0
LINE
  5
21DB
100
AcDbEntity
  8
VIGACURVA
100
AcDbLine
 10
7760.460248
 20
-12087.198765
 30
-3474.627854
 11
7546.029986
 21
-12100.632955
 31
-3427.739603
210
0.0
220
1.0
230
0.0
  0
INSERT
  5
21E7
100
AcDbEntity
  8
SECUNVE
100
AcDbBlockReference
  2
INIVBE
 10
2908.119978
 20
-12147.070133
 30
-4646.23335
  0
INSERT
  5
21EE
100
AcDbEntity
  8
SECUNVE
100
AcDbBlockReference
  2
INIVBE
 10
2530.907945
 20
-12083.819958
 30
-5317.591353
  0
INSERT
  5
21EF
100
AcDbEntity
  8
SECUNVE
100
AcDbBlockReference
  2
INIVBE
 10
2908.119978
 20
-12147.070133
 30
-5142.605925
  0
INSERT
  5
21F0
100
AcDbEntity
  8
SECUNVE
100
AcDbBlockReference
  2
INIVBE
 10
2927.297501
 20
-12085.964893
 30
-5142.605925
  0
INSERT
  5
21FB
100
AcDbEntity
  8
VB
100
AcDbBlockReference
  2
VB
 10
3748.545047
 20
-12149.544798
 30
-3291.833771
  0
INSERT
  5
21FC
100
AcDbEntity
  8
VB
100
AcDbBlockReference
  2
VB
 10
4378.958684
 20
-12148.642526
 30
-2813.532762
  0
INSERT
  5
21FD
100
AcDbEntity
  8
VB
100
AcDbBlockReference
  2
VB
 10
5221.589852
 20
-12149.683161
 30
-2774.787575
  0
INSERT
  5
21FE
100
AcDbEntity
  8
VB
100
AcDbBlockReference
  2
VB
 10
6061.147768
 20
-12146.286172
 30
-2954.516691
  0
INSERT
  5
21FF
100
AcDbEntity
  8
VB
100
AcDbBlockReference
  2
VB
 10
6693.946418
 20
-12136.253066
 30
-3122.620951
  0
INSERT
  5
2200
100
AcDbEntity
  8
VB
100
AcDbBlockReference
  2
VB
 10
7546.029986
 20
-12100.632955
 30
-3343.121456
  0
INSERT
  5
2201
100
AcDbEntity
  8
VB
100
AcDbBlockReference
  2
VB
 10
8326.387623
 20
-12048.64312
 30
-3550.066286
  0
INSERT
  5
2202
100
AcDbEntity
  8
VB
100
AcDbBlockReference
  2
VB
 10
9394.092054
 20
-11581.227484
 30
-3791.107549
  0
INSERT
  5
2203
100
AcDbEntity
  8
VB
100
AcDbBlockReference
  2
VB
 10
10048.06083
 20
-11506.906542
 30
-3948.988059
  0
INSERT
  5
2204
100
AcDbEntity
  8
VB
100
AcDbBlockReference
  2
VB
 10
10702.029691
 20
-11432.585579
 30
-4102.599212
  0
INSERT
  5
2205
100
AcDbEntity
  8
VB
100
AcDbBlockReference
  2
VB
 10
11456.957312
 20
-11797.922387
 30
-4292.184069
  0
INSERT
  5
2206
100
AcDbEntity
  8
VB
100
AcDbBlockReference
  2
VB
 10
12221.498671
 20
-11728.78211
 30
-4472.211495
  0
INSERT
  5
2207
100
AcDbEntity
  8
VB
100
AcDbBlockReference
  2
VB
 10
12987.357594
 20
-11656.758021
 30
-4650.184069
  0
INSERT
  5
2208
100
AcDbEntity
  8
VB
100
AcDbBlockReference
  2
VB
 10
13804.868392
 20
-11579.080177
 30
-4830.940701
  0
INSERT
  5
2209
100
AcDbEntity
  8
VB
100
AcDbBlockReference
  2
VB
 10
14455.398107
 20
-11515.47818
 30
-4973.132295
  0
INSERT
  5
220A
100
AcDbEntity
  8
VB
100
AcDbBlockReference
  2
VB
 10
15288.450298
 20
-11433.223379
 30
-5155.208153
  0
LINE
  5
220D
100
AcDbEntity
  8
VB
100
AcDbLine
 10
7974.89051
 20
-12073.764576
 30
-3451.081907
 11
8326.387623
 21
-12048.64312
 31
-3550.066286
210
0.0
220
-1.0
230
0.0
  0
LINE
  5
220E
100
AcDbEntity
  8
VB
100
AcDbLine
 10
8326.387623
 20
-12048.64312
 30
-3550.066286
 11
8629.711819
 21
-12030.814821
 31
-3635.484788
210
0.0
220
-1.0
230
0.0
  0
LINE
  5
2215
100
AcDbEntity
  8
SECUNPE
100
AcDbLine
 10
2908.119978
 20
-12147.070133
 30
-4948.180762
 11
2908.119978
 21
-12147.070133
 31
-4819.667988
210
0.0
220
-1.0
230
0.0
  0
LINE
  5
2221
100
AcDbEntity
  8
VIGASN
100
AcDbLine
 10
3798.586287
 20
-12149.473177
 30
-4419.667988
 11
3748.545047
 21
-12149.544798
 31
-4419.667988
210
0.0
220
-1.0
230
0.0
  0
LINE
  5
222C
100
AcDbEntity
  8
SECUNVE2
100
AcDbLine
 10
3643.409248
 20
-12218.141686
 30
-3619.667988
 11
3520.736682
 21
-12205.330233
 31
-3619.667988
210
0.0
220
-1.0
230
0.0
  0
LINE
  5
2287
100
AcDbEntity
  8
SECUN2PI
100
AcDbLine
 10
9176.102448
 20
-11606.001133
 30
-5219.667988
 11
9176.102448
 21
-11606.001133
 31
-3808.385186
210
0.0
220
-1.0
230
0.0
  0
LINE
  5
2288
100
AcDbEntity
  8
SECUN2PI
100
AcDbLine
 10
9176.102448
 20
-11606.001133
 30
-3808.385186
 11
9176.102448
 21
-11606.001133
 31
-3667.670525
210
0.0
220
-1.0
230
0.0
  0
LINE
  5
2289
100
AcDbEntity
  8
SECUN2PI
100
AcDbLine
 10
9394.092054
 20
-11581.227484
 30
-5219.667988
 11
9394.092054
 21
-11581.227484
 31
-3861.458363
210
0.0
220
-1.0
230
0.0
  0
LINE
  5
228A
100
AcDbEntity
  8
SECUN2PI
100
AcDbLine
 10
9394.092054
 20
-11581.227484
 30
-3861.458363
 11
9394.092054
 21
-11581.227484
 31
-3720.756734
210
0.0
220
-1.0
230
0.0
  0
LINE
  5
228B
100
AcDbEntity
  8
SECUN2PI
100
AcDbLine
 10
9612.081661
 20
-11556.453835
 30
-5219.667988
 11
9612.081661
 21
-11556.453835
 31
-3914.385795
210
0.0
220
-1.0
230
0.0
  0
LINE
  5
228C
100
AcDbEntity
  8
SECUN2PI
100
AcDbLine
 10
9612.081661
 20
-11556.453835
 30
-3914.385795
 11
9612.081661
 21
-11556.453835
 31
-3773.764079
210
0.0
220
-1.0
230
0.0
  0
LINE
  5
2293
100
AcDbEntity
  8
SECUN2PI
100
AcDbLine
 10
10266.050479
 20
-11482.132888
 30
-5219.667988
 11
10266.050479
 21
-11482.132888
 31
-4071.732329
210
0.0
220
-1.0
230
0.0
  0
LINE
  5
2294
100
AcDbEntity
  8
SECUN2PI
100
AcDbLine
 10
10266.050479
 20
-11482.132888
 30
-4071.732329
 11
10266.050479
 21
-11482.132888
 31
-3931.156942
210
0.0
220
-1.0
230
0.0
  0
LINE
  5
2295
100
AcDbEntity
  8
SECUN2PI
100
AcDbLine
 10
10484.040086
 20
-11457.35924
 30
-5219.667987
 11
10484.040086
 21
-11457.35924
 31
-4123.993165
210
0.0
220
-1.0
230
0.0
  0
LINE
  5
2296
100
AcDbEntity
  8
SECUN2PI
100
AcDbLine
 10
10484.040086
 20
-11457.35924
 30
-4123.993165
 11
10484.040086
 21
-11457.35924
 31
-3983.433159
210
0.0
220
-1.0
230
0.0
  0
LINE
  5
2299
100
AcDbEntity
  8
SECUN2PI
100
AcDbLine
 10
10948.559639
 20
-11404.568159
 30
-5219.667988
 11
10948.559639
 21
-11404.568159
 31
-4228.146058
210
0.0
220
-1.0
230
0.0
  0
LINE
  5
229A
100
AcDbEntity
  8
SECUN2PI
100
AcDbLine
 10
10948.559639
 20
-11404.568159
 30
-4228.146058
 11
10948.559639
 21
-11404.568159
 31
-4087.625315
210
0.0
220
-1.0
230
0.0
  0
LINE
  5
22A8
100
AcDbEntity
  8
SECUN2VI
100
AcDbLine
 10
9176.102448
 20
-11606.001133
 30
-4819.667988
 11
11195.089586
 21
-11376.550829
 31
-4819.667988
210
0.0
220
-1.0
230
0.0
  0
LINE
  5
22AE
100
AcDbEntity
  8
SECUN2VI
100
AcDbLine
 10
8758.579199
 20
-11653.451082
 30
-4019.667988
 11
10048.06083
 21
-11506.906157
 31
-4019.667988
210
0.0
220
-1.0
230
0.0
  0
LINE
  5
22B3
100
AcDbEntity
  8
SECUN2PI
100
AcDbLine
 10
10048.060873
 20
-11506.906537
 30
-5219.667988
 11
10048.060873
 21
-11506.906537
 31
-4019.667988
210
0.0
220
-1.0
230
0.0
  0
LINE
  5
22B4
100
AcDbEntity
  8
VBCONTORNO
100
AcDbLine
 10
8758.579199
 20
-11653.450984
 30
-3565.99262
 11
9394.092054
 21
-11581.227484
 31
-3720.756734
210
0.0
220
-1.0
230
0.0
  0
LINE
  5
22B5
100
AcDbEntity
  8
VBCONTORNO
100
AcDbLine
 10
9394.092054
 20
-11581.227484
 30
-3720.756734
 11
9612.081661
 21
-11556.453835
 31
-3773.764079
210
0.0
220
-1.0
230
0.0
  0
LINE
  5
22B6
100
AcDbEntity
  8
VBCONTORNO
100
AcDbLine
 10
9612.081661
 20
-11556.453835
 30
-3773.764079
 11
10266.050479
 21
-11482.132888
 31
-3931.156942
210
0.0
220
-1.0
230
0.0
  0
LINE
  5
22B7
100
AcDbEntity
  8
VBCONTORNO
100
AcDbLine
 10
10266.050479
 20
-11482.132888
 30
-3931.156942
 11
10484.040086
 21
-11457.35924
 31
-3983.433159
210
0.0
220
-1.0
230
0.0
  0
LINE
  5
22B8
100
AcDbEntity
  8
VBCONTORNO
100
AcDbLine
 10
10484.040086
 20
-11457.35924
 30
-3983.433159
 11
11195.089586
 21
-11376.550862
 31
-4142.922206
210
0.0
220
-1.0
230
0.0
  0
LINE
  5
22B9
100
AcDbEntity
  8
VBCONTORNO
100
AcDbLine
 10
8758.579199
 20
-11653.450984
 30
-3706.732242
 11
9394.092054
 21
-11581.227484
 31
-3861.458363
210
0.0
220
-1.0
230
0.0
  0
LINE
  5
22BA
100
AcDbEntity
  8
VBCONTORNO
100
AcDbLine
 10
9394.092054
 20
-11581.227484
 30
-3861.458363
 11
9612.081661
 21
-11556.453835
 31
-3914.385795
210
0.0
220
-1.0
230
0.0
  0
LINE
  5
22BB
100
AcDbEntity
  8
VBCONTORNO
100
AcDbLine
 10
9612.081661
 20
-11556.453835
 30
-3914.385795
 11
9830.071267
 21
-11531.680186
 31
-3966.83464
210
0.0
220
-1.0
230
0.0
  0
LINE
  5
22BC
100
AcDbEntity
  8
VBCONTORNO
100
AcDbLine
 10
10266.050479
 20
-11482.132888
 30
-4071.732329
 11
10484.040086
 21
-11457.35924
 31
-4123.993165
210
0.0
220
-1.0
230
0.0
  0
LINE
  5
22BD
100
AcDbEntity
  8
VBCONTORNO
100
AcDbLine
 10
10484.040086
 20
-11457.35924
 30
-4123.993165
 11
10702.029691
 21
-11432.585456
 31
-4172.870005
210
0.0
220
-1.0
230
0.0
  0
LINE
  5
22C1
100
AcDbEntity
  8
VB
100
AcDbLine
 10
11195.089586
 20
-11376.550862
 30
-4213.172158
 11
10948.559639
 21
-11404.568159
 31
-4157.885687
210
0.0
220
-1.0
230
0.0
  0
LINE
  5
22C3
100
AcDbEntity
  8
VB
100
AcDbLine
 10
10484.040086
 20
-11457.35924
 30
-4053.713162
 11
10266.050479
 21
-11482.132888
 31
-4001.444635
210
0.0
220
-1.0
230
0.0
  0
LINE
  5
22C4
100
AcDbEntity
  8
VB
100
AcDbLine
 10
10266.050479
 20
-11482.132888
 30
-4001.444635
 11
10048.06083
 21
-11506.906542
 31
-3948.988059
210
0.0
220
-1.0
230
0.0
  0
LINE
  5
22C5
100
AcDbEntity
  8
VB
100
AcDbLine
 10
9612.081661
 20
-11556.453835
 30
-3844.074937
 11
9394.092054
 21
-11581.227484
 31
-3791.107549
210
0.0
220
-1.0
230
0.0
  0
LINE
  5
22C6
100
AcDbEntity
  8
VB
100
AcDbLine
 10
9394.092054
 20
-11581.227484
 30
-3791.107549
 11
9176.102448
 21
-11606.001133
 31
-3738.027856
210
0.0
220
-1.0
230
0.0
  0
LINE
  5
22C7
100
AcDbEntity
  8
VB
100
AcDbLine
 10
8958.112842
 20
-11630.774782
 30
-3684.948163
 11
8758.579199
 21
-11653.450984
 31
-3636.362431
210
0.0
220
-1.0
230
0.0
  0
LINE
  5
22C9
100
AcDbEntity
  8
VB
100
AcDbLine
 10
11195.089586
 20
-11376.550862
 30
-4213.172158
 11
11169.399347
 21
-11823.715279
 31
-4224.303595
210
0.0
220
-1.0
230
0.0
  0
LINE
  5
22CA
100
AcDbEntity
  8
VB
100
AcDbLine
 10
8958.112842
 20
-11630.774782
 30
-3684.948163
 11
9176.102448
 21
-11606.001133
 31
-3738.027856
210
0.0
220
-1.0
230
0.0
  0
LINE
  5
22CB
100
AcDbEntity
  8
VB
100
AcDbLine
 10
9612.081661
 20
-11556.453835
 30
-3844.074937
 11
9830.071267
 21
-11531.680186
 31
-3896.531503
210
0.0
220
-1.0
230
0.0
  0
LINE
  5
22D2
100
AcDbEntity
  8
SECUN2VOL
100
AcDbLine
 10
9830.071267
 20
-11531.680186
 30
-4419.667988
 11
9834.023437
 21
-11566.456332
 31
-4419.667988
  0
LINE
  5
22D6
100
AcDbEntity
  8
SECUN2VOL
100
AcDbLine
 10
10048.060873
 20
-11506.906537
 30
-4419.667988
 11
10052.013043
 21
-11541.682684
 31
-4419.667988
  0
LINE
  5
22D7
100
AcDbEntity
  8
SECUN2VOL
100
AcDbLine
 10
10266.050479
 20
-11482.132888
 30
-4419.667988
 11
10270.00265
 21
-11516.909035
 31
-4419.667988
  0
LINE
  5
22D8
100
AcDbEntity
  8
SECUN2VOL
100
AcDbLine
 10
10484.040086
 20
-11457.35924
 30
-4419.667988
 11
10487.992256
 21
-11492.135386
 31
-4419.667988
  0
LINE
  5
22D9
100
AcDbEntity
  8
SECUN2VOL
100
AcDbLine
 10
10702.029692
 20
-11432.585591
 30
-4419.667988
 11
10705.981862
 21
-11467.361737
 31
-4419.667988
  0
LINE
  5
22DA
100
AcDbEntity
  8
SECUN2VOL
100
AcDbLine
 10
10948.559639
 20
-11404.568159
 30
-4419.667988
 11
10952.511809
 21
-11439.344305
 31
-4419.667988
  0
LINE
  5
22DB
100
AcDbEntity
  8
SECUN2VOL
100
AcDbLine
 10
10948.559639
 20
-11404.568159
 30
-5019.667988
 11
10952.511809
 21
-11439.344305
 31
-5019.667988
  0
LINE
  5
22DC
100
AcDbEntity
  8
SECUN2VOL
100
AcDbLine
 10
10702.029692
 20
-11432.585591
 30
-5019.667988
 11
10705.981863
 21
-11467.361737
 31
-5019.667988
  0
LINE
  5
22DD
100
AcDbEntity
  8
SECUN2VOL
100
AcDbLine
 10
10484.040086
 20
-11457.35924
 30
-5019.667988
 11
10487.992256
 21
-11492.135386
 31
-5019.667988
  0
LINE
  5
22DE
100
AcDbEntity
  8
SECUN2VOL
100
AcDbLine
 10
10266.050479
 20
-11482.132888
 30
-5019.667988
 11
10270.00265
 21
-11516.909035
 31
-5019.667988
  0
LINE
  5
22DF
100
AcDbEntity
  8
SECUN2VOL
100
AcDbLine
 10
10048.060873
 20
-11506.906537
 30
-5019.667988
 11
10052.013043
 21
-11541.682684
 31
-5019.667988
  0
LINE
  5
22E0
100
AcDbEntity
  8
SECUN2VOL
100
AcDbLine
 10
9830.071267
 20
-11531.680186
 30
-5019.667988
 11
9834.023437
 21
-11566.456332
 31
-5019.667988
  0
LINE
  5
22E1
100
AcDbEntity
  8
SECUN2VOL
100
AcDbLine
 10
9612.081661
 20
-11556.453835
 30
-5019.667988
 11
9616.033831
 21
-11591.229981
 31
-5019.667988
  0
LINE
  5
22E2
100
AcDbEntity
  8
SECUN2VOL
100
AcDbLine
 10
9394.092054
 20
-11581.227484
 30
-5019.667988
 11
9398.044225
 21
-11616.00363
 31
-5019.667988
  0
LINE
  5
22E7
100
AcDbEntity
  8
SECUN2VOL
100
AcDbLine
 10
9612.081661
 20
-11556.453835
 30
-4419.667988
 11
9616.033831
 21
-11591.229981
 31
-4419.667988
  0
LINE
  5
22E8
100
AcDbEntity
  8
SECUN2VOL
100
AcDbLine
 10
9394.092054
 20
-11581.227484
 30
-4419.667988
 11
9398.044225
 21
-11616.00363
 31
-4419.667988
  0
LINE
  5
22E9
100
AcDbEntity
  8
SECUN2VOL
100
AcDbLine
 10
9176.102448
 20
-11606.001133
 30
-4419.667988
 11
9180.054618
 21
-11640.777279
 31
-4419.667988
  0
LINE
  5
22EA
100
AcDbEntity
  8
SECUN2VOL
100
AcDbLine
 10
8958.112842
 20
-11630.774782
 30
-4419.667988
 11
8962.065012
 21
-11665.550928
 31
-4419.667988
  0
LINE
  5
22EB
100
AcDbEntity
  8
SECUN2VOL
100
AcDbLine
 10
9612.081661
 20
-11556.453835
 30
-3914.385795
 11
9616.033831
 21
-11591.229981
 31
-3914.385795
  0
LINE
  5
22EC
100
AcDbEntity
  8
SECUN2VOL
100
AcDbLine
 10
9612.081661
 20
-11556.453835
 30
-3773.764079
 11
9616.033831
 21
-11591.229981
 31
-3773.764079
  0
LINE
  5
22ED
100
AcDbEntity
  8
SECUN2VOL
100
AcDbLine
 10
9394.092054
 20
-11581.227484
 30
-3720.756734
 11
9398.044225
 21
-11616.00363
 31
-3720.756734
  0
LINE
  5
22EE
100
AcDbEntity
  8
SECUN2VOL
100
AcDbLine
 10
9394.092054
 20
-11581.227484
 30
-3861.458363
 11
9398.044225
 21
-11616.00363
 31
-3861.458363
  0
LINE
  5
22EF
100
AcDbEntity
  8
SECUN2VOL
100
AcDbLine
 10
9176.102448
 20
-11606.001133
 30
-3667.670525
 11
9180.054618
 21
-11640.777279
 31
-3667.670525
  0
LINE
  5
22F0
100
AcDbEntity
  8
SECUN2VOL
100
AcDbLine
 10
9176.102448
 20
-11606.001133
 30
-3808.385186
 11
9180.054618
 21
-11640.777279
 31
-3808.385186
  0
LINE
  5
22F1
100
AcDbEntity
  8
SECUN2VOL
100
AcDbLine
 10
8958.112842
 20
-11630.774782
 30
-3755.31201
 11
8962.065012
 21
-11665.550928
 31
-3755.31201
  0
LINE
  5
22F3
100
AcDbEntity
  8
SECUN2VOL
100
AcDbLine
 10
10266.050479
 20
-11482.132888
 30
-4071.732329
 11
10270.00265
 21
-11516.909035
 31
-4071.732329
  0
LINE
  5
22F4
100
AcDbEntity
  8
SECUN2VOL
100
AcDbLine
 10
10484.040086
 20
-11457.35924
 30
-4123.993165
 11
10487.992256
 21
-11492.135386
 31
-4123.993165
  0
LINE
  5
22F5
100
AcDbEntity
  8
SECUN2VOL
100
AcDbLine
 10
10484.040086
 20
-11457.35924
 30
-3983.433159
 11
10487.992256
 21
-11492.135386
 31
-3983.433159
  0
LINE
  5
22F6
100
AcDbEntity
  8
SECUN2VOL
100
AcDbLine
 10
10266.050479
 20
-11482.132888
 30
-3931.156942
 11
10270.00265
 21
-11516.909035
 31
-3931.156942
  0
LINE
  5
22F7
100
AcDbEntity
  8
SECUN2VOL
100
AcDbLine
 10
10948.559639
 20
-11404.568159
 30
-4228.146058
 11
10952.511809
 21
-11439.344305
 31
-4228.146058
  0
LINE
  5
22F8
100
AcDbEntity
  8
SECUN2VOL
100
AcDbLine
 10
9176.102448
 20
-11606.001133
 30
-5019.667988
 11
9180.054618
 21
-11640.777279
 31
-5019.667988
  0
LINE
  5
22F9
100
AcDbEntity
  8
SECUN2VOL
100
AcDbLine
 10
8958.112842
 20
-11630.774782
 30
-5019.667988
 11
8962.065012
 21
-11665.550928
 31
-5019.667988
  0
LINE
  5
22FE
100
AcDbEntity
  8
SECUN2VOL
100
AcDbLine
 10
10948.559639
 20
-11404.568159
 30
-4819.667988
 11
10952.511809
 21
-11439.344305
 31
-4819.667988
  0
LINE
  5
22FF
100
AcDbEntity
  8
SECUN2VOL
100
AcDbLine
 10
10702.029692
 20
-11432.585591
 30
-4819.667988
 11
10705.981863
 21
-11467.361737
 31
-4819.667988
  0
LINE
  5
2300
100
AcDbEntity
  8
SECUN2VOL
100
AcDbLine
 10
10484.040086
 20
-11457.35924
 30
-4819.667988
 11
10487.992256
 21
-11492.135386
 31
-4819.667988
  0
LINE
  5
2301
100
AcDbEntity
  8
SECUN2VOL
100
AcDbLine
 10
10266.050479
 20
-11482.132888
 30
-4819.667988
 11
10270.00265
 21
-11516.909035
 31
-4819.667988
  0
LINE
  5
2302
100
AcDbEntity
  8
SECUN2VOL
100
AcDbLine
 10
10048.060873
 20
-11506.906537
 30
-4819.667988
 11
10052.013043
 21
-11541.682684
 31
-4819.667988
  0
LINE
  5
2303
100
AcDbEntity
  8
SECUN2VOL
100
AcDbLine
 10
9830.071267
 20
-11531.680186
 30
-4819.667988
 11
9834.023437
 21
-11566.456332
 31
-4819.667988
  0
LINE
  5
2304
100
AcDbEntity
  8
SECUN2VOL
100
AcDbLine
 10
9612.081661
 20
-11556.453835
 30
-4819.667988
 11
9616.033831
 21
-11591.229981
 31
-4819.667988
  0
LINE
  5
2305
100
AcDbEntity
  8
SECUN2VOL
100
AcDbLine
 10
9394.092054
 20
-11581.227484
 30
-4819.667988
 11
9398.044225
 21
-11616.00363
 31
-4819.667988
  0
LINE
  5
230A
100
AcDbEntity
  8
SECUN2VOL
100
AcDbLine
 10
9176.102448
 20
-11606.001133
 30
-4819.667988
 11
9180.054618
 21
-11640.777279
 31
-4819.667988
  0
LINE
  5
230B
100
AcDbEntity
  8
SECUN2VOL
100
AcDbLine
 10
8958.112842
 20
-11630.774782
 30
-4819.667988
 11
8962.065012
 21
-11665.550928
 31
-4819.667988
  0
LINE
  5
230C
100
AcDbEntity
  8
SECUN2VI
100
AcDbLine
 10
9176.102448
 20
-11606.001133
 30
-4819.667988
 11
8958.112842
 21
-11630.774782
 31
-4819.667988
  0
LINE
  5
230D
100
AcDbEntity
  8
SECUN2VI
100
AcDbLine
 10
8758.579199
 20
-11653.450984
 30
-4819.667988
 11
8958.112842
 21
-11630.774782
 31
-4819.667988
210
-0.4155648916357901
220
-0.9095635331518817
230
0.0
  0
LINE
  5
230E
100
AcDbEntity
  8
SECUN2VOL
100
AcDbLine
 10
9830.071267
 20
-11531.680284
 30
-4019.667988
 11
9834.023437
 21
-11566.45643
 31
-4019.667988
  0
LINE
  5
230F
100
AcDbEntity
  8
SECUN2VOL
100
AcDbLine
 10
9612.081661
 20
-11556.453933
 30
-4019.667988
 11
9616.033831
 21
-11591.230079
 31
-4019.667988
  0
LINE
  5
2310
100
AcDbEntity
  8
SECUN2VOL
100
AcDbLine
 10
9394.092054
 20
-11581.227582
 30
-4019.667988
 11
9398.044225
 21
-11616.003728
 31
-4019.667988
  0
LINE
  5
2311
100
AcDbEntity
  8
SECUN2VOL
100
AcDbLine
 10
9176.102448
 20
-11606.00123
 30
-4019.667988
 11
9180.054618
 21
-11640.777377
 31
-4019.667988
  0
LINE
  5
2312
100
AcDbEntity
  8
SECUN2VOL
100
AcDbLine
 10
8958.112842
 20
-11630.774879
 30
-4019.667988
 11
8962.065012
 21
-11665.551026
 31
-4019.667988
  0
LINE
  5
2313
100
AcDbEntity
  8
SECUN2PI
100
AcDbLine
 10
8958.112842
 20
-11630.774782
 30
-3684.948163
 11
8958.112842
 21
-11630.774782
 31
-3614.584316
210
0.0
220
-1.0
230
0.0
  0
LINE
  5
2314
100
AcDbEntity
  8
SECUN2PI
100
AcDbLine
 10
10048.06083
 20
-11506.906157
 30
-4019.667988
 11
10048.06083
 21
-11506.906157
 31
-3879.046272
210
0.0
220
-1.0
230
0.0
  0
LINE
  5
2315
100
AcDbEntity
  8
VB
100
AcDbLine
 10
8758.579199
 20
-11653.450984
 30
-3636.362431
 11
8629.711819
 21
-12030.814821
 31
-3635.484788
  0
LINE
  5
2316
100
AcDbEntity
  8
VB_AUXB
100
AcDbLine
 10
8758.579199
 20
-11653.450984
 30
-3636.362431
 11
8758.579199
 21
-11653.450984
 31
-3565.99262
210
0.0
220
-1.0
230
0.0
  0
LINE
  5
2318
100
AcDbEntity
  8
SECUN2PI
100
AcDbLine
 10
9830.071267
 20
-11531.680186
 30
-3896.531503
 11
9830.071267
 21
-11531.680186
 31
-3826.228367
210
0.0
220
-1.0
230
0.0
  0
LINE
  5
2319
100
AcDbEntity
  8
SECUN2PI
100
AcDbLine
 10
10702.029677
 20
-11432.585458
 30
-4102.599212
 11
10702.029677
 21
-11432.585458
 31
-4032.328422
210
0.0
220
-1.0
230
0.0
  0
LINE
  5
231A
100
AcDbEntity
  8
SECUN2VOL
100
AcDbLine
 10
8958.112842
 20
-11630.774782
 30
-3614.584316
 11
8962.065012
 21
-11665.550928
 31
-3614.584316
  0
LINE
  5
231B
100
AcDbEntity
  8
SECUN2VOL
100
AcDbLine
 10
9830.071267
 20
-11531.680186
 30
-3826.228367
 11
9834.023437
 21
-11566.456332
 31
-3826.228367
  0
LINE
  5
231E
100
AcDbEntity
  8
SECUN2VOL
100
AcDbLine
 10
9830.071267
 20
-11531.680186
 30
-3966.83464
 11
9834.023437
 21
-11566.456332
 31
-3966.83464
  0
LINE
  5
231F
100
AcDbEntity
  8
VBCONTORNO
100
AcDbLine
 10
9830.071267
 20
-11531.680186
 30
-3966.83464
 11
10048.06083
 21
-11506.906157
 31
-4019.667988
210
0.0
220
-1.0
230
0.0
  0
LINE
  5
2320
100
AcDbEntity
  8
VBCONTORNO
100
AcDbLine
 10
10048.06083
 20
-11506.906157
 30
-4019.667988
 11
10266.050479
 21
-11482.132888
 31
-4071.732329
210
0.0
220
-1.0
230
0.0
  0
LINE
  5
2321
100
AcDbEntity
  8
SECUN2VOL
100
AcDbLine
 10
10702.029677
 20
-11432.585458
 30
-4032.328422
 11
10705.981847
 21
-11467.361604
 31
-4032.328422
  0
LINE
  5
2322
100
AcDbEntity
  8
SECUN2VOL
100
AcDbLine
 10
10948.559639
 20
-11404.568159
 30
-4087.625315
 11
10952.511809
 21
-11439.344305
 31
-4087.625315
  0
LINE
  5
2323
100
AcDbEntity
  8
SECUN2VOL
100
AcDbLine
 10
10702.029705
 20
-11432.58558
 30
-4172.870005
 11
10705.981861
 21
-11467.361602
 31
-4172.870005
  0
LINE
  5
2324
100
AcDbEntity
  8
VBCONTORNO
100
AcDbLine
 10
10702.029691
 20
-11432.585456
 30
-4172.870005
 11
10948.559639
 21
-11404.568159
 31
-4228.146058
210
0.0
220
-1.0
230
0.0
  0
LINE
  5
2325
100
AcDbEntity
  8
VBCONTORNO
100
AcDbLine
 10
10948.559639
 20
-11404.568159
 30
-4228.146058
 11
11195.089586
 21
-11376.550862
 31
-4283.42211
210
0.0
220
-1.0
230
0.0
  0
LINE
  5
234E
100
AcDbEntity
  8
SECUN2PE
100
AcDbLine
 10
10270.00265
 20
-11516.908696
 30
-5019.667988
 11
10270.00265
 21
-11516.908696
 31
-4071.732329
210
0.0
220
-1.0
230
0.0
  0
LINE
  5
234F
100
AcDbEntity
  8
SECUN2PE
100
AcDbLine
 10
10052.013043
 20
-11541.682345
 30
-5019.667988
 11
10052.013043
 21
-11541.682345
 31
-4019.667988
210
0.0
220
-1.0
230
0.0
  0
LINE
  5
2350
100
AcDbEntity
  8
SECUN2PE
100
AcDbLine
 10
9834.023437
 20
-11566.455994
 30
-5019.667988
 11
9834.023437
 21
-11566.455994
 31
-3966.83464
210
0.0
220
-1.0
230
0.0
  0
LINE
  5
2351
100
AcDbEntity
  8
SECUN2PE
100
AcDbLine
 10
9616.033831
 20
-11591.229643
 30
-5019.667988
 11
9616.033831
 21
-11591.229643
 31
-3914.385795
210
0.0
220
-1.0
230
0.0
  0
LINE
  5
2353
100
AcDbEntity
  8
SECUN2PE
100
AcDbLine
 10
9398.044225
 20
-11616.003292
 30
-5019.667988
 11
9398.044225
 21
-11616.003292
 31
-3861.458363
210
0.0
220
-1.0
230
0.0
  0
LINE
  5
2354
100
AcDbEntity
  8
SECUN2PE
100
AcDbLine
 10
9180.054618
 20
-11640.776941
 30
-5019.667988
 11
9180.054618
 21
-11640.776941
 31
-3808.385186
210
0.0
220
-1.0
230
0.0
  0
LINE
  5
2356
100
AcDbEntity
  8
SECUN2PE
100
AcDbLine
 10
8962.065012
 20
-11665.55059
 30
-5019.667988
 11
8962.065012
 21
-11665.55059
 31
-3755.31201
210
0.0
220
-1.0
230
0.0
  0
LINE
  5
2357
100
AcDbEntity
  8
SECUN2PE
100
AcDbLine
 10
10952.511809
 20
-11439.343967
 30
-5019.667988
 11
10952.511809
 21
-11439.343967
 31
-4228.146058
210
0.0
220
-1.0
230
0.0
  0
LINE
  5
235D
100
AcDbEntity
  8
SECUN2PE
100
AcDbLine
 10
10705.981862
 20
-11467.361399
 30
-5019.667988
 11
10705.981862
 21
-11467.361399
 31
-4172.870005
210
0.0
220
-1.0
230
0.0
  0
LINE
  5
235E
100
AcDbEntity
  8
SECUN2PE
100
AcDbLine
 10
10487.992256
 20
-11492.135048
 30
-5019.667988
 11
10487.992256
 21
-11492.135048
 31
-4123.993165
210
0.0
220
-1.0
230
0.0
  0
LINE
  5
235F
100
AcDbEntity
  8
SECUN2VE
100
AcDbLine
 10
10487.992256
 20
-11492.135048
 30
-3818.320491
 11
10952.511809
 21
-11439.343967
 31
-3922.553618
210
0.0
220
-1.0
230
0.0
  0
LINE
  5
2360
100
AcDbEntity
  8
SECUN2VE
100
AcDbLine
 10
8962.065012
 20
-11665.55059
 30
-3449.244517
 11
9398.044225
 21
-11616.003292
 31
-3555.479528
210
0.0
220
-1.0
230
0.0
  0
LINE
  5
2363
100
AcDbEntity
  8
SECUN2VE
100
AcDbLine
 10
9398.044225
 20
-11616.003292
 30
-3646.695644
 11
10487.992256
 21
-11492.135048
 31
-3911.565999
210
0.0
220
-1.0
230
0.0
  0
LINE
  5
2364
100
AcDbEntity
  8
SECUN2VE
100
AcDbLine
 10
8962.065012
 20
-11665.551026
 30
-4019.667988
 11
10952.511809
 21
-11439.343808
 31
-4019.667988
210
0.0
220
-1.0
230
0.0
  0
LINE
  5
2365
100
AcDbEntity
  8
SECUN2VE
100
AcDbLine
 10
8962.065012
 20
-11665.550928
 30
-4419.667988
 11
10952.511809
 21
-11439.34371
 31
-4419.667988
210
0.0
220
-1.0
230
0.0
  0
LINE
  5
2366
100
AcDbEntity
  8
SECUN2VE
100
AcDbLine
 10
8962.065012
 20
-11665.550928
 30
-4819.667988
 11
10952.511809
 21
-11439.34371
 31
-4819.667988
210
0.0
220
-1.0
230
0.0
  0
LINE
  5
2367
100
AcDbEntity
  8
SECUN2VE
100
AcDbLine
 10
8962.065012
 20
-11665.550928
 30
-5019.667988
 11
10952.511809
 21
-11439.34371
 31
-5019.667988
210
0.0
220
-1.0
230
0.0
  0
LINE
  5
2377
100
AcDbEntity
  8
VB
100
AcDbLine
 10
10484.040086
 20
-11457.35924
 30
-4053.713162
 11
10702.029691
 21
-11432.585579
 31
-4102.599212
210
0.0
220
-1.0
230
0.0
  0
LINE
  5
2378
100
AcDbEntity
  8
VB
100
AcDbLine
 10
10702.029691
 20
-11432.585579
 30
-4102.599212
 11
10948.559639
 21
-11404.568159
 31
-4157.885687
210
0.0
220
-1.0
230
0.0
  0
INSERT
  5
2395
100
AcDbEntity
  8
VB
100
AcDbBlockReference
  2
INI2VBE
 10
2927.297501
 20
-12085.964893
 30
-5142.605925
  0
INSERT
  5
2396
100
AcDbEntity
  8
VB
100
AcDbBlockReference
  2
INI2VBE
 10
2530.907945
 20
-12083.819958
 30
-5317.591353
  0
LINE
  5
239A
100
AcDbEntity
  8
SECUN2PE
100
AcDbLine
 10
8962.065012
 20
-11665.55059
 30
-3614.584316
 11
8962.065012
 21
-11665.55059
 31
-3449.244517
210
0.0
220
-1.0
230
0.0
  0
LINE
  5
239B
100
AcDbEntity
  8
SECUN2PE
100
AcDbLine
 10
9180.054618
 20
-11640.776941
 30
-3667.670525
 11
9180.054618
 21
-11640.776941
 31
-3502.453733
210
0.0
220
-1.0
230
0.0
  0
LINE
  5
239C
100
AcDbEntity
  8
SECUN2PE
100
AcDbLine
 10
9398.044225
 20
-11616.003292
 30
-3720.756734
 11
9398.044225
 21
-11616.003292
 31
-3555.479528
210
0.0
220
-1.0
230
0.0
  0
LINE
  5
239D
100
AcDbEntity
  8
SECUN2PE
100
AcDbLine
 10
9616.033831
 20
-11591.229643
 30
-3773.764079
 11
9616.033831
 21
-11591.229643
 31
-3699.669715
210
0.0
220
-1.0
230
0.0
  0
LINE
  5
239E
100
AcDbEntity
  8
SECUN2PE
100
AcDbLine
 10
9834.023437
 20
-11566.455994
 30
-3826.228367
 11
9834.023437
 21
-11566.455994
 31
-3752.643786
210
0.0
220
-1.0
230
0.0
  0
LINE
  5
239F
100
AcDbEntity
  8
SECUN2PE
100
AcDbLine
 10
10270.00265
 20
-11516.908696
 30
-3931.156942
 11
10270.00265
 21
-11516.908696
 31
-3858.591928
210
0.0
220
-1.0
230
0.0
  0
LINE
  5
23A0
100
AcDbEntity
  8
SECUN2PE
100
AcDbLine
 10
10952.511809
 20
-11439.343967
 30
-4087.625315
 11
10952.511809
 21
-11439.343967
 31
-3922.553618
210
0.0
220
-1.0
230
0.0
  0
LINE
  5
23A1
100
AcDbEntity
  8
SECUN2PE
100
AcDbLine
 10
10705.981862
 20
-11467.361399
 30
-4032.328422
 11
10705.981862
 21
-11467.361399
 31
-3867.234984
210
0.0
220
-1.0
230
0.0
  0
LINE
  5
23A2
100
AcDbEntity
  8
SECUN2PE
100
AcDbLine
 10
10487.992256
 20
-11492.135048
 30
-3983.433159
 11
10487.992256
 21
-11492.135048
 31
-3818.320491
210
0.0
220
-1.0
230
0.0
  0
LINE
  5
23A4
100
AcDbEntity
  8
SECUN2PE
100
AcDbLine
 10
10952.511809
 20
-11439.344305
 30
-4228.146058
 11
10952.511809
 21
-11439.344305
 31
-4087.625315
210
1.0
220
0.0
230
0.0
  0
LINE
  5
23A6
100
AcDbEntity
  8
SECUN2VOL
100
AcDbLine
 10
10048.06083
 20
-11506.906157
 30
-4019.667988
 11
10052.013043
 21
-11541.682345
 31
-4019.667988
210
1.0
220
0.0
230
0.0
  0
LINE
  5
23A7
100
AcDbEntity
  8
SECUN2VOL
100
AcDbLine
 10
10048.06083
 20
-11506.906157
 30
-3879.046272
 11
10052.013043
 21
-11541.682345
 31
-3879.046272
210
1.0
220
0.0
230
0.0
  0
LINE
  5
23A8
100
AcDbEntity
  8
SECUN2PE
100
AcDbLine
 10
10052.013043
 20
-11541.682345
 30
-3879.046272
 11
10052.013043
 21
-11541.682345
 31
-3805.617857
210
0.0
220
-1.0
230
0.0
  0
LINE
  5
23A9
100
AcDbEntity
  8
SECUN2PE
100
AcDbLine
 10
10705.981861
 20
-11467.361602
 30
-4172.870005
 11
10705.981847
 21
-11467.361604
 31
-4032.328422
210
1.0
220
0.0
230
0.0
  0
LINE
  5
23AA
100
AcDbEntity
  8
SECUN2PE
100
AcDbLine
 10
10487.992256
 20
-11492.135048
 30
-4123.993165
 11
10487.992256
 21
-11492.135048
 31
-3983.433159
210
1.0
220
0.0
230
0.0
  0
LINE
  5
23AB
100
AcDbEntity
  8
SECUN2PE
100
AcDbLine
 10
10270.00265
 20
-11516.908696
 30
-4071.732329
 11
10270.00265
 21
-11516.908696
 31
-3931.156942
210
1.0
220
0.0
230
0.0
  0
LINE
  5
23AC
100
AcDbEntity
  8
SECUN2PE
100
AcDbLine
 10
10052.013038
 20
-11541.682299
 30
-4019.667988
 11
10052.013043
 21
-11541.682345
 31
-3879.046272
210
1.0
220
0.0
230
0.0
  0
LINE
  5
23AD
100
AcDbEntity
  8
SECUN2PE
100
AcDbLine
 10
9834.023437
 20
-11566.455994
 30
-3966.83464
 11
9834.023437
 21
-11566.455994
 31
-3826.228367
210
1.0
220
0.0
230
0.0
  0
LINE
  5
23AE
100
AcDbEntity
  8
SECUN2PE
100
AcDbLine
 10
9616.033831
 20
-11591.229981
 30
-3914.385795
 11
9616.033831
 21
-11591.229643
 31
-3773.764079
210
1.0
220
0.0
230
0.0
  0
LINE
  5
23AF
100
AcDbEntity
  8
SECUN2PE
100
AcDbLine
 10
9398.044225
 20
-11616.003292
 30
-3861.458363
 11
9398.044225
 21
-11616.003292
 31
-3720.756734
210
1.0
220
0.0
230
0.0
  0
LINE
  5
23B0
100
AcDbEntity
  8
SECUN2PE
100
AcDbLine
 10
9180.054618
 20
-11640.777279
 30
-3808.385186
 11
9180.054618
 21
-11640.777279
 31
-3667.670525
210
1.0
220
0.0
230
0.0
  0
LINE
  5
23B1
100
AcDbEntity
  8
SECUN2PE
100
AcDbLine
 10
8962.065012
 20
-11665.55059
 30
-3755.31201
 11
8962.065012
 21
-11665.550928
 31
-3614.584316
210
1.0
220
0.0
230
0.0
  0
LINE
  5
23B3
100
AcDbEntity
  8
PILARESN2
100
AcDbLine
 10
8958.112842
 20
-11630.774782
 30
-3755.31201
 11
8958.112842
 21
-11630.774782
 31
-3684.948163
210
1.0
220
0.0
230
0.0
  0
LINE
  5
23B4
100
AcDbEntity
  8
PILARESN2
100
AcDbLine
 10
9830.071267
 20
-11531.680186
 30
-3966.83464
 11
9830.071267
 21
-11531.680186
 31
-3896.531503
210
1.0
220
0.0
230
0.0
  0
LINE
  5
23B5
100
AcDbEntity
  8
PILARESN2
100
AcDbLine
 10
10702.029691
 20
-11432.585582
 30
-4172.870005
 11
10702.029677
 21
-11432.585458
 31
-4102.599212
210
1.0
220
0.0
230
0.0
  0
LINE
  5
23B7
100
AcDbEntity
  8
PILARESN2
100
AcDbLine
 10
11195.089586
 20
-11376.550727
 30
-4419.667988
 11
11195.089586
 21
-11376.550862
 31
-4213.172158
210
1.0
220
0.0
230
0.0
  0
LINE
  5
23BA
100
AcDbEntity
  8
VB
100
AcDbLine
 10
10048.06083
 20
-11506.906542
 30
-3948.988059
 11
9830.071267
 21
-11531.680186
 31
-3896.531503
210
0.0
220
1.0
230
0.0
  0
LINE
  5
240B
100
AcDbEntity
  8
VIGASN
100
AcDbLine
 10
14889.263172
 20
-11472.517956
 30
-5219.667988
 11
15403.233116
 21
-11421.809083
 31
-5219.667988
210
0.0
220
-1.0
230
0.0
  0
LINE
  5
240D
100
AcDbEntity
  8
SECUN3PI
100
AcDbLine
 10
15146.248144
 20
-11447.071998
 30
-5895.667988
 11
15146.248144
 21
-11447.071998
 31
-5194.065228
210
0.0
220
-1.0
230
0.0
  0
LINE
  5
240E
100
AcDbEntity
  8
VBCONTORNO
100
AcDbLine
 10
13432.757035
 20
-11613.943497
 30
-4819.667988
 11
15403.233116
 21
-11422.045042
 31
-5250.21636
210
0.0
220
-1.0
230
0.0
  0
LINE
  5
240F
100
AcDbEntity
  8
SECUN3PI
100
AcDbLine
 10
13371.538445
 20
-11620.36372
 30
-5775.865424
 11
13371.539583
 21
-11620.36372
 31
-5219.667988
210
0.0
220
-1.0
230
0.0
  0
LINE
  5
2410
100
AcDbEntity
  8
SECUN3PI
100
AcDbLine
 10
13588.202318
 20
-11599.721948
 30
-5788.811011
 11
13588.20433
 21
-11599.721948
 31
-4853.63317
210
0.0
220
-1.0
230
0.0
  0
LINE
  5
2411
100
AcDbEntity
  8
SECUN3PI
100
AcDbLine
 10
13804.866149
 20
-11579.080177
 30
-5802.422055
 11
13804.868242
 21
-11579.080177
 31
-4900.974163
210
0.0
220
-1.0
230
0.0
  0
LINE
  5
2412
100
AcDbEntity
  8
SECUN3PI
100
AcDbLine
 10
14238.462523
 20
-11536.958293
 30
-5837.613442
 11
14238.465065
 21
-11536.958293
 31
-4995.714926
210
0.0
220
-1.0
230
0.0
  0
LINE
  5
2413
100
AcDbEntity
  8
SECUN3PI
100
AcDbLine
 10
14672.327415
 20
-11493.998068
 30
-5867.649673
 11
14672.330808
 21
-11493.998068
 31
-5090.514447
210
0.0
220
-1.0
230
0.0
  0
LINE
  5
2414
100
AcDbEntity
  8
SECUN3PI
100
AcDbLine
 10
14455.39502
 20
-11515.47818
 30
-5852.821658
 11
14455.397957
 21
-11515.47818
 31
-5043.114691
210
0.0
220
-1.0
230
0.0
  0
LINE
  5
2415
100
AcDbEntity
  8
SECUN3PI
100
AcDbLine
 10
13371.539583
 20
-11620.36372
 30
-5219.667988
 11
13371.540715
 21
-11620.36372
 31
-4666.157221
210
0.0
220
-1.0
230
0.0
  0
LINE
  5
2418
100
AcDbEntity
  8
VBCONTORNO
100
AcDbLine
 10
13154.875625
 20
-11641.520034
 30
-4618.781954
 11
15403.233116
 21
-11421.978641
 31
-5110.400311
210
0.0
220
-1.0
230
0.0
  0
LINE
  5
2419
100
AcDbEntity
  8
SECUN3PI
100
AcDbLine
 10
13588.20433
 20
-11599.721948
 30
-4853.63317
 11
13588.204631
 21
-11599.721948
 31
-4713.53223
210
0.0
220
-1.0
230
0.0
  0
LINE
  5
241A
100
AcDbEntity
  8
SECUN3PI
100
AcDbLine
 10
13804.868242
 20
-11579.080177
 30
-4900.974163
 11
13804.868543
 21
-11579.080177
 31
-4760.907239
210
0.0
220
-1.0
230
0.0
  0
LINE
  5
241B
100
AcDbEntity
  8
SECUN3PI
100
AcDbLine
 10
14238.465065
 20
-11536.958293
 30
-4995.714926
 11
14238.465366
 21
-11536.958293
 31
-4855.716076
210
0.0
220
-1.0
230
0.0
  0
LINE
  5
241C
100
AcDbEntity
  8
SECUN3PI
100
AcDbLine
 10
14455.397957
 20
-11515.47818
 30
-5043.114691
 11
14455.398258
 21
-11515.47818
 31
-4903.149899
210
0.0
220
-1.0
230
0.0
  0
LINE
  5
241D
100
AcDbEntity
  8
SECUN3PI
100
AcDbLine
 10
14672.330808
 20
-11493.998068
 30
-5090.514447
 11
14672.331109
 21
-11493.998068
 31
-4950.583713
210
0.0
220
-1.0
230
0.0
  0
LINE
  5
241E
100
AcDbEntity
  8
SECUN3PI
100
AcDbLine
 10
15146.248144
 20
-11447.071998
 30
-5194.065228
 11
15146.248445
 21
-11447.071998
 31
-5054.208898
210
0.0
220
-1.0
230
0.0
  0
LINE
  5
2422
100
AcDbEntity
  8
VB
100
AcDbLine
 10
15403.233116
 20
-11422.045042
 30
-5180.28816
 11
15288.450298
 21
-11433.223379
 31
-5155.208153
210
0.0
220
-1.0
230
0.0
  0
LINE
  5
2423
100
AcDbEntity
  8
VB
100
AcDbLine
 10
14889.263172
 20
-11472.517956
 30
-5067.965727
 11
14672.330959
 21
-11493.998068
 31
-5020.54908
210
0.0
220
-1.0
230
0.0
  0
LINE
  5
2424
100
AcDbEntity
  8
VB
100
AcDbLine
 10
14672.330959
 20
-11493.998068
 30
-5020.54908
 11
14455.398107
 21
-11515.47818
 31
-4973.132295
210
0.0
220
-1.0
230
0.0
  0
LINE
  5
2425
100
AcDbEntity
  8
VB
100
AcDbLine
 10
14455.398107
 20
-11515.47818
 30
-4973.132295
 11
14238.465216
 21
-11536.958293
 31
-4925.715501
210
0.0
220
-1.0
230
0.0
  0
LINE
  5
2427
100
AcDbEntity
  8
VB
100
AcDbLine
 10
13804.868392
 20
-11579.080177
 30
-4830.940701
 11
13588.20448
 21
-11599.721948
 31
-4783.5827
210
0.0
220
-1.0
230
0.0
  0
LINE
  5
2428
100
AcDbEntity
  8
VB
100
AcDbLine
 10
13588.20448
 20
-11599.721948
 30
-4783.5827
 11
13371.540572
 21
-11620.36372
 31
-4736.2247
210
0.0
220
-1.0
230
0.0
  0
LINE
  5
242A
100
AcDbEntity
  8
VB
100
AcDbLine
 10
13371.540572
 20
-11620.36372
 30
-4736.2247
 11
13154.875625
 21
-11641.005506
 31
-4688.883481
210
0.0
220
-1.0
230
0.0
  0
LINE
  5
242B
100
AcDbEntity
  8
PILARESN
100
AcDbLine
 10
14021.531461
 20
-11558.438405
 30
-4948.315005
 11
14021.531461
 21
-11558.438405
 31
-4878.298518
210
0.0
220
-1.0
230
0.0
  0
LINE
  5
242C
100
AcDbEntity
  8
VB
100
AcDbLine
 10
13804.868392
 20
-11579.080177
 30
-4830.940701
 11
14021.531461
 21
-11558.438405
 31
-4878.298518
210
0.0
220
-1.0
230
0.0
  0
LINE
  5
242D
100
AcDbEntity
  8
VB
100
AcDbLine
 10
14021.531461
 20
-11558.438405
 30
-4878.298518
 11
14238.465216
 21
-11536.958293
 31
-4925.715501
210
0.0
220
-1.0
230
0.0
  0
LINE
  5
242E
100
AcDbEntity
  8
SECUN3PI
100
AcDbLine
 10
14021.531461
 20
-11558.438405
 30
-4878.298518
 11
14021.531461
 21
-11558.438405
 31
-4808.282031
210
0.0
220
-1.0
230
0.0
  0
LINE
  5
242F
100
AcDbEntity
  8
PILARESN
100
AcDbLine
 10
13154.875624
 20
-11641.005493
 30
-4758.950991
 11
13154.875625
 21
-11641.005506
 31
-4688.883481
210
0.0
220
-1.0
230
0.0
  0
LINE
  5
2431
100
AcDbEntity
  8
SECUN3PI
100
AcDbLine
 10
13154.875625
 20
-11641.005506
 30
-4688.883481
 11
13154.875625
 21
-11641.520034
 31
-4618.781954
210
0.0
220
-1.0
230
0.0
  0
LINE
  5
2432
100
AcDbEntity
  8
PILARESN
100
AcDbLine
 10
14889.263172
 20
-11472.517956
 30
-5137.914097
 11
14889.263172
 21
-11472.517956
 31
-5067.965727
210
0.0
220
-1.0
230
0.0
  0
LINE
  5
2433
100
AcDbEntity
  8
SECUN3PI
100
AcDbLine
 10
14889.263172
 20
-11472.517956
 30
-5067.965727
 11
14889.263172
 21
-11472.517956
 31
-4998.017355
210
0.0
220
-1.0
230
0.0
  0
LINE
  5
2435
100
AcDbEntity
  8
PILARESN
100
AcDbLine
 10
15403.233116
 20
-11421.809083
 30
-5219.667988
 11
15403.233116
 21
-11422.045042
 31
-5180.28816
210
0.0
220
-1.0
230
0.0
  0
LINE
  5
2436
100
AcDbEntity
  8
SECUN3PI
100
AcDbLine
 10
15403.233116
 20
-11422.045042
 30
-5180.28816
 11
15403.233116
 21
-11422.045042
 31
-5110.400311
210
0.0
220
-1.0
230
0.0
  0
LINE
  5
2437
100
AcDbEntity
  8
VB
100
AcDbLine
 10
14889.263172
 20
-11472.517956
 30
-5067.965727
 11
15146.248144
 21
-11447.071998
 31
-5124.137031
210
0.0
220
-1.0
230
0.0
  0
LINE
  5
2445
100
AcDbEntity
  8
VB
100
AcDbLine
 10
15288.450298
 20
-11433.223379
 30
-5155.208153
 11
15146.248294
 21
-11447.071998
 31
-5124.137063
210
0.0
220
-1.0
230
0.0
  0
LINE
  5
245A
100
AcDbEntity
  8
SECUN3VI
100
AcDbLine
 10
15403.233116
 20
-11421.626041
 30
-5619.667988
 11
15146.248144
 21
-11447.071998
 31
-5619.667988
210
0.0
220
-1.0
230
0.0
  0
LINE
  5
245B
100
AcDbEntity
  8
SECUN3VI
100
AcDbLine
 10
15146.248144
 20
-11447.071998
 30
-5619.667988
 11
14889.263172
 21
-11472.517956
 31
-5619.667988
210
0.0
220
-1.0
230
0.0
  0
LINE
  5
245C
100
AcDbEntity
  8
SECUN3VI
100
AcDbLine
 10
14889.263172
 20
-11472.517956
 30
-5619.667988
 11
14672.328498
 21
-11493.998068
 31
-5619.667988
210
0.0
220
-1.0
230
0.0
  0
LINE
  5
245D
100
AcDbEntity
  8
SECUN3VI
100
AcDbLine
 10
14672.328498
 20
-11493.998068
 30
-5619.667988
 11
14455.395866
 21
-11515.47818
 31
-5619.667988
210
0.0
220
-1.0
230
0.0
  0
LINE
  5
245E
100
AcDbEntity
  8
SECUN3VI
100
AcDbLine
 10
13154.875624
 20
-11641.005492
 30
-5619.667988
 11
13371.538765
 21
-11620.36372
 31
-5619.667988
210
0.0
220
-1.0
230
0.0
  0
LINE
  5
245F
100
AcDbEntity
  8
SECUN3VI
100
AcDbLine
 10
14455.395866
 20
-11515.47818
 30
-5619.667988
 11
14238.463181
 21
-11536.958293
 31
-5619.667988
210
0.0
220
-1.0
230
0.0
  0
LINE
  5
2460
100
AcDbEntity
  8
SECUN3VI
100
AcDbLine
 10
14238.463181
 20
-11536.958293
 30
-5619.667988
 11
14021.531461
 21
-11558.438405
 31
-5619.667988
210
0.0
220
-1.0
230
0.0
  0
LINE
  5
2461
100
AcDbEntity
  8
SECUN3VI
100
AcDbLine
 10
14021.531461
 20
-11558.438405
 30
-5619.667988
 11
13804.866573
 21
-11579.080177
 31
-5619.667988
210
0.0
220
-1.0
230
0.0
  0
LINE
  5
2462
100
AcDbEntity
  8
SECUN3VI
100
AcDbLine
 10
13804.866573
 20
-11579.080177
 30
-5619.667988
 11
13588.202682
 21
-11599.721948
 31
-5619.667988
210
0.0
220
-1.0
230
0.0
  0
LINE
  5
2463
100
AcDbEntity
  8
SECUN3VI
100
AcDbLine
 10
13588.202682
 20
-11599.721948
 30
-5619.667988
 11
13371.538765
 21
-11620.36372
 31
-5619.667988
210
0.0
220
-1.0
230
0.0
  0
LINE
  5
2466
100
AcDbEntity
  8
SECUN3VI
100
AcDbLine
 10
13432.757035
 20
-11613.943497
 30
-4819.667988
 11
13371.540401
 21
-11620.36372
 31
-4819.667988
210
0.0
220
-1.0
230
0.0
  0
LINE
  5
2467
100
AcDbEntity
  8
SECUN3VI
100
AcDbLine
 10
13371.540401
 20
-11620.36372
 30
-4819.667988
 11
13154.875624
 21
-11641.005492
 31
-4819.667988
210
0.0
220
-1.0
230
0.0
  0
LINE
  5
2468
100
AcDbEntity
  8
SECUN3PI
100
AcDbLine
 10
13432.757035
 20
-11613.943497
 30
-4819.667988
 11
13447.300406
 21
-11613.14601
 31
-4752.784146
210
0.0
220
-1.0
230
0.0
  0
LINE
  5
246D
100
AcDbEntity
  8
SECUN3VOL
100
AcDbLine
 10
13371.539583
 20
-11620.36372
 30
-5219.667988
 11
13375.491753
 21
-11655.139867
 31
-5219.667988
  0
LINE
  5
2473
100
AcDbEntity
  8
SECUN3VOL
100
AcDbLine
 10
13154.875624
 20
-11641.005492
 30
-5219.667988
 11
13158.827794
 21
-11675.781638
 31
-5219.667988
  0
LINE
  5
2474
100
AcDbEntity
  8
SECUN3VOL
100
AcDbLine
 10
13154.875624
 20
-11641.005492
 30
-5619.667988
 11
13158.827794
 21
-11675.781638
 31
-5619.667988
  0
LINE
  5
2475
100
AcDbEntity
  8
SECUN3VOL
100
AcDbLine
 10
13371.538765
 20
-11620.36372
 30
-5619.667988
 11
13375.490935
 21
-11655.139867
 31
-5619.667988
  0
LINE
  5
2476
100
AcDbEntity
  8
SECUN3VOL
100
AcDbLine
 10
13588.202682
 20
-11599.721948
 30
-5619.667988
 11
13592.154852
 21
-11634.498095
 31
-5619.667988
  0
LINE
  5
2477
100
AcDbEntity
  8
SECUN3VOL
100
AcDbLine
 10
13588.203542
 20
-11599.721948
 30
-5219.667988
 11
13592.155713
 21
-11634.498095
 31
-5219.667988
  0
LINE
  5
2478
100
AcDbEntity
  8
SECUN3VOL
100
AcDbLine
 10
13588.20433
 20
-11599.721948
 30
-4853.63317
 11
13592.1565
 21
-11634.498095
 31
-4853.63317
  0
LINE
  5
2479
100
AcDbEntity
  8
SECUN3VOL
100
AcDbLine
 10
13588.204631
 20
-11599.721948
 30
-4713.53223
 11
13592.156801
 21
-11634.498095
 31
-4713.53223
  0
LINE
  5
247A
100
AcDbEntity
  8
SECUN3VOL
100
AcDbLine
 10
13432.757035
 20
-11613.943497
 30
-4819.667988
 11
13436.709206
 21
-11648.719643
 31
-4819.667988
  0
LINE
  5
247C
100
AcDbEntity
  8
SECUN3VOL
100
AcDbLine
 10
13371.540715
 20
-11620.36372
 30
-4666.157221
 11
13375.492885
 21
-11655.139867
 31
-4666.157221
  0
LINE
  5
247D
100
AcDbEntity
  8
SECUN3VOL
100
AcDbLine
 10
13154.875624
 20
-11641.005492
 30
-4819.667988
 11
13158.827794
 21
-11675.781639
 31
-4819.667988
  0
LINE
  5
247E
100
AcDbEntity
  8
SECUN3VOL
100
AcDbLine
 10
13154.875624
 20
-11641.005493
 30
-4758.950991
 11
13158.827794
 21
-11675.781639
 31
-4758.950991
  0
LINE
  5
247F
100
AcDbEntity
  8
SECUN3VOL
100
AcDbLine
 10
13154.875625
 20
-11641.520034
 30
-4618.781954
 11
13158.827794
 21
-11675.781638
 31
-4618.781954
  0
LINE
  5
2480
100
AcDbEntity
  8
SECUN3VOL
100
AcDbLine
 10
13804.868242
 20
-11579.080177
 30
-4900.974163
 11
13808.820412
 21
-11613.856323
 31
-4900.974163
  0
LINE
  5
2481
100
AcDbEntity
  8
SECUN3VOL
100
AcDbLine
 10
13804.868543
 20
-11579.080177
 30
-4760.907239
 11
13808.820713
 21
-11613.856323
 31
-4760.907239
  0
LINE
  5
2482
100
AcDbEntity
  8
SECUN3VOL
100
AcDbLine
 10
13804.867502
 20
-11579.080177
 30
-5219.667988
 11
13808.819672
 21
-11613.856323
 31
-5219.667988
  0
LINE
  5
2483
100
AcDbEntity
  8
SECUN3VOL
100
AcDbLine
 10
13804.866573
 20
-11579.080177
 30
-5619.667988
 11
13808.818743
 21
-11613.856323
 31
-5619.667988
  0
LINE
  5
2484
100
AcDbEntity
  8
SECUN3VOL
100
AcDbLine
 10
14021.531461
 20
-11558.438405
 30
-4808.282031
 11
14025.483631
 21
-11593.214551
 31
-4808.282031
  0
LINE
  5
2485
100
AcDbEntity
  8
SECUN3VOL
100
AcDbLine
 10
14021.531461
 20
-11558.438405
 30
-4948.315005
 11
14025.483631
 21
-11593.214551
 31
-4948.315005
  0
LINE
  5
2486
100
AcDbEntity
  8
SECUN3VOL
100
AcDbLine
 10
14238.465366
 20
-11536.958293
 30
-4855.716076
 11
14242.417537
 21
-11571.734439
 31
-4855.716076
  0
LINE
  5
2487
100
AcDbEntity
  8
SECUN3VOL
100
AcDbLine
 10
14238.465065
 20
-11536.958293
 30
-4995.714926
 11
14242.417235
 21
-11571.734439
 31
-4995.714926
  0
LINE
  5
2488
100
AcDbEntity
  8
SECUN3VOL
100
AcDbLine
 10
14021.531461
 20
-11558.438405
 30
-5219.667988
 11
14025.483631
 21
-11593.214551
 31
-5219.667988
  0
LINE
  5
2489
100
AcDbEntity
  8
SECUN3VOL
100
AcDbLine
 10
14238.464389
 20
-11536.958293
 30
-5219.667988
 11
14242.416559
 21
-11571.734439
 31
-5219.667988
  0
LINE
  5
248A
100
AcDbEntity
  8
SECUN3VOL
100
AcDbLine
 10
14021.531461
 20
-11558.438405
 30
-5619.667988
 11
14025.483631
 21
-11593.214551
 31
-5619.667988
  0
LINE
  5
248B
100
AcDbEntity
  8
SECUN3VOL
100
AcDbLine
 10
14238.463181
 20
-11536.958293
 30
-5619.667988
 11
14242.415351
 21
-11571.734439
 31
-5619.667988
  0
LINE
  5
248C
100
AcDbEntity
  8
SECUN3VOL
100
AcDbLine
 10
14455.395866
 20
-11515.47818
 30
-5619.667988
 11
14459.348036
 21
-11550.254327
 31
-5619.667988
  0
LINE
  5
248D
100
AcDbEntity
  8
SECUN3VOL
100
AcDbLine
 10
14455.397316
 20
-11515.47818
 30
-5219.667988
 11
14459.349487
 21
-11550.254327
 31
-5219.667988
  0
LINE
  5
248E
100
AcDbEntity
  8
SECUN3VOL
100
AcDbLine
 10
14455.397957
 20
-11515.47818
 30
-5043.114691
 11
14459.350127
 21
-11550.254327
 31
-5043.114691
  0
LINE
  5
2490
100
AcDbEntity
  8
SECUN3VOL
100
AcDbLine
 10
14455.398258
 20
-11515.47818
 30
-4903.149899
 11
14459.350428
 21
-11550.254327
 31
-4903.149899
  0
LINE
  5
2491
100
AcDbEntity
  8
SECUN3VOL
100
AcDbLine
 10
14672.331109
 20
-11493.998068
 30
-4950.583713
 11
14676.283279
 21
-11528.774214
 31
-4950.583713
  0
LINE
  5
2492
100
AcDbEntity
  8
SECUN3VOL
100
AcDbLine
 10
14672.330808
 20
-11493.998068
 30
-5090.514447
 11
14676.282978
 21
-11528.774214
 31
-5090.514447
  0
LINE
  5
2493
100
AcDbEntity
  8
SECUN3VOL
100
AcDbLine
 10
14672.330244
 20
-11493.998068
 30
-5219.667988
 11
14676.282414
 21
-11528.774214
 31
-5219.667988
  0
LINE
  5
2494
100
AcDbEntity
  8
SECUN3VOL
100
AcDbLine
 10
14672.328498
 20
-11493.998068
 30
-5619.667988
 11
14676.280668
 21
-11528.774214
 31
-5619.667988
  0
LINE
  5
2495
100
AcDbEntity
  8
SECUN3VOL
100
AcDbLine
 10
14889.263172
 20
-11472.517956
 30
-5619.667988
 11
14893.215342
 21
-11507.294102
 31
-5619.667988
  0
LINE
  5
2496
100
AcDbEntity
  8
SECUN3VOL
100
AcDbLine
 10
14889.263172
 20
-11472.517956
 30
-5219.667988
 11
14893.215342
 21
-11507.294102
 31
-5219.667988
  0
LINE
  5
2497
100
AcDbEntity
  8
SECUN3VOL
100
AcDbLine
 10
14889.263172
 20
-11472.517956
 30
-5137.914097
 11
14893.215342
 21
-11507.294102
 31
-5137.914097
  0
LINE
  5
2498
100
AcDbEntity
  8
SECUN3VOL
100
AcDbLine
 10
14889.263172
 20
-11472.517956
 30
-4998.017355
 11
14893.215342
 21
-11507.294102
 31
-4998.017355
  0
LINE
  5
2499
100
AcDbEntity
  8
SECUN3VOL
100
AcDbLine
 10
15146.248144
 20
-11447.071998
 30
-5054.208833
 11
15150.210715
 21
-11481.939666
 31
-5054.208833
  0
LINE
  5
249A
100
AcDbEntity
  8
SECUN3VOL
100
AcDbLine
 10
15146.248144
 20
-11447.071998
 30
-5194.065228
 11
15150.200314
 21
-11481.848145
 31
-5194.065228
  0
LINE
  5
249C
100
AcDbEntity
  8
SECUN3VOL
100
AcDbLine
 10
15146.248144
 20
-11447.071998
 30
-5619.667988
 11
15150.200314
 21
-11481.848145
 31
-5619.667988
  0
LINE
  5
249D
100
AcDbEntity
  8
SECUN3VOL
100
AcDbLine
 10
15403.233116
 20
-11421.626041
 30
-5619.667988
 11
15407.185287
 21
-11456.402187
 31
-5619.667988
  0
LINE
  5
249E
100
AcDbEntity
  8
SECUN3VOL
100
AcDbLine
 10
15403.233116
 20
-11421.626041
 30
-5250.21636
 11
15407.185287
 21
-11456.402187
 31
-5250.21636
  0
LINE
  5
249F
100
AcDbEntity
  8
SECUN3VOL
100
AcDbLine
 10
15403.233116
 20
-11422.045042
 30
-5110.400311
 11
15407.185287
 21
-11456.402187
 31
-5110.400311
  0
LINE
  5
24A0
100
AcDbEntity
  8
SECUN3VOL
100
AcDbLine
 10
15146.248144
 20
-11447.163519
 30
-5219.667986
 11
15150.200314
 21
-11481.939666
 31
-5219.667986
  0
LINE
  5
24A4
100
AcDbEntity
  8
SECUN3PE
100
AcDbLine
 10
13375.490616
 20
-11655.139867
 30
-5775.865424
 11
13375.492571
 21
-11655.139867
 31
-4819.667988
210
0.0
220
-1.0
230
0.0
  0
LINE
  5
24A5
100
AcDbEntity
  8
SECUN3PE
100
AcDbLine
 10
13592.154489
 20
-11634.498095
 30
-5788.811011
 11
13592.1565
 21
-11634.498095
 31
-4853.633173
210
0.0
220
-1.0
230
0.0
  0
LINE
  5
24A6
100
AcDbEntity
  8
SECUN3PE
100
AcDbLine
 10
13808.818319
 20
-11613.856323
 30
-5802.422055
 11
13808.820412
 21
-11613.856323
 31
-4900.974163
210
0.0
220
-1.0
230
0.0
  0
LINE
  5
24A7
100
AcDbEntity
  8
SECUN3PE
100
AcDbLine
 10
13158.827794
 20
-11675.781638
 30
-5767.111926
 11
13158.827794
 21
-11675.781638
 31
-4758.950991
210
0.0
220
-1.0
230
0.0
  0
LINE
  5
24A8
100
AcDbEntity
  8
SECUN3PE
100
AcDbLine
 10
14025.483631
 20
-11593.214551
 30
-5822.958448
 11
14025.483631
 21
-11593.214551
 31
-4948.315005
210
0.0
220
-1.0
230
0.0
  0
LINE
  5
24A9
100
AcDbEntity
  8
SECUN3PE
100
AcDbLine
 10
14242.414693
 20
-11571.734439
 30
-5837.613442
 11
14242.417235
 21
-11571.734439
 31
-4995.714926
210
0.0
220
-1.0
230
0.0
  0
LINE
  5
24AA
100
AcDbEntity
  8
SECUN3PE
100
AcDbLine
 10
14459.34719
 20
-11550.254327
 30
-5852.821658
 11
14459.350127
 21
-11550.254327
 31
-5043.114691
210
0.0
220
-1.0
230
0.0
  0
LINE
  5
24AB
100
AcDbEntity
  8
SECUN3PE
100
AcDbLine
 10
14676.279585
 20
-11528.774214
 30
-5867.649673
 11
14676.282978
 21
-11528.774214
 31
-5090.514447
210
0.0
220
-1.0
230
0.0
  0
LINE
  5
24AC
100
AcDbEntity
  8
SECUN3PE
100
AcDbLine
 10
14893.215342
 20
-11507.294102
 30
-5884.16462
 11
14893.215342
 21
-11507.294102
 31
-5137.914097
210
0.0
220
-1.0
230
0.0
  0
LINE
  5
24B0
100
AcDbEntity
  8
SECUN3PE
100
AcDbLine
 10
15150.200314
 20
-11481.939666
 30
-5895.667986
 11
15150.200314
 21
-11481.939666
 31
-5219.667986
210
0.0
220
-1.0
230
0.0
  0
LINE
  5
24B1
100
AcDbEntity
  8
SECUN3PE
100
AcDbLine
 10
15407.185287
 20
-11456.402187
 30
-5901.664306
 11
15407.185287
 21
-11456.402187
 31
-5250.21636
210
0.0
220
-1.0
230
0.0
  0
LINE
  5
24B4
100
AcDbEntity
  8
SECUN3VE
100
AcDbLine
 10
13158.827794
 20
-11675.781638
 30
-4427.296668
 11
13375.493265
 21
-11655.139867
 31
-4480.468039
210
0.0
220
-1.0
230
0.0
  0
LINE
  5
24B5
100
AcDbEntity
  8
SECUN3VE
100
AcDbLine
 10
13375.493265
 20
-11655.139867
 30
-4480.468039
 11
13592.157198
 21
-11634.498095
 31
-4528.891847
210
0.0
220
-1.0
230
0.0
  0
LINE
  5
24B6
100
AcDbEntity
  8
SECUN3VE
100
AcDbLine
 10
13592.157198
 20
-11634.498095
 30
-4528.891847
 11
13808.821158
 21
-11613.856323
 31
-4579.652017
210
0.0
220
-1.0
230
0.0
  0
LINE
  5
24B7
100
AcDbEntity
  8
SECUN3VE
100
AcDbLine
 10
13808.821158
 20
-11613.856323
 30
-4579.652017
 11
14025.483631
 21
-11593.214551
 31
-4630.636235
210
0.0
220
-1.0
230
0.0
  0
LINE
  5
24B8
100
AcDbEntity
  8
SECUN3VE
100
AcDbLine
 10
14025.483631
 20
-11593.214551
 30
-4630.636235
 11
14242.418195
 21
-11571.734439
 31
-4677.873694
210
0.0
220
-1.0
230
0.0
  0
LINE
  5
24B9
100
AcDbEntity
  8
SECUN3VE
100
AcDbLine
 10
14242.418195
 20
-11571.734439
 30
-4677.873694
 11
14459.351275
 21
-11550.254327
 31
-4726.642222
210
0.0
220
-1.0
230
0.0
  0
LINE
  5
24BA
100
AcDbEntity
  8
SECUN3VE
100
AcDbLine
 10
14459.351275
 20
-11550.254327
 30
-4726.642222
 11
14676.284361
 21
-11528.774214
 31
-4773.902972
210
0.0
220
-1.0
230
0.0
  0
LINE
  5
24BB
100
AcDbEntity
  8
SECUN3VE
100
AcDbLine
 10
14676.284361
 20
-11528.774214
 30
-4773.902972
 11
14893.215342
 21
-11507.294102
 31
-4821.139405
210
0.0
220
-1.0
230
0.0
  0
LINE
  5
24BC
100
AcDbEntity
  8
SECUN3VE
100
AcDbLine
 10
14893.215342
 20
-11507.294102
 30
-4821.139405
 11
15150.200314
 21
-11481.939666
 31
-4871.308195
210
0.0
220
-1.0
230
0.0
  0
LINE
  5
24BD
100
AcDbEntity
  8
SECUN3VE
100
AcDbLine
 10
15150.200314
 20
-11481.939666
 30
-4871.308195
 11
15407.185287
 21
-11456.402187
 31
-4923.948739
210
0.0
220
-1.0
230
0.0
  0
LINE
  5
24BE
100
AcDbEntity
  8
SECUN3VE
100
AcDbLine
 10
13158.827794
 20
-11675.781638
 30
-5219.667988
 11
13375.491753
 21
-11655.139867
 31
-5219.667988
210
0.0
220
-1.0
230
0.0
  0
LINE
  5
24BF
100
AcDbEntity
  8
SECUN3VE
100
AcDbLine
 10
13375.491753
 20
-11655.139867
 30
-5219.667988
 11
13592.155713
 21
-11634.498095
 31
-5219.667988
210
0.0
220
-1.0
230
0.0
  0
LINE
  5
24C0
100
AcDbEntity
  8
SECUN3VE
100
AcDbLine
 10
13592.155713
 20
-11634.498095
 30
-5219.667988
 11
13808.819672
 21
-11613.856323
 31
-5219.667988
210
0.0
220
-1.0
230
0.0
  0
LINE
  5
24C1
100
AcDbEntity
  8
SECUN3VE
100
AcDbLine
 10
13808.819672
 20
-11613.856323
 30
-5219.667988
 11
14025.483631
 21
-11593.214551
 31
-5219.667988
210
0.0
220
-1.0
230
0.0
  0
LINE
  5
24C2
100
AcDbEntity
  8
SECUN3VE
100
AcDbLine
 10
14025.483631
 20
-11593.214551
 30
-5219.667988
 11
14242.416559
 21
-11571.734439
 31
-5219.667988
210
0.0
220
-1.0
230
0.0
  0
LINE
  5
24C3
100
AcDbEntity
  8
SECUN3VE
100
AcDbLine
 10
14242.416559
 20
-11571.734439
 30
-5219.667988
 11
14459.349487
 21
-11550.254327
 31
-5219.667988
210
0.0
220
-1.0
230
0.0
  0
LINE
  5
24C4
100
AcDbEntity
  8
SECUN3VE
100
AcDbLine
 10
14459.349487
 20
-11550.254327
 30
-5219.667988
 11
14676.282414
 21
-11528.774214
 31
-5219.667988
210
0.0
220
-1.0
230
0.0
  0
LINE
  5
24C5
100
AcDbEntity
  8
SECUN3VE
100
AcDbLine
 10
14676.282414
 20
-11528.774214
 30
-5219.667988
 11
14893.215342
 21
-11507.294102
 31
-5219.667988
210
0.0
220
-1.0
230
0.0
  0
LINE
  5
24C6
100
AcDbEntity
  8
SECUN3VE
100
AcDbLine
 10
14893.215342
 20
-11507.294102
 30
-5219.667988
 11
15150.200314
 21
-11481.939666
 31
-5219.667986
210
0.0
220
-1.0
230
0.0
  0
LINE
  5
24C7
100
AcDbEntity
  8
SECUN3VOL
100
AcDbLine
 10
15403.232816
 20
-11421.809083
 30
-5219.667923
 11
15407.184986
 21
-11456.585229
 31
-5219.667923
  0
LINE
  5
24C8
100
AcDbEntity
  8
SECUN3VE
100
AcDbLine
 10
15150.200314
 20
-11481.939666
 30
-5219.667986
 11
15407.184986
 21
-11456.585229
 31
-5219.667923
210
0.0
220
-1.0
230
0.0
  0
LINE
  5
24C9
100
AcDbEntity
  8
SECUN3VE
100
AcDbLine
 10
15407.185287
 20
-11456.402187
 30
-5619.667988
 11
15150.200314
 21
-11481.848145
 31
-5619.667988
210
0.0
220
-1.0
230
0.0
  0
LINE
  5
24CA
100
AcDbEntity
  8
SECUN3VE
100
AcDbLine
 10
15150.200314
 20
-11481.848145
 30
-5619.667988
 11
14893.215342
 21
-11507.294102
 31
-5619.667988
210
0.0
220
-1.0
230
0.0
  0
LINE
  5
24CB
100
AcDbEntity
  8
SECUN3VE
100
AcDbLine
 10
14893.215342
 20
-11507.294102
 30
-5619.667988
 11
14676.280668
 21
-11528.774214
 31
-5619.667988
210
0.0
220
-1.0
230
0.0
  0
LINE
  5
24CC
100
AcDbEntity
  8
SECUN3VE
100
AcDbLine
 10
14676.280668
 20
-11528.774214
 30
-5619.667988
 11
14459.348036
 21
-11550.254327
 31
-5619.667988
210
0.0
220
-1.0
230
0.0
  0
LINE
  5
24CD
100
AcDbEntity
  8
SECUN3VE
100
AcDbLine
 10
14459.348036
 20
-11550.254327
 30
-5619.667988
 11
14242.415351
 21
-11571.734439
 31
-5619.667988
210
0.0
220
-1.0
230
0.0
  0
LINE
  5
24CE
100
AcDbEntity
  8
SECUN3VE
100
AcDbLine
 10
14242.415351
 20
-11571.734439
 30
-5619.667988
 11
14025.483631
 21
-11593.214551
 31
-5619.667988
210
0.0
220
-1.0
230
0.0
  0
LINE
  5
24CF
100
AcDbEntity
  8
SECUN3VE
100
AcDbLine
 10
14025.483631
 20
-11593.214551
 30
-5619.667988
 11
13808.818743
 21
-11613.856323
 31
-5619.667988
210
0.0
220
-1.0
230
0.0
  0
LINE
  5
24D0
100
AcDbEntity
  8
SECUN3VE
100
AcDbLine
 10
13808.818743
 20
-11613.856323
 30
-5619.667988
 11
13592.154852
 21
-11634.498095
 31
-5619.667988
210
0.0
220
-1.0
230
0.0
  0
LINE
  5
24D1
100
AcDbEntity
  8
SECUN3VE
100
AcDbLine
 10
13592.154852
 20
-11634.498095
 30
-5619.667988
 11
13375.490935
 21
-11655.139867
 31
-5619.667988
210
0.0
220
-1.0
230
0.0
  0
LINE
  5
24D2
100
AcDbEntity
  8
SECUN3VE
100
AcDbLine
 10
13375.490935
 20
-11655.139867
 30
-5619.667988
 11
13158.827794
 21
-11675.781638
 31
-5619.667988
210
0.0
220
-1.0
230
0.0
  0
LINE
  5
24D5
100
AcDbEntity
  8
SECUN3VOL
100
AcDbLine
 10
13371.540401
 20
-11620.36372
 30
-4819.667988
 11
13375.492571
 21
-11655.139867
 31
-4819.667988
  0
LINE
  5
24D6
100
AcDbEntity
  8
VBCONTORNO
100
AcDbLine
 10
13432.757035
 20
-11613.943497
 30
-4819.667988
 11
13154.875624
 21
-11641.005493
 31
-4758.950991
210
0.0
220
-1.0
230
0.0
  0
LINE
  5
24D7
100
AcDbEntity
  8
SECUN3VE
100
AcDbLine
 10
13158.827794
 20
-11675.781638
 30
-4819.667988
 11
13375.492571
 21
-11655.139867
 31
-4819.667988
210
0.0
220
-1.0
230
0.0
  0
LINE
  5
24D8
100
AcDbEntity
  8
SECUN3VE
100
AcDbLine
 10
13375.492571
 20
-11655.139867
 30
-4819.667988
 11
13436.709206
 21
-11648.719643
 31
-4819.667988
210
0.0
220
-1.0
230
0.0
  0
LINE
  5
24D9
100
AcDbEntity
  8
SECUN3VE
100
AcDbLine
 10
13436.709206
 20
-11648.719643
 30
-4819.667988
 11
13592.156573
 21
-11634.498095
 31
-4819.667988
210
0.0
220
-1.0
230
0.0
  0
LINE
  5
24DC
100
AcDbEntity
  8
SECUN3PE
100
AcDbLine
 10
13592.156801
 20
-11634.498095
 30
-4713.53223
 11
13592.157198
 21
-11634.498095
 31
-4528.891847
210
0.0
220
-1.0
230
0.0
  0
LINE
  5
24DD
100
AcDbEntity
  8
SECUN3PE
100
AcDbLine
 10
13592.1565
 20
-11634.498095
 30
-4853.63317
 11
13592.156573
 21
-11634.498095
 31
-4819.667972
  0
LINE
  5
24DE
100
AcDbEntity
  8
SECUN3VE
100
AcDbLine
 10
13808.820601
 20
-11613.856323
 30
-4819.667988
 11
14025.483631
 21
-11593.214551
 31
-4819.667988
210
0.0
220
-1.0
230
0.0
  0
LINE
  5
24DF
100
AcDbEntity
  8
SECUN3VE
100
AcDbLine
 10
14242.417767
 20
-11571.734439
 30
-4819.667988
 11
14459.350938
 21
-11550.254327
 31
-4819.667988
210
0.0
220
-1.0
230
0.0
  0
LINE
  5
24E0
100
AcDbEntity
  8
SECUN3VE
100
AcDbLine
 10
14676.284161
 20
-11528.774214
 30
-4819.667988
 11
14893.215342
 21
-11507.294102
 31
-4821.139405
210
0.0
220
-1.0
230
0.0
  0
LINE
  5
24E6
100
AcDbEntity
  8
SECUN3VE
100
AcDbLine
 10
14676.284161
 20
-11528.774214
 30
-4819.667988
 11
14459.350938
 21
-11550.254327
 31
-4819.667988
210
0.0
220
-1.0
230
0.0
  0
LINE
  5
24E7
100
AcDbEntity
  8
SECUN3VE
100
AcDbLine
 10
14242.417767
 20
-11571.734439
 30
-4819.667988
 11
14025.483631
 21
-11593.214551
 31
-4819.667988
210
0.0
220
-1.0
230
0.0
  0
LINE
  5
24E8
100
AcDbEntity
  8
SECUN3VE
100
AcDbLine
 10
13808.820601
 20
-11613.856323
 30
-4819.667988
 11
13592.156573
 21
-11634.498095
 31
-4819.667972
210
0.0
220
-1.0
230
0.0
  0
LINE
  5
24FE
100
AcDbEntity
  8
SECUNDIAG
100
AcDbLine
 10
3113.431865
 20
-12162.965109
 30
-4819.667988
 11
3317.098552
 21
-12184.102177
 31
-4419.667988
210
0.0
220
-1.0
230
0.0
  0
LINE
  5
24FF
100
AcDbEntity
  8
SECUNDIAG
100
AcDbLine
 10
3317.098552
 20
-12184.102177
 30
-4419.667988
 11
3520.770117
 21
-12205.223699
 31
-4019.667988
210
0.0
220
-1.0
230
0.0
  0
LINE
  5
2500
100
AcDbEntity
  8
SECUNDIAG
100
AcDbLine
 10
3520.770117
 20
-12205.223699
 30
-4019.667988
 11
3724.726357
 21
-12225.438167
 31
-3619.667988
210
0.0
220
-1.0
230
0.0
  0
LINE
  5
2501
100
AcDbEntity
  8
SECUNDIAG
100
AcDbLine
 10
3724.726357
 20
-12225.438167
 30
-3619.667988
 11
3927.722081
 21
-12247.894418
 31
-3219.667988
210
0.0
220
-1.0
230
0.0
  0
LINE
  5
2502
100
AcDbEntity
  8
SECUNDIAG
100
AcDbLine
 10
3927.722081
 20
-12247.894418
 30
-3219.667988
 11
4129.739562
 21
-12273.467642
 31
-2819.667988
210
0.0
220
-1.0
230
0.0
  0
LINE
  5
2503
100
AcDbEntity
  8
SECUNDIAG
100
AcDbLine
 10
4129.739562
 20
-12273.467642
 30
-2819.667988
 11
4333.815502
 21
-12292.482011
 31
-2544.689845
210
0.0
220
-1.0
230
0.0
  0
LINE
  5
2504
100
AcDbEntity
  8
SECUNDIAG
100
AcDbLine
 10
4543.7835
 20
-12292.722543
 30
-2498.987063
 11
4338.001051
 21
-12279.145618
 31
-2819.667988
210
0.0
220
-1.0
230
0.0
  0
LINE
  5
2505
100
AcDbEntity
  8
SECUNDIAG
100
AcDbLine
 10
4127.275136
 20
-12281.320031
 30
-2619.425174
 11
3924.590576
 21
-12257.872319
 31
-2819.667988
210
0.0
220
-1.0
230
0.0
  0
LINE
  5
2506
100
AcDbEntity
  8
SECUNDIAG
100
AcDbLine
 10
3924.590576
 20
-12257.872319
 30
-2819.667988
 11
3724.048096
 21
-12227.599305
 31
-3219.667988
210
0.0
220
-1.0
230
0.0
  0
LINE
  5
2507
100
AcDbEntity
  8
SECUNDIAG
100
AcDbLine
 10
3724.048096
 20
-12227.599305
 30
-3219.667988
 11
3520.736682
 21
-12205.330233
 31
-3619.667988
210
0.0
220
-1.0
230
0.0
  0
LINE
  5
2508
100
AcDbEntity
  8
SECUNDIAG
100
AcDbLine
 10
3520.736682
 20
-12205.330233
 30
-3619.667988
 11
3317.098552
 21
-12184.102177
 31
-4019.667988
210
0.0
220
-1.0
230
0.0
  0
LINE
  5
2509
100
AcDbEntity
  8
SECUNDIAG
100
AcDbLine
 10
3317.098552
 20
-12184.102177
 30
-4019.667988
 11
3113.431865
 21
-12162.965109
 31
-4419.667988
210
0.0
220
-1.0
230
0.0
  0
LINE
  5
250A
100
AcDbEntity
  8
SECUNDIAG
100
AcDbLine
 10
4338.001051
 20
-12279.145618
 30
-2819.667988
 11
4134.662439
 21
-12257.781907
 31
-3219.667988
210
0.0
220
-1.0
230
0.0
  0
INSERT
  5
2517
100
AcDbEntity
  8
SECUNDIAG
100
AcDbBlockReference
  2
F3
 10
2927.297501
 20
-5219.667988
 30
12085.964893
210
0.0
220
-1.0
230
0.0
  0
LINE
  5
2523
100
AcDbEntity
  8
VIGASN
100
AcDbLine
 10
3666.921227
 20
-12143.225589
 30
-3619.667988
 11
3592.395157
 21
-12137.455879
 31
-3619.667988
210
0.0
220
-1.0
230
0.0
  0
LINE
  5
2524
100
AcDbEntity
  8
VIGASN
100
AcDbLine
 10
3389.59472
 20
-12121.755336
 30
-4419.667988
 11
3308.98161
 21
-12115.514375
 31
-4419.667988
210
0.0
220
-1.0
230
0.0
  0
INSERT
  5
2534
100
AcDbEntity
  8
SECUNDIAG
100
AcDbBlockReference
  2
DESLI
 10
13371.538445
 20
-11620.36372
 30
-5775.865424
  0
INSERT
  5
2535
100
AcDbEntity
  8
SECUNDIAG
100
AcDbBlockReference
  2
DESLI
 10
13158.827794
 20
-11675.781638
 30
-5767.111926
  0
INSERT
  5
2536
100
AcDbEntity
  8
SECUNDIAG
100
AcDbBlockReference
  2
DESLI
 10
13588.202318
 20
-11599.721948
 30
-5788.811011
  0
INSERT
  5
2537
100
AcDbEntity
  8
SECUNDIAG
100
AcDbBlockReference
  2
DESLI
 10
13808.818319
 20
-11613.856323
 30
-5802.422055
  0
INSERT
  5
2538
100
AcDbEntity
  8
SECUNDIAG
100
AcDbBlockReference
  2
DESLI
 10
13804.866149
 20
-11579.080177
 30
-5802.422055
  0
INSERT
  5
2539
100
AcDbEntity
  8
SECUNDIAG
100
AcDbBlockReference
  2
DESLI
 10
14025.483631
 20
-11593.214551
 30
-5822.958448
  0
INSERT
  5
253A
100
AcDbEntity
  8
SECUNDIAG
100
AcDbBlockReference
  2
DESLI
 10
14242.414693
 20
-11571.734439
 30
-5837.613442
  0
INSERT
  5
253B
100
AcDbEntity
  8
SECUNDIAG
100
AcDbBlockReference
  2
DESLI
 10
14238.462523
 20
-11536.958293
 30
-5837.613442
  0
INSERT
  5
253C
100
AcDbEntity
  8
SECUNDIAG
100
AcDbBlockReference
  2
DESLI
 10
14459.34719
 20
-11550.254327
 30
-5852.821658
  0
INSERT
  5
253D
100
AcDbEntity
  8
SECUNDIAG
100
AcDbBlockReference
  2
DESLI
 10
14455.39502
 20
-11515.47818
 30
-5852.821658
  0
INSERT
  5
253E
100
AcDbEntity
  8
SECUNDIAG
100
AcDbBlockReference
  2
DESLI
 10
14676.279585
 20
-11528.774214
 30
-5867.649673
  0
INSERT
  5
253F
100
AcDbEntity
  8
SECUNDIAG
100
AcDbBlockReference
  2
DESLI
 10
14672.327415
 20
-11493.998068
 30
-5867.649673
  0
INSERT
  5
2540
100
AcDbEntity
  8
SECUNDIAG
100
AcDbBlockReference
  2
DESLI
 10
14893.215342
 20
-11507.294102
 30
-5884.16462
  0
INSERT
  5
2541
100
AcDbEntity
  8
SECUNDIAG
100
AcDbBlockReference
  2
DESLI
 10
15150.200314
 20
-11481.939666
 30
-5895.667986
  0
INSERT
  5
2542
100
AcDbEntity
  8
SECUNDIAG
100
AcDbBlockReference
  2
DESLI
 10
15146.248144
 20
-11447.071998
 30
-5895.667988
  0
INSERT
  5
2543
100
AcDbEntity
  8
SECUNDIAG
100
AcDbBlockReference
  2
DESLI
 10
15407.185287
 20
-11456.402187
 30
-5901.664306
  0
INSERT
  5
2544
100
AcDbEntity
  8
SECUNDIAG
100
AcDbBlockReference
  2
DESLI
 10
13592.154489
 20
-11634.498095
 30
-5788.811011
  0
INSERT
  5
2545
100
AcDbEntity
  8
SECUNDIAG
100
AcDbBlockReference
  2
DESLI
 10
13375.490616
 20
-11655.139867
 30
-5775.865424
  0
LINE
  5
2547
100
AcDbEntity
  8
PILARESN
100
AcDbLine
 10
15403.233116
 20
-11421.809083
 30
-5219.667988
 11
15403.233116
 21
-11421.626041
 31
-5250.21636
  0
LINE
  5
2548
100
AcDbEntity
  8
SECUN3PE
100
AcDbLine
 10
13158.827794
 20
-11675.781638
 30
-4618.781954
 11
13158.827794
 21
-11675.781638
 31
-4427.296668
210
0.0
220
-1.0
230
0.0
  0
LINE
  5
2549
100
AcDbEntity
  8
SECUN3PE
100
AcDbLine
 10
13375.492885
 20
-11655.139867
 30
-4666.157221
 11
13375.493265
 21
-11655.139867
 31
-4480.468039
210
0.0
220
-1.0
230
0.0
  0
LINE
  5
254A
100
AcDbEntity
  8
SECUN3PE
100
AcDbLine
 10
13808.820737
 20
-11613.856323
 30
-4760.907239
 11
13808.821158
 21
-11613.856323
 31
-4579.652017
210
0.0
220
-1.0
230
0.0
  0
LINE
  5
254B
100
AcDbEntity
  8
SECUN3PE
100
AcDbLine
 10
14025.483631
 20
-11593.214551
 30
-4808.282031
 11
14025.483631
 21
-11593.214551
 31
-4630.636235
210
0.0
220
-1.0
230
0.0
  0
LINE
  5
254C
100
AcDbEntity
  8
SECUN3PE
100
AcDbLine
 10
14459.350635
 20
-11550.254327
 30
-4903.149899
 11
14459.351275
 21
-11550.254327
 31
-4726.642222
210
0.0
220
-1.0
230
0.0
  0
LINE
  5
254D
100
AcDbEntity
  8
SECUN3PE
100
AcDbLine
 10
14676.283589
 20
-11528.774214
 30
-4950.583713
 11
14676.284361
 21
-11528.774214
 31
-4773.902972
210
0.0
220
-1.0
230
0.0
  0
LINE
  5
254E
100
AcDbEntity
  8
SECUN3PE
100
AcDbLine
 10
14893.215342
 20
-11507.294102
 30
-4998.017355
 11
14893.215342
 21
-11507.294102
 31
-4821.139405
210
0.0
220
-1.0
230
0.0
  0
LINE
  5
254F
100
AcDbEntity
  8
SECUN3PE
100
AcDbLine
 10
15150.200314
 20
-11481.939666
 30
-5054.208833
 11
15150.200314
 21
-11481.939666
 31
-4871.308195
210
0.0
220
-1.0
230
0.0
  0
LINE
  5
2550
100
AcDbEntity
  8
SECUN3PE
100
AcDbLine
 10
15407.185287
 20
-11456.402187
 30
-5110.400311
 11
15407.185287
 21
-11456.402187
 31
-4923.948739
210
0.0
220
-1.0
230
0.0
  0
LINE
  5
2551
100
AcDbEntity
  8
SECUN3PE
100
AcDbLine
 10
15407.185287
 20
-11456.402187
 30
-5250.21636
 11
15407.184986
 21
-11456.585229
 31
-5219.667923
210
1.0
220
0.0
230
0.0
  0
LINE
  5
2552
100
AcDbEntity
  8
SECUN3PE
100
AcDbLine
 10
15407.184986
 20
-11456.585229
 30
-5219.667923
 11
15407.185287
 21
-11456.402187
 31
-5110.400311
210
1.0
220
0.0
230
0.0
  0
LINE
  5
2553
100
AcDbEntity
  8
SECUN3PE
100
AcDbLine
 10
15150.200314
 20
-11481.939666
 30
-5219.667986
 11
15150.200314
 21
-11481.848145
 31
-5194.065228
210
1.0
220
0.0
230
0.0
  0
LINE
  5
2554
100
AcDbEntity
  8
SECUN3PE
100
AcDbLine
 10
15150.200314
 20
-11481.848145
 30
-5194.065228
 11
15150.200314
 21
-11481.939666
 31
-5054.208833
210
1.0
220
0.0
230
0.0
  0
LINE
  5
2555
100
AcDbEntity
  8
SECUN3PE
100
AcDbLine
 10
14893.215342
 20
-11507.294102
 30
-5137.914097
 11
14893.215342
 21
-11507.294102
 31
-4998.017355
210
1.0
220
0.0
230
0.0
  0
LINE
  5
2556
100
AcDbEntity
  8
SECUN3PE
100
AcDbLine
 10
14676.283589
 20
-11528.774214
 30
-4950.583713
 11
14676.282978
 21
-11528.774214
 31
-5090.514447
210
1.0
220
0.0
230
0.0
  0
LINE
  5
2557
100
AcDbEntity
  8
SECUN3PE
100
AcDbLine
 10
14459.350127
 20
-11550.254327
 30
-5043.114691
 11
14459.350428
 21
-11550.254327
 31
-4903.149899
210
1.0
220
0.0
230
0.0
  0
LINE
  5
2558
100
AcDbEntity
  8
SECUN3PE
100
AcDbLine
 10
14242.417658
 20
-11571.734439
 30
-4855.716076
 11
14242.418195
 21
-11571.734439
 31
-4677.873694
210
0.0
220
-1.0
230
0.0
  0
LINE
  5
2559
100
AcDbEntity
  8
SECUN3PE
100
AcDbLine
 10
14242.417235
 20
-11571.734439
 30
-4995.714926
 11
14242.417658
 21
-11571.734439
 31
-4855.716076
210
1.0
220
0.0
230
0.0
  0
LINE
  5
255A
100
AcDbEntity
  8
SECUN3PE
100
AcDbLine
 10
14025.483631
 20
-11593.214551
 30
-4948.315005
 11
14025.483631
 21
-11593.214551
 31
-4808.282031
210
1.0
220
0.0
230
0.0
  0
LINE
  5
255B
100
AcDbEntity
  8
SECUN3PE
100
AcDbLine
 10
13808.820412
 20
-11613.856323
 30
-4900.974163
 11
13808.820737
 21
-11613.856323
 31
-4760.907239
210
1.0
220
0.0
230
0.0
  0
LINE
  5
255C
100
AcDbEntity
  8
SECUN3PE
100
AcDbLine
 10
13592.156573
 20
-11634.498095
 30
-4819.667988
 11
13592.156801
 21
-11634.498095
 31
-4713.53223
210
1.0
220
0.0
230
0.0
  0
LINE
  5
255D
100
AcDbEntity
  8
SECUN3PE
100
AcDbLine
 10
13375.492571
 20
-11655.139867
 30
-4819.667988
 11
13375.492885
 21
-11655.139867
 31
-4666.157221
210
1.0
220
0.0
230
0.0
  0
LINE
  5
255E
100
AcDbEntity
  8
SECUN3PE
100
AcDbLine
 10
13158.827794
 20
-11675.781639
 30
-4758.950991
 11
13158.827794
 21
-11675.781638
 31
-4618.781954
210
1.0
220
0.0
230
0.0
  0
ENDSEC
  0
SECTION
  2
OBJECTS
  0
DICTIONARY
  5
1E3
102
{ACAD_XDICTIONARY
360
1E4
102
}
100
AcDbDictionary
  3
ACAD_GROUP
350
1DF
  3
ACAD_MLINESTYLE
350
1E0
  0
DICTIONARY
  5
1D3
100
AcDbDictionary
280
     1
  3
ACAD_XREC_ROUNDTRIP
360
1D4
  0
DICTIONARY
  5
1D6
100
AcDbDictionary
280
     1
  3
ACAD_XREC_ROUNDTRIP
360
1D7
  0
DICTIONARY
  5
9
100
AcDbDictionary
280
     1
  3
ACAD_XREC_ROUNDTRIP
360
A
  0
DICTIONARY
  5
11C4
100
AcDbDictionary
280
     1
  3
ACAD_XREC_ROUNDTRIP
360
11C5
  0
DICTIONARY
  5
13
100
AcDbDictionary
280
     1
  3
ACAD_LAYERFILTERS
360
14
  3
ACAD_LAYERSTATES
360
1CC
  0
DICTIONARY
  5
1CF
100
AcDbDictionary
280
     1
  3
ACAD_XREC_ROUNDTRIP
360
1D0
  0
DICTIONARY
  5
1EA
100
AcDbDictionary
280
     1
  3
ACAD_XREC_ROUNDTRIP
360
1EB
  0
DICTIONARY
  5
3
100
AcDbDictionary
280
     1
  3
ACAD_LAYOUTSELFREF
360
4
  3
ACAD_SORTENTS
360
5
  0
DICTIONARY
  5
E
100
AcDbDictionary
280
     1
  3
ACAD_LAYOUTSELFREF
360
F
  0
DICTIONARY
  5
1E4
100
AcDbDictionary
280
     1
  3
ACAD_XREC_ROUNDTRIP
360
1E5
  0
DICTIONARY
  5
1DF
102
{ACAD_REACTORS
330
1E3
102
}
100
AcDbDictionary
  0
DICTIONARY
  5
1E0
102
{ACAD_XDICTIONARY
360
1E1
102
}
102
{ACAD_REACTORS
330
1E3
102
}
100
AcDbDictionary
  3
STANDARD
350
1E8
  0
XRECORD
  5
1D4
102
{ACAD_REACTORS
330
1D3
102
}
100
AcDbXrecord
102
EXTNAMES
  1
BYBLOCK
  2
ByBlock
  0
XRECORD
  5
1D7
102
{ACAD_REACTORS
330
1D6
102
}
100
AcDbXrecord
102
EXTNAMES
  1
BYLAYER
  2
ByLayer
  0
XRECORD
  5
A
102
{ACAD_REACTORS
330
9
102
}
100
AcDbXrecord
102
EXTNAMES
  1
CONTINUOUS
  2
Continuous
  0
XRECORD
  5
11C5
102
{ACAD_REACTORS
330
11C4
102
}
100
AcDbXrecord
102
EXTNAMES
  1
GRDCON$0$CENTER
  2
grdcon$0$CENTER
  0
DICTIONARY
  5
14
102
{ACAD_XDICTIONARY
360
15
102
}
102
{ACAD_REACTORS
330
13
102
}
100
AcDbDictionary
280
     1
  3
-
360
17
  3
-0
360
18
  3
-1
360
19
  3
-2
360
1A
  3
-3
360
1B
  3
-DETALLES
360
1C
  3
__
360
1D
  3
_AA_
360
1E
  3
_P00
360
1F
  3
0-
360
20
  3
00
360
21
  3
00TRF
360
22
  3
01
360
23
  3
01-TEXT
360
24
  3
02
360
25
  3
02-TERRES
360
26
  3
03
360
27
  3
03-FONAMENTS
360
28
  3
04
360
29
  3
04-ESTRUCTURA
360
2A
  3
04CUBIERTAS
360
2B
  3
05
360
2C
  3
06
360
2D
  3
06-
360
2E
  3
07
360
2F
  3
07-
360
30
  3
08-
360
31
  3
09-
360
32
  3
1
360
33
  3
1-
360
34
  3
1_TOPOGRAFICO
360
35
  3
10-
360
36
  3
100
360
37
  3
11
360
38
  3
11-
360
39
  3
12
360
3A
  3
13-
360
3B
  3
14-
360
3C
  3
15
360
3D
  3
16-
360
3E
  3
17-
360
3F
  3
177
360
40
  3
2
360
41
  3
2_PLAN_ESPECIAL
360
42
  3
200
360
43
  3
26
360
44
  3
28
360
45
  3
3_CENTRO
360
46
  3
3D
360
47
  3
3D_LAYERS
360
48
  3
4_PARKING
360
49
  3
40
360
4A
  3
50
360
4B
  3
500
360
4C
  3
8
360
4D
  3
84
360
4E
  3
A
360
4F
  3
A-FLOR
360
50
  3
A_
360
51
  3
A1
360
52
  3
A2
360
53
  3
A3
360
54
  3
A4
360
55
  3
AA_
360
56
  3
AA_FT
360
57
  3
AAA
360
58
  3
ACOMETIDA-SERGAS
360
59
  3
ACT
360
5A
  3
ACTI
360
5B
  3
ACTIVADAS
360
5C
  3
ACTIVAS
360
5D
  3
AE
360
5E
  3
AGUA
360
5F
  3
AIRE
360
60
  3
ALÇAT
360
61
  3
ALERO
360
62
  3
ALL
360
63
  3
ALLE-SCHÜCO-LAYER
360
64
  3
ALLE-SICHTBAREN-LAYER
360
65
  3
ALZADOS
360
66
  3
AMARILLO
360
67
  3
AN
360
68
  3
ANT-H
360
69
  3
AQ
360
6A
  3
AQ-
360
6B
  3
ARBRES
360
6C
  3
AREA
360
6D
  3
AREAS
360
6E
  3
ARQUETAS
360
6F
  3
ARQUITECTURA
360
70
  3
B1
360
71
  3
B2
360
72
  3
B3
360
73
  3
B4
360
74
  3
BARRACONES
360
75
  3
BASE
360
76
  3
BIND
360
77
  3
BLOQ
360
78
  3
BLOQUEADA
360
79
  3
BLOQUEADAS
360
7A
  3
BORDE
360
7B
  3
BUS
360
7C
  3
C
360
7D
  3
C-
360
7E
  3
C1
360
7F
  3
C2
360
80
  3
C3
360
81
  3
C4
360
82
  3
C5
360
83
  3
C6
360
84
  3
CÁMARA
360
85
  3
CAPA_0
360
86
  3
CAPAS_ACTIVADAS
360
87
  3
CAPAS_DESACTIVADAS
360
88
  3
CAPAS_P1
360
89
  3
CAR
360
8A
  3
CARCYCLE
360
8B
  3
CARPINTERIA
360
8C
  3
CARRITALYBASE
360
8D
  3
CARRIZOS3FINAL
360
8E
  3
CARTO
360
8F
  3
CARTOGRAFIA
360
90
  3
CEILING
360
91
  3
CEL
360
92
  3
CEL-RAS
360
93
  3
CIAN
360
94
  3
CLAD
360
95
  3
CLG
360
96
  3
COLOR
360
97
  3
COLOR-8
360
98
  3
COLOR_8
360
99
  3
COLOR_9
360
9A
  3
COM
360
9B
  3
COMUNES
360
9C
  3
CONTOURS1
360
9D
  3
COTA
360
9E
  3
COTAINT
360
9F
  3
COTAS
360
A0
  3
COTAS-ACABADOS
360
A1
  3
COTAS_ACABADOS
360
A2
  3
COTES
360
A3
  3
COULEUR
360
A4
  3
CPI
360
A5
  3
CUBICAL
360
A6
  3
CUBIERTA
360
A7
  3
CURVA
360
A8
  3
CYAN
360
A9
  3
CYCL
360
AA
  3
CYCLE
360
AB
  3
D1
360
AC
  3
D2
360
AD
  3
D3
360
AE
  3
D4
360
AF
  3
D5
360
B0
  3
DEL_DIBUJO
360
B1
  3
DEMO
360
B2
  3
DES
360
B3
  3
DESACTIVAS
360
B4
  3
DETAIL
360
B5
  3
DETAILS
360
B6
  3
DETALLE
360
B7
  3
DETALLES
360
B8
  3
DIB
360
B9
  3
DIM
360
BA
  3
DIMS
360
BB
  3
DOOR
360
BC
  3
DOORS
360
BD
  3
DREN
360
BE
  3
DRENAGEM
360
BF
  3
E
360
C0
  3
E1
360
C1
  3
E3
360
C2
  3
EIXOS
360
C3
  3
EJE
360
C4
  3
ELECT
360
C5
  3
ELLIPSE
360
C6
  3
ENSE
360
C7
  3
ENTORN
360
C8
  3
ENTRADA
360
C9
  3
ENTRAMADO-FACHADAS
360
CA
  3
EQ
360
CB
  3
EQU
360
CC
  3
ESCALA_1-50
360
CD
  3
ESCALATOR
360
CE
  3
ESCALERA
360
CF
  3
ESPAI_VERD
360
D0
  3
ESQUEMAS
360
D1
  3
ESTRU00
360
D2
  3
ESTRUCTURA
360
D3
  3
ESTRUCTURAS
360
D4
  3
EXIS
360
D5
  3
EXTERIOR
360
D6
  3
F1
360
D7
  3
F2
360
D8
  3
FACHADA
360
D9
  3
FACHADAS
360
DA
  3
FALL
360
DB
  3
FALLOS
360
DC
  3
FANCOIL
360
DD
  3
FECALES
360
DE
  3
FF200M
360
DF
  3
FIN
360
E0
  3
FIRE
360
E1
  3
FIX
360
E2
  3
FLOOR
360
E3
  3
FREEZE
360
E4
  3
FROZEN
360
E5
  3
FURN
360
E6
  3
FURNITURE
360
E7
  3
FUS
360
E8
  3
GAS
360
E9
  3
GEL
360
EA
  3
GILLTEMP
360
EB
  3
GREEN
360
EC
  3
GRID
360
ED
  3
GRIS8
360
EE
  3
GRIS9
360
EF
  3
GRISES
360
F0
  3
GRO
360
F1
  3
H-
360
F2
  3
HA
360
F3
  3
HA-GENE-AR
360
F4
  3
HAOU
360
F5
  3
HOJAS
360
F6
  3
I
360
F7
  3
IL
360
F8
  3
ILUM
360
F9
  3
IMG
360
FA
  3
INAC
360
FB
  3
INS
360
FC
  3
INST_TECHO
360
FD
  3
INSTALACION_TECHO
360
FE
  3
INSTALACIONES_TECHO
360
FF
  3
INU
360
100
  3
INUTIIL
360
101
  3
JALONAMIENTO
360
102
  3
K52
360
103
  3
KAYDIRAKLAR
360
104
  3
KEY
360
105
  3
KONSOLLAR
360
106
  3
LABEL
360
107
  3
LAS-UTILES
360
108
  3
LAURA
360
109
  3
LAZY
360
10A
  3
LGA
360
10B
  3
LIM
360
10C
  3
LIMPIO
360
10D
  3
LINEA_FINA
360
10E
  3
LINEA_GRUESA
360
10F
  3
LINEAS_REFERENCIA
360
110
  3
LINES
360
111
  3
LLUMS
360
112
  3
LOCKER
360
113
  3
LOT
360
114
  3
LUNAR
360
115
  3
LUNAR2
360
116
  3
LVL
360
117
  3
MAGENTA
360
118
  3
MARCOS
360
119
  3
MATAS
360
11A
  3
MATERIALS
360
11B
  3
MEDIA_TENSION
360
11C
  3
MEUS
360
11D
  3
MEXT
360
11E
  3
MEZZ
360
11F
  3
MILL
360
120
  3
MOBILIARIO
360
121
  3
MUEBLEPERIMETRAL
360
122
  3
MUEBLES
360
123
  3
MZ
360
124
  3
N
360
125
  3
N-CLAV
360
126
  3
NAME
360
127
  3
NEAL
360
128
  3
NELF
360
129
  3
NEW
360
12A
  3
NO_XREF
360
12B
  3
NORMAL
360
12C
  3
NOTE
360
12D
  3
NUEVA
360
12E
  3
NUEVA_IMPLANTACIÓN
360
12F
  3
NUEVAS
360
130
  3
NUEVOS-SERVICIOS
360
131
  3
NUM
360
132
  3
OCULT
360
133
  3
OFF
360
134
  3
OFICINES
360
135
  3
OI
360
136
  3
ON
360
137
  3
OU
360
138
  3
OU-AREA
360
139
  3
OUTY
360
13A
  3
P
360
13B
  3
P-1
360
13C
  3
P-2
360
13D
  3
P00
360
13E
  3
P01
360
13F
  3
P02
360
140
  3
P03
360
141
  3
P05
360
142
  3
P1
360
143
  3
P1401
360
144
  3
P14P-2
360
145
  3
P14P00
360
146
  3
P2
360
147
  3
P3
360
148
  3
P4
360
149
  3
P5
360
14A
  3
PA
360
14B
  3
PARCELA
360
14C
  3
PARKING
360
14D
  3
PARTITIONS
360
14E
  3
PASILLO
360
14F
  3
PATT
360
150
  3
PAU
360
151
  3
PB
360
152
  3
PEPE
360
153
  3
PIANOS
360
154
  3
PIEZA_DE_CRISTAL
360
155
  3
PILARES
360
156
  3
PILARESZ2
360
157
  3
PIPES
360
158
  3
PIPES1
360
159
  3
PIPING_PLAN2
360
15A
  3
PL
360
15B
  3
PLAKALAR
360
15C
  3
PLAN
360
15D
  3
PLAN-PARCIAL
360
15E
  3
PLANTA_BAJA
360
15F
  3
PLANTA_BAJA_ACT
360
160
  3
PLANTA_SUBSUELO
360
161
  3
PLANTA_TÉCNICA
360
162
  3
PLANTAS
360
163
  3
PLOT
360
164
  3
PLOTEO
360
165
  3
PLUVIALES
360
166
  3
POLILINEAS
360
167
  3
PONT
360
168
  3
POOL
360
169
  3
POPOPO
360
16A
  3
POZOS_AGUA
360
16B
  3
POZOS_FECALES
360
16C
  3
POZOS_PLUVIALES
360
16D
  3
PQ
360
16E
  3
PR
360
16F
  3
PROGEST
360
170
  3
PROJ-URBANITZACIO
360
171
  3
PROYECCCIONES
360
172
  3
PRUEBA
360
173
  3
PRUEBA3
360
174
  3
PUERTAS
360
175
  3
RAIL
360
176
  3
RCP
360
177
  3
RED
360
178
  3
REFERENCIA
360
179
  3
RELLENO
360
17A
  3
RELLENOS
360
17B
  3
REPLANTEO
360
17C
  3
RIEGO
360
17D
  3
RMTAGS
360
17E
  3
ROOM
360
17F
  3
ROTULACION
360
180
  3
S
360
181
  3
S1
360
182
  3
S2
360
183
  3
SAA
360
184
  3
SANEAMIENTO
360
185
  3
SCALE200
360
186
  3
SE
360
187
  3
SE100
360
188
  3
SECC
360
189
  3
SECCIO
360
18A
  3
SECCION
360
18B
  3
SEGUNDA
360
18C
  3
SEGUNDABIS
360
18D
  3
SENY_HORIT
360
18E
  3
SERVI
360
18F
  3
SILLAS
360
190
  3
SITE
360
191
  3
SOLADOS
360
192
  3
SOLO_CAPA
360
193
  3
SPACE_PLANNING
360
194
  3
STR
360
195
  3
STRUCTURAL
360
196
  3
STRUCTURE
360
197
  3
SU
360
198
  3
SUELO
360
199
  3
SUP01
360
19A
  3
SUP02
360
19B
  3
SUP03
360
19C
  3
SUP04
360
19D
  3
SUPERFICIES
360
19E
  3
T
360
19F
  3
T_A
360
1A0
  3
T_C
360
1A1
  3
TAJEAS
360
1A2
  3
TALLERES
360
1A3
  3
TAQUIMETRICO
360
1A4
  3
TECHOS
360
1A5
  3
TELE
360
1A6
  3
TEMP
360
1A7
  3
TEXT
360
1A8
  3
TEXTO
360
1A9
  3
THAWED
360
1AA
  3
TMP
360
1AB
  3
TOPO
360
1AC
  3
TOPOGRAFIA
360
1AD
  3
TRABAJO
360
1AE
  3
TRAM
360
1AF
  3
TRAMA
360
1B0
  3
TRAMA-FAÇANA
360
1B1
  3
TRAMAS
360
1B2
  3
TRAMES
360
1B3
  3
TREAD
360
1B4
  3
TUB
360
1B5
  3
UISKAS
360
1B6
  3
UNI
360
1B7
  3
URB
360
1B8
  3
URBAN
360
1B9
  3
URBANIZACION
360
1BA
  3
USOS_MUEBLES
360
1BB
  3
UTILIZADAS
360
1BC
  3
VESTUARIOS_ENTRADA
360
1BD
  3
VISTAS
360
1BE
  3
VMULT
360
1BF
  3
VP
360
1C0
  3
WALL
360
1C1
  3
WDW
360
1C2
  3
WE
360
1C3
  3
WHITE
360
1C4
  3
WINDOW
360
1C5
  3
X
360
1C6
  3
XREF
360
1C7
  3
YARDIMLAR
360
1C8
  3
YO
360
1C9
  3
YUZEYLER
360
1CA
  3
YÜZEYLER
360
1CB
  0
DICTIONARY
  5
1CC
102
{ACAD_REACTORS
330
13
102
}
100
AcDbDictionary
  0
XRECORD
  5
1D0
102
{ACAD_REACTORS
330
1CF
102
}
100
AcDbXrecord
102
EXTNAMES
  1
STANDARD
  2
Standard
  0
XRECORD
  5
1EB
102
{ACAD_REACTORS
330
1EA
102
}
100
AcDbXrecord
102
ACADR14ROUNDTRIP
1000
DSTYLE
1002
{
1070
   342
340
1EC
1002
}
  0
XRECORD
  5
4
102
{ACAD_REACTORS
330
3
102
}
100
AcDbXrecord
340
2
  0
SORTENTSTABLE
  5
5
102
{ACAD_REACTORS
330
3
102
}
100
AcDbSortentsTable
330
2
  0
XRECORD
  5
F
102
{ACAD_REACTORS
330
E
102
}
100
AcDbXrecord
340
D
  0
XRECORD
  5
1E5
102
{ACAD_REACTORS
330
1E4
102
}
100
AcDbXrecord
102
EXTNAMES
  1
ACDBVARIABLEDICTIONARY
  2
AcDbVariableDictionary
  0
DICTIONARY
  5
1E1
100
AcDbDictionary
280
     1
  3
ACAD_XREC_ROUNDTRIP
360
1E2
  0
MLINESTYLE
  5
1E8
102
{ACAD_REACTORS
330
1E0
102
}
100
AcDbMlineStyle
  2
STANDARD
 70
     0
  3

 62
     0
 51
90.0
 52
90.0
 71
     2
 49
0.5
 62
   256
  6
BYLAYER
 49
-0.5
 62
   256
  6
BYLAYER
  0
DICTIONARY
  5
15
100
AcDbDictionary
280
     1
  3
ACAD_XREC_ROUNDTRIP
360
16
  0
XRECORD
  5
17
102
{ACAD_REACTORS
330
14
102
}
100
AcDbXrecord
  1
-
  1
*
  1
*
  1
*
 70
     0
  1
*
  1
*
  0
XRECORD
  5
18
102
{ACAD_REACTORS
330
14
102
}
100
AcDbXrecord
  1
-0
  1
0*
  1
*
  1
*
 70
     0
  1
*
  1
*
  0
XRECORD
  5
19
102
{ACAD_REACTORS
330
14
102
}
100
AcDbXrecord
  1
-1
  1
*-1
  1
*
  1
*
 70
     0
  1
*
  1
*
  0
XRECORD
  5
1A
102
{ACAD_REACTORS
330
14
102
}
100
AcDbXrecord
  1
-2
  1
*-2
  1
*
  1
*
 70
     0
  1
*
  1
*
  0
XRECORD
  5
1B
102
{ACAD_REACTORS
330
14
102
}
100
AcDbXrecord
  1
-3
  1
*-3
  1
*
  1
*
 70
     0
  1
*
  1
*
  0
XRECORD
  5
1C
102
{ACAD_REACTORS
330
14
102
}
100
AcDbXrecord
  1
-detalles
  1
-det*
  1
*
  1
*
 70
     0
  1
*
  1
*
  0
XRECORD
  5
1D
102
{ACAD_REACTORS
330
14
102
}
100
AcDbXrecord
  1
++
  1
*++*
  1
*
  1
*
 70
     0
  1
*
  1
*
  0
XRECORD
  5
1E
102
{ACAD_REACTORS
330
14
102
}
100
AcDbXrecord
  1
_AA_
  1
_AA_*
  1
*
  1
*
 70
     0
  1
*
  1
*
  0
XRECORD
  5
1F
102
{ACAD_REACTORS
330
14
102
}
100
AcDbXrecord
  1
_p00
  1
*
  1
*
  1
*
 70
     0
  1
*
  1
*
  0
XRECORD
  5
20
102
{ACAD_REACTORS
330
14
102
}
100
AcDbXrecord
  1
0-
  1
0-*
  1
*
  1
*
 70
     0
  1
*
  1
*
  0
XRECORD
  5
21
102
{ACAD_REACTORS
330
14
102
}
100
AcDbXrecord
  1
00
  1
00*
  1
*
  1
*
 70
     0
  1
*
  1
*
  0
XRECORD
  5
22
102
{ACAD_REACTORS
330
14
102
}
100
AcDbXrecord
  1
00trf
  1
00trf*
  1
*
  1
*
 70
     0
  1
*
  1
*
  0
XRECORD
  5
23
102
{ACAD_REACTORS
330
14
102
}
100
AcDbXrecord
  1
01
  1
*p01
  1
*
  1
*
 70
     0
  1
*
  1
*
  0
XRECORD
  5
24
102
{ACAD_REACTORS
330
14
102
}
100
AcDbXrecord
  1
01-TEXT
  1
01-*
  1
*
  1
*
 70
     0
  1
*
  1
*
  0
XRECORD
  5
25
102
{ACAD_REACTORS
330
14
102
}
100
AcDbXrecord
  1
02
  1
*p02
  1
*
  1
*
 70
     0
  1
*
  1
*
  0
XRECORD
  5
26
102
{ACAD_REACTORS
330
14
102
}
100
AcDbXrecord
  1
02-TERRES
  1
02-*
  1
*
  1
*
 70
     0
  1
*
  1
*
  0
XRECORD
  5
27
102
{ACAD_REACTORS
330
14
102
}
100
AcDbXrecord
  1
03
  1
*p03
  1
*
  1
*
 70
     0
  1
*
  1
*
  0
XRECORD
  5
28
102
{ACAD_REACTORS
330
14
102
}
100
AcDbXrecord
  1
03-FONAMENTS
  1
03-*
  1
*
  1
*
 70
     0
  1
*
  1
*
  0
XRECORD
  5
29
102
{ACAD_REACTORS
330
14
102
}
100
AcDbXrecord
  1
04
  1
*04
  1
*
  1
*
 70
     0
  1
*
  1
*
  0
XRECORD
  5
2A
102
{ACAD_REACTORS
330
14
102
}
100
AcDbXrecord
  1
04-ESTRUCTURA
  1
04-*
  1
*
  1
*
 70
     0
  1
*
  1
*
  0
XRECORD
  5
2B
102
{ACAD_REACTORS
330
14
102
}
100
AcDbXrecord
  1
04cubiertas
  1
*04
  1
*
  1
*
 70
     0
  1
*
  1
*
  0
XRECORD
  5
2C
102
{ACAD_REACTORS
330
14
102
}
100
AcDbXrecord
  1
05
  1
05-*
  1
*
  1
*
 70
     0
  1
*
  1
*
  0
XRECORD
  5
2D
102
{ACAD_REACTORS
330
14
102
}
100
AcDbXrecord
  1
06
  1
*06
  1
*
  1
*
 70
     0
  1
*
  1
*
  0
XRECORD
  5
2E
102
{ACAD_REACTORS
330
14
102
}
100
AcDbXrecord
  1
06-
  1
06-*
  1
*
  1
*
 70
     0
  1
*
  1
*
  0
XRECORD
  5
2F
102
{ACAD_REACTORS
330
14
102
}
100
AcDbXrecord
  1
07
  1
*07
  1
*
  1
*
 70
     0
  1
*
  1
*
  0
XRECORD
  5
30
102
{ACAD_REACTORS
330
14
102
}
100
AcDbXrecord
  1
07-
  1
07-*
  1
*
  1
*
 70
     0
  1
*
  1
*
  0
XRECORD
  5
31
102
{ACAD_REACTORS
330
14
102
}
100
AcDbXrecord
  1
08-
  1
08-*
  1
*
  1
*
 70
     0
  1
*
  1
*
  0
XRECORD
  5
32
102
{ACAD_REACTORS
330
14
102
}
100
AcDbXrecord
  1
09-
  1
09-*
  1
*
  1
*
 70
     0
  1
*
  1
*
  0
XRECORD
  5
33
102
{ACAD_REACTORS
330
14
102
}
100
AcDbXrecord
  1
1
  1
*
  1
*
  1
*
 70
     3
  1
*
  1
*
  0
XRECORD
  5
34
102
{ACAD_REACTORS
330
14
102
}
100
AcDbXrecord
  1
1-
  1
*
  1
*
  1
*
 70
     0
  1
*
  1
*
  0
XRECORD
  5
35
102
{ACAD_REACTORS
330
14
102
}
100
AcDbXrecord
  1
1_TOPOGRAFICO
  1
*
  1
ROJO
  1
*
 70
     0
  1
*
  1
*
  0
XRECORD
  5
36
102
{ACAD_REACTORS
330
14
102
}
100
AcDbXrecord
  1
10-
  1
10-*
  1
*
  1
*
 70
     0
  1
*
  1
*
  0
XRECORD
  5
37
102
{ACAD_REACTORS
330
14
102
}
100
AcDbXrecord
  1
100
  1
100*
  1
*
  1
*
 70
     0
  1
*
  1
*
  0
XRECORD
  5
38
102
{ACAD_REACTORS
330
14
102
}
100
AcDbXrecord
  1
11
  1
6_*
  1
*
  1
*
 70
     0
  1
*
  1
*
  0
XRECORD
  5
39
102
{ACAD_REACTORS
330
14
102
}
100
AcDbXrecord
  1
11-
  1
11-*
  1
*
  1
*
 70
     0
  1
*
  1
*
  0
XRECORD
  5
3A
102
{ACAD_REACTORS
330
14
102
}
100
AcDbXrecord
  1
12
  1
12-*
  1
*
  1
*
 70
     0
  1
*
  1
*
  0
XRECORD
  5
3B
102
{ACAD_REACTORS
330
14
102
}
100
AcDbXrecord
  1
13-
  1
13-*
  1
*
  1
*
 70
     0
  1
*
  1
*
  0
XRECORD
  5
3C
102
{ACAD_REACTORS
330
14
102
}
100
AcDbXrecord
  1
14-
  1
14-*
  1
*
  1
*
 70
     0
  1
*
  1
*
  0
XRECORD
  5
3D
102
{ACAD_REACTORS
330
14
102
}
100
AcDbXrecord
  1
15
  1
15-*
  1
*
  1
*
 70
     0
  1
*
  1
*
  0
XRECORD
  5
3E
102
{ACAD_REACTORS
330
14
102
}
100
AcDbXrecord
  1
16-
  1
16-*
  1
*
  1
*
 70
     0
  1
*
  1
*
  0
XRECORD
  5
3F
102
{ACAD_REACTORS
330
14
102
}
100
AcDbXrecord
  1
17-
  1
17-*
  1
*
  1
*
 70
     0
  1
*
  1
*
  0
XRECORD
  5
40
102
{ACAD_REACTORS
330
14
102
}
100
AcDbXrecord
  1
177
  1
*
  1
177
  1
*
 70
     0
  1
*
  1
*
  0
XRECORD
  5
41
102
{ACAD_REACTORS
330
14
102
}
100
AcDbXrecord
  1
2
  1
*
  1
2
  1
*
 70
     0
  1
*
  1
*
  0
XRECORD
  5
42
102
{ACAD_REACTORS
330
14
102
}
100
AcDbXrecord
  1
2_PLAN ESPECIAL
  1
*
  1
VERDE
  1
*
 70
     0
  1
*
  1
*
  0
XRECORD
  5
43
102
{ACAD_REACTORS
330
14
102
}
100
AcDbXrecord
  1
200
  1
200*
  1
*
  1
*
 70
     0
  1
*
  1
*
  0
XRECORD
  5
44
102
{ACAD_REACTORS
330
14
102
}
100
AcDbXrecord
  1
26
  1
*26*
  1
*
  1
*
 70
     0
  1
*
  1
*
  0
XRECORD
  5
45
102
{ACAD_REACTORS
330
14
102
}
100
AcDbXrecord
  1
28
  1
*28*
  1
*
  1
*
 70
     0
  1
*
  1
*
  0
XRECORD
  5
46
102
{ACAD_REACTORS
330
14
102
}
100
AcDbXrecord
  1
3_CENTRO
  1
*
  1
AZUL
  1
*
 70
     0
  1
*
  1
*
  0
XRECORD
  5
47
102
{ACAD_REACTORS
330
14
102
}
100
AcDbXrecord
  1
3d
  1
*3d*
  1
*
  1
*
 70
     0
  1
*
  1
*
  0
XRECORD
  5
48
102
{ACAD_REACTORS
330
14
102
}
100
AcDbXrecord
  1
3D LAYERS
  1
A3D*,0*,a-const*
  1
*
  1
*
 70
     0
  1
*
  1
*
  0
XRECORD
  5
49
102
{ACAD_REACTORS
330
14
102
}
100
AcDbXrecord
  1
4_PARKING
  1
*
  1
BLANCO
  1
*
 70
     0
  1
*
  1
*
  0
XRECORD
  5
4A
102
{ACAD_REACTORS
330
14
102
}
100
AcDbXrecord
  1
40
  1
*
  1
40
  1
*
 70
     0
  1
*
  1
*
  0
XRECORD
  5
4B
102
{ACAD_REACTORS
330
14
102
}
100
AcDbXrecord
  1
50
  1
*50*
  1
*
  1
*
 70
     0
  1
*
  1
*
  0
XRECORD
  5
4C
102
{ACAD_REACTORS
330
14
102
}
100
AcDbXrecord
  1
500
  1
*500*
  1
*
  1
*
 70
     0
  1
*
  1
*
  0
XRECORD
  5
4D
102
{ACAD_REACTORS
330
14
102
}
100
AcDbXrecord
  1
8
  1
*
  1
*8
  1
*
 70
     0
  1
*
  1
*
  0
XRECORD
  5
4E
102
{ACAD_REACTORS
330
14
102
}
100
AcDbXrecord
  1
84
  1
*84*
  1
*
  1
*
 70
     0
  1
*
  1
*
  0
XRECORD
  5
4F
102
{ACAD_REACTORS
330
14
102
}
100
AcDbXrecord
  1
A
  1
A*
  1
*
  1
*
 70
     0
  1
*
  1
*
  0
XRECORD
  5
50
102
{ACAD_REACTORS
330
14
102
}
100
AcDbXrecord
  1
A-Flor
  1
*|A-Flor*
  1
*
  1
*
 70
     0
  1
*
  1
*
  0
XRECORD
  5
51
102
{ACAD_REACTORS
330
14
102
}
100
AcDbXrecord
  1
a_
  1
a_*
  1
*
  1
*
 70
     0
  1
*
  1
*
  0
XRECORD
  5
52
102
{ACAD_REACTORS
330
14
102
}
100
AcDbXrecord
  1
A1
  1
A1*
  1
*
  1
*
 70
     0
  1
*
  1
*
  0
XRECORD
  5
53
102
{ACAD_REACTORS
330
14
102
}
100
AcDbXrecord
  1
A2
  1
A2*
  1
*
  1
*
 70
     0
  1
*
  1
*
  0
XRECORD
  5
54
102
{ACAD_REACTORS
330
14
102
}
100
AcDbXrecord
  1
A3
  1
A3*
  1
*
  1
*
 70
     0
  1
*
  1
*
  0
XRECORD
  5
55
102
{ACAD_REACTORS
330
14
102
}
100
AcDbXrecord
  1
A4
  1
A4*
  1
*
  1
*
 70
     0
  1
*
  1
*
  0
XRECORD
  5
56
102
{ACAD_REACTORS
330
14
102
}
100
AcDbXrecord
  1
AA_
  1
AA_*
  1
*
  1
*
 70
     0
  1
*
  1
*
  0
XRECORD
  5
57
102
{ACAD_REACTORS
330
14
102
}
100
AcDbXrecord
  1
AA_ft
  1
*
  1
*
  1
*
 70
     0
  1
*
  1
*
  0
XRECORD
  5
58
102
{ACAD_REACTORS
330
14
102
}
100
AcDbXrecord
  1
aaa
  1
*
  1
*
  1
*
 70
    12
  1
*
  1
*
  0
XRECORD
  5
59
102
{ACAD_REACTORS
330
14
102
}
100
AcDbXrecord
  1
ACOMETIDA-SERGAS
  1
*_AC
  1
*
  1
*
 70
     0
  1
*
  1
*
  0
XRECORD
  5
5A
102
{ACAD_REACTORS
330
14
102
}
100
AcDbXrecord
  1
act
  1
*
  1
*
  1
*
 70
     1
  1
*
  1
*
  0
XRECORD
  5
5B
102
{ACAD_REACTORS
330
14
102
}
100
AcDbXrecord
  1
ACTI
  1
*
  1
*
  1
*
 70
     1
  1
*
  1
*
  0
XRECORD
  5
5C
102
{ACAD_REACTORS
330
14
102
}
100
AcDbXrecord
  1
Activadas
  1
*
  1
*
  1
*
 70
     1
  1
*
  1
*
  0
XRECORD
  5
5D
102
{ACAD_REACTORS
330
14
102
}
100
AcDbXrecord
  1
activas
  1
*
  1
*
  1
*
 70
    12
  1
*
  1
*
  0
XRECORD
  5
5E
102
{ACAD_REACTORS
330
14
102
}
100
AcDbXrecord
  1
ae
  1
*ae*
  1
*
  1
*
 70
     0
  1
*
  1
*
  0
XRECORD
  5
5F
102
{ACAD_REACTORS
330
14
102
}
100
AcDbXrecord
  1
Agua
  1
Agua*
  1
*
  1
*
 70
     0
  1
*
  1
*
  0
XRECORD
  5
60
102
{ACAD_REACTORS
330
14
102
}
100
AcDbXrecord
  1
AIRE
  1
AI*
  1
*
  1
*
 70
     0
  1
*
  1
*
  0
XRECORD
  5
61
102
{ACAD_REACTORS
330
14
102
}
100
AcDbXrecord
  1
ALÇAT
  1
ALÇAT*
  1
*
  1
*
 70
     0
  1
*
  1
*
  0
XRECORD
  5
62
102
{ACAD_REACTORS
330
14
102
}
100
AcDbXrecord
  1
alero
  1
alero*
  1
*
  1
*
 70
     0
  1
*
  1
*
  0
XRECORD
  5
63
102
{ACAD_REACTORS
330
14
102
}
100
AcDbXrecord
  1
ALL
  1
*
  1
*
  1
*
 70
     0
  1
*
  1
*
  0
XRECORD
  5
64
102
{ACAD_REACTORS
330
14
102
}
100
AcDbXrecord
  1
alle-schüco-layer
  1
0s*
  1
*
  1
*
 70
     0
  1
*
  1
*
  0
XRECORD
  5
65
102
{ACAD_REACTORS
330
14
102
}
100
AcDbXrecord
  1
alle-sichtbaren-layer
  1
*
  1
*
  1
*
 70
    13
  1
*
  1
*
  0
XRECORD
  5
66
102
{ACAD_REACTORS
330
14
102
}
100
AcDbXrecord
  1
ALZADOS
  1
A-*
  1
*
  1
*
 70
     0
  1
*
  1
*
  0
XRECORD
  5
67
102
{ACAD_REACTORS
330
14
102
}
100
AcDbXrecord
  1
amarillo
  1
*
  1
2
  1
*
 70
     0
  1
*
  1
*
  0
XRECORD
  5
68
102
{ACAD_REACTORS
330
14
102
}
100
AcDbXrecord
  1
an
  1
*an_*
  1
*
  1
*
 70
     0
  1
*
  1
*
  0
XRECORD
  5
69
102
{ACAD_REACTORS
330
14
102
}
100
AcDbXrecord
  1
ANT-H
  1
ANT-H*
  1
*
  1
*
 70
     0
  1
*
  1
*
  0
XRECORD
  5
6A
102
{ACAD_REACTORS
330
14
102
}
100
AcDbXrecord
  1
aq
  1
aq*
  1
*
  1
*
 70
     0
  1
*
  1
*
  0
XRECORD
  5
6B
102
{ACAD_REACTORS
330
14
102
}
100
AcDbXrecord
  1
aq-
  1
aq-*
  1
*
  1
*
 70
     0
  1
*
  1
*
  0
XRECORD
  5
6C
102
{ACAD_REACTORS
330
14
102
}
100
AcDbXrecord
  1
arbres
  1
*arb*
  1
*
  1
*
 70
     0
  1
*
  1
*
  0
XRECORD
  5
6D
102
{ACAD_REACTORS
330
14
102
}
100
AcDbXrecord
  1
area
  1
*area*
  1
*
  1
*
 70
     0
  1
*
  1
*
  0
XRECORD
  5
6E
102
{ACAD_REACTORS
330
14
102
}
100
AcDbXrecord
  1
AREAS
  1
AREA*.*
  1
*
  1
*
 70
     0
  1
*
  1
*
  0
XRECORD
  5
6F
102
{ACAD_REACTORS
330
14
102
}
100
AcDbXrecord
  1
Arquetas
  1
Arquetas*
  1
*
  1
*
 70
     0
  1
*
  1
*
  0
XRECORD
  5
70
102
{ACAD_REACTORS
330
14
102
}
100
AcDbXrecord
  1
ARQUITECTURA
  1
ARQ*
  1
*
  1
*
 70
     0
  1
*
  1
*
  0
XRECORD
  5
71
102
{ACAD_REACTORS
330
14
102
}
100
AcDbXrecord
  1
b1
  1
b1_*
  1
*
  1
*
 70
     0
  1
*
  1
*
  0
XRECORD
  5
72
102
{ACAD_REACTORS
330
14
102
}
100
AcDbXrecord
  1
B2
  1
B2*
  1
*
  1
*
 70
     0
  1
*
  1
*
  0
XRECORD
  5
73
102
{ACAD_REACTORS
330
14
102
}
100
AcDbXrecord
  1
B3
  1
B3*
  1
*
  1
*
 70
     0
  1
*
  1
*
  0
XRECORD
  5
74
102
{ACAD_REACTORS
330
14
102
}
100
AcDbXrecord
  1
B4
  1
B4*
  1
*
  1
*
 70
     0
  1
*
  1
*
  0
XRECORD
  5
75
102
{ACAD_REACTORS
330
14
102
}
100
AcDbXrecord
  1
barracones
  1
barracones*
  1
*
  1
*
 70
     0
  1
*
  1
*
  0
XRECORD
  5
76
102
{ACAD_REACTORS
330
14
102
}
100
AcDbXrecord
  1
base
  1
357-b|*
  1
*
  1
*
 70
     0
  1
*
  1
*
  0
XRECORD
  5
77
102
{ACAD_REACTORS
330
14
102
}
100
AcDbXrecord
  1
BIND
  1
*$0$*
  1
*
  1
*
 70
     0
  1
*
  1
*
  0
XRECORD
  5
78
102
{ACAD_REACTORS
330
14
102
}
100
AcDbXrecord
  1
bloq
  1
*
  1
*
  1
*
 70
   259
  1
*
  1
*
  0
XRECORD
  5
79
102
{ACAD_REACTORS
330
14
102
}
100
AcDbXrecord
  1
bloqueada
  1
*
  1
*
  1
*
 70
   256
  1
*
  1
*
  0
XRECORD
  5
7A
102
{ACAD_REACTORS
330
14
102
}
100
AcDbXrecord
  1
bloqueadas
  1
*
  1
*
  1
*
 70
   256
  1
*
  1
*
  0
XRECORD
  5
7B
102
{ACAD_REACTORS
330
14
102
}
100
AcDbXrecord
  1
BORDE
  1
*|169104
  1
*
  1
*
 70
     0
  1
*
  1
*
  0
XRECORD
  5
7C
102
{ACAD_REACTORS
330
14
102
}
100
AcDbXrecord
  1
BUS
  1
BU**
  1
*
  1
*
 70
     0
  1
*
  1
*
  0
XRECORD
  5
7D
102
{ACAD_REACTORS
330
14
102
}
100
AcDbXrecord
  1
C
  1
C*
  1
*
  1
*
 70
     0
  1
*
  1
*
  0
XRECORD
  5
7E
102
{ACAD_REACTORS
330
14
102
}
100
AcDbXrecord
  1
c-
  1
c-*
  1
*
  1
*
 70
     0
  1
*
  1
*
  0
XRECORD
  5
7F
102
{ACAD_REACTORS
330
14
102
}
100
AcDbXrecord
  1
C1
  1
C1*
  1
*
  1
*
 70
     0
  1
*
  1
*
  0
XRECORD
  5
80
102
{ACAD_REACTORS
330
14
102
}
100
AcDbXrecord
  1
C2
  1
C2*
  1
*
  1
*
 70
     0
  1
*
  1
*
  0
XRECORD
  5
81
102
{ACAD_REACTORS
330
14
102
}
100
AcDbXrecord
  1
C3
  1
C3*
  1
*
  1
*
 70
     0
  1
*
  1
*
  0
XRECORD
  5
82
102
{ACAD_REACTORS
330
14
102
}
100
AcDbXrecord
  1
C4
  1
C4*
  1
*
  1
*
 70
     0
  1
*
  1
*
  0
XRECORD
  5
83
102
{ACAD_REACTORS
330
14
102
}
100
AcDbXrecord
  1
C5
  1
C5*
  1
*
  1
*
 70
     0
  1
*
  1
*
  0
XRECORD
  5
84
102
{ACAD_REACTORS
330
14
102
}
100
AcDbXrecord
  1
C6
  1
C6*
  1
*
  1
*
 70
     0
  1
*
  1
*
  0
XRECORD
  5
85
102
{ACAD_REACTORS
330
14
102
}
100
AcDbXrecord
  1
CÁMARA
  1
CÁMARAS*
  1
*
  1
*
 70
     0
  1
*
  1
*
  0
XRECORD
  5
86
102
{ACAD_REACTORS
330
14
102
}
100
AcDbXrecord
  1
capa 0
  1
0
  1
*
  1
*
 70
     0
  1
*
  1
*
  0
XRECORD
  5
87
102
{ACAD_REACTORS
330
14
102
}
100
AcDbXrecord
  1
capas activadas
  1
*
  1
*
  1
*
 70
     1
  1
*
  1
*
  0
XRECORD
  5
88
102
{ACAD_REACTORS
330
14
102
}
100
AcDbXrecord
  1
capas desactivadas
  1
*
  1
*
  1
*
 70
     3
  1
*
  1
*
  0
XRECORD
  5
89
102
{ACAD_REACTORS
330
14
102
}
100
AcDbXrecord
  1
capas p1
  1
p1*
  1
*
  1
*
 70
     0
  1
*
  1
*
  0
XRECORD
  5
8A
102
{ACAD_REACTORS
330
14
102
}
100
AcDbXrecord
  1
car
  1
*car*
  1
*
  1
*
 70
     0
  1
*
  1
*
  0
XRECORD
  5
8B
102
{ACAD_REACTORS
330
14
102
}
100
AcDbXrecord
  1
CARCYCLE
  1
*CARCYCLE*
  1
*
  1
*
 70
     0
  1
*
  1
*
  0
XRECORD
  5
8C
102
{ACAD_REACTORS
330
14
102
}
100
AcDbXrecord
  1
CARPINTERIA
  1
CARP*
  1
*
  1
*
 70
     0
  1
*
  1
*
  0
XRECORD
  5
8D
102
{ACAD_REACTORS
330
14
102
}
100
AcDbXrecord
  1
CARRITALYBASE
  1
*
  1
*
  1
*
 70
     0
  1
*
  1
*
  0
XRECORD
  5
8E
102
{ACAD_REACTORS
330
14
102
}
100
AcDbXrecord
  1
CARRIZOS3FINAL
  1
*
  1
*
  1
*
 70
     0
  1
*
  1
*
  0
XRECORD
  5
8F
102
{ACAD_REACTORS
330
14
102
}
100
AcDbXrecord
  1
CARTO
  1
CART*
  1
*
  1
*
 70
     0
  1
*
  1
*
  0
XRECORD
  5
90
102
{ACAD_REACTORS
330
14
102
}
100
AcDbXrecord
  1
cartografia
  1
*
  1
8,9
  1
*
 70
     0
  1
*
  1
*
  0
XRECORD
  5
91
102
{ACAD_REACTORS
330
14
102
}
100
AcDbXrecord
  1
CEILING
  1
*CEIL*
  1
*
  1
*
 70
     0
  1
*
  1
*
  0
XRECORD
  5
92
102
{ACAD_REACTORS
330
14
102
}
100
AcDbXrecord
  1
cel
  1
cel*
  1
*
  1
*
 70
     0
  1
*
  1
*
  0
XRECORD
  5
93
102
{ACAD_REACTORS
330
14
102
}
100
AcDbXrecord
  1
cel-ras
  1
cel*
  1
*
  1
*
 70
     0
  1
*
  1
*
  0
XRECORD
  5
94
102
{ACAD_REACTORS
330
14
102
}
100
AcDbXrecord
  1
cian
  1
*
  1
4
  1
*
 70
    12
  1
*
  1
*
  0
XRECORD
  5
95
102
{ACAD_REACTORS
330
14
102
}
100
AcDbXrecord
  1
CLAD
  1
*CLAD*
  1
*
  1
*
 70
     0
  1
*
  1
*
  0
XRECORD
  5
96
102
{ACAD_REACTORS
330
14
102
}
100
AcDbXrecord
  1
clg
  1
*clg*
  1
*
  1
*
 70
     0
  1
*
  1
*
  0
XRECORD
  5
97
102
{ACAD_REACTORS
330
14
102
}
100
AcDbXrecord
  1
Color
  1
*
  1
Rojo
  1
*
 70
     0
  1
*
  1
*
  0
XRECORD
  5
98
102
{ACAD_REACTORS
330
14
102
}
100
AcDbXrecord
  1
color-8
  1
*
  1
8
  1
*
 70
     0
  1
*
  1
*
  0
XRECORD
  5
99
102
{ACAD_REACTORS
330
14
102
}
100
AcDbXrecord
  1
COLOR 8
  1
*
  1
8
  1
*
 70
     0
  1
*
  1
*
  0
XRECORD
  5
9A
102
{ACAD_REACTORS
330
14
102
}
100
AcDbXrecord
  1
color 9
  1
*
  1
9
  1
*
 70
     0
  1
*
  1
*
  0
XRECORD
  5
9B
102
{ACAD_REACTORS
330
14
102
}
100
AcDbXrecord
  1
com
  1
*com*
  1
*
  1
*
 70
     0
  1
*
  1
*
  0
XRECORD
  5
9C
102
{ACAD_REACTORS
330
14
102
}
100
AcDbXrecord
  1
COMUNES
  1
PBP1P2P3P4PaPqS1S2_G*
  1
*
  1
*
 70
     0
  1
*
  1
*
  0
XRECORD
  5
9D
102
{ACAD_REACTORS
330
14
102
}
100
AcDbXrecord
  1
contours1
  1
*con*
  1
*
  1
*
 70
     0
  1
*
  1
*
  0
XRECORD
  5
9E
102
{ACAD_REACTORS
330
14
102
}
100
AcDbXrecord
  1
Cota
  1
*189703*
  1
*
  1
*
 70
     0
  1
*
  1
*
  0
XRECORD
  5
9F
102
{ACAD_REACTORS
330
14
102
}
100
AcDbXrecord
  1
COTAINT
  1
*COTAINT,*TERRAINT
  1
*
  1
*
 70
     0
  1
*
  1
*
  0
XRECORD
  5
A0
102
{ACAD_REACTORS
330
14
102
}
100
AcDbXrecord
  1
COTAS
  1
*COTAS*
  1
*
  1
*
 70
     0
  1
*
  1
*
  0
XRECORD
  5
A1
102
{ACAD_REACTORS
330
14
102
}
100
AcDbXrecord
  1
COTAS-ACABADOS
  1
*_CA
  1
*
  1
*
 70
     0
  1
*
  1
*
  0
XRECORD
  5
A2
102
{ACAD_REACTORS
330
14
102
}
100
AcDbXrecord
  1
COTAS_ACABADOS
  1
*_CA
  1
*
  1
*
 70
     0
  1
*
  1
*
  0
XRECORD
  5
A3
102
{ACAD_REACTORS
330
14
102
}
100
AcDbXrecord
  1
COTES
  1
*COT*
  1
*
  1
*
 70
     0
  1
*
  1
*
  0
XRECORD
  5
A4
102
{ACAD_REACTORS
330
14
102
}
100
AcDbXrecord
  1
couleur
  1
couleur*
  1
*
  1
*
 70
     0
  1
*
  1
*
  0
XRECORD
  5
A5
102
{ACAD_REACTORS
330
14
102
}
100
AcDbXrecord
  1
CPI
  1
CPI*
  1
*
  1
*
 70
     0
  1
*
  1
*
  0
XRECORD
  5
A6
102
{ACAD_REACTORS
330
14
102
}
100
AcDbXrecord
  1
CUBICAL
  1
*CUB*
  1
*
  1
*
 70
     0
  1
*
  1
*
  0
XRECORD
  5
A7
102
{ACAD_REACTORS
330
14
102
}
100
AcDbXrecord
  1
CUBIERTA
  1
*P03
  1
*
  1
*
 70
     0
  1
*
  1
*
  0
XRECORD
  5
A8
102
{ACAD_REACTORS
330
14
102
}
100
AcDbXrecord
  1
curva
  1
*cur*
  1
*
  1
*
 70
     0
  1
*
  1
*
  0
XRECORD
  5
A9
102
{ACAD_REACTORS
330
14
102
}
100
AcDbXrecord
  1
CYAN
  1
*
  1
*CYAN
  1
*
 70
     0
  1
*
  1
*
  0
XRECORD
  5
AA
102
{ACAD_REACTORS
330
14
102
}
100
AcDbXrecord
  1
cycl
  1
*cycl*
  1
*
  1
*
 70
     0
  1
*
  1
*
  0
XRECORD
  5
AB
102
{ACAD_REACTORS
330
14
102
}
100
AcDbXrecord
  1
CYCLE
  1
*CYCL*
  1
*
  1
*
 70
     0
  1
*
  1
*
  0
XRECORD
  5
AC
102
{ACAD_REACTORS
330
14
102
}
100
AcDbXrecord
  1
D1
  1
D1*
  1
*
  1
*
 70
     0
  1
*
  1
*
  0
XRECORD
  5
AD
102
{ACAD_REACTORS
330
14
102
}
100
AcDbXrecord
  1
D2
  1
D2*
  1
*
  1
*
 70
     0
  1
*
  1
*
  0
XRECORD
  5
AE
102
{ACAD_REACTORS
330
14
102
}
100
AcDbXrecord
  1
D3
  1
D3*
  1
*
  1
*
 70
     0
  1
*
  1
*
  0
XRECORD
  5
AF
102
{ACAD_REACTORS
330
14
102
}
100
AcDbXrecord
  1
D4
  1
D4*
  1
*
  1
*
 70
     0
  1
*
  1
*
  0
XRECORD
  5
B0
102
{ACAD_REACTORS
330
14
102
}
100
AcDbXrecord
  1
D5
  1
D5*
  1
*
  1
*
 70
     0
  1
*
  1
*
  0
XRECORD
  5
B1
102
{ACAD_REACTORS
330
14
102
}
100
AcDbXrecord
  1
Del dibujo
  1
*
  1
*
  1
*
 70
   768
  1
*
  1
*
  0
XRECORD
  5
B2
102
{ACAD_REACTORS
330
14
102
}
100
AcDbXrecord
  1
demo
  1
*-demo-*
  1
*
  1
*
 70
  3415
  1
*
  1
*
  0
XRECORD
  5
B3
102
{ACAD_REACTORS
330
14
102
}
100
AcDbXrecord
  1
des
  1
*
  1
*
  1
*
 70
     3
  1
*
  1
*
  0
XRECORD
  5
B4
102
{ACAD_REACTORS
330
14
102
}
100
AcDbXrecord
  1
DESACTIVAS
  1
*
  1
*
  1
*
 70
     3
  1
*
  1
*
  0
XRECORD
  5
B5
102
{ACAD_REACTORS
330
14
102
}
100
AcDbXrecord
  1
DETAIL
  1
D-*
  1
*
  1
*
 70
     0
  1
*
  1
*
  0
XRECORD
  5
B6
102
{ACAD_REACTORS
330
14
102
}
100
AcDbXrecord
  1
DETAILS
  1
D-*
  1
*
  1
*
 70
     0
  1
*
  1
*
  0
XRECORD
  5
B7
102
{ACAD_REACTORS
330
14
102
}
100
AcDbXrecord
  1
detalle
  1
d-*
  1
*
  1
*
 70
     0
  1
*
  1
*
  0
XRECORD
  5
B8
102
{ACAD_REACTORS
330
14
102
}
100
AcDbXrecord
  1
detalles
  1
det*
  1
*
  1
*
 70
     0
  1
*
  1
*
  0
XRECORD
  5
B9
102
{ACAD_REACTORS
330
14
102
}
100
AcDbXrecord
  1
DIB
  1
*DIB*
  1
*
  1
*
 70
     0
  1
*
  1
*
  0
XRECORD
  5
BA
102
{ACAD_REACTORS
330
14
102
}
100
AcDbXrecord
  1
DIM
  1
*DIM*
  1
*
  1
*
 70
     0
  1
*
  1
*
  0
XRECORD
  5
BB
102
{ACAD_REACTORS
330
14
102
}
100
AcDbXrecord
  1
dims
  1
*dim*
  1
*
  1
*
 70
     0
  1
*
  1
*
  0
XRECORD
  5
BC
102
{ACAD_REACTORS
330
14
102
}
100
AcDbXrecord
  1
DOOR
  1
*D*R*
  1
*
  1
*
 70
     0
  1
*
  1
*
  0
XRECORD
  5
BD
102
{ACAD_REACTORS
330
14
102
}
100
AcDbXrecord
  1
doors
  1
*door*
  1
*
  1
*
 70
     0
  1
*
  1
*
  0
XRECORD
  5
BE
102
{ACAD_REACTORS
330
14
102
}
100
AcDbXrecord
  1
DREN
  1
DREN*
  1
*
  1
*
 70
     0
  1
*
  1
*
  0
XRECORD
  5
BF
102
{ACAD_REACTORS
330
14
102
}
100
AcDbXrecord
  1
drenagem
  1
-d-*,-DRENAGEM
  1
*
  1
*
 70
     0
  1
*
  1
*
  0
XRECORD
  5
C0
102
{ACAD_REACTORS
330
14
102
}
100
AcDbXrecord
  1
E
  1
E*
  1
*
  1
*
 70
     0
  1
*
  1
*
  0
XRECORD
  5
C1
102
{ACAD_REACTORS
330
14
102
}
100
AcDbXrecord
  1
E1
  1
E1*
  1
*
  1
*
 70
     0
  1
*
  1
*
  0
XRECORD
  5
C2
102
{ACAD_REACTORS
330
14
102
}
100
AcDbXrecord
  1
E3
  1
E3*
  1
*
  1
*
 70
     1
  1
*
  1
*
  0
XRECORD
  5
C3
102
{ACAD_REACTORS
330
14
102
}
100
AcDbXrecord
  1
eixos
  1
*eix*
  1
*
  1
*
 70
     0
  1
*
  1
*
  0
XRECORD
  5
C4
102
{ACAD_REACTORS
330
14
102
}
100
AcDbXrecord
  1
eje
  1
e*
  1
*
  1
*
 70
     0
  1
*
  1
*
  0
XRECORD
  5
C5
102
{ACAD_REACTORS
330
14
102
}
100
AcDbXrecord
  1
elect
  1
*electrical*
  1
*
  1
*
 70
     0
  1
*
  1
*
  0
XRECORD
  5
C6
102
{ACAD_REACTORS
330
14
102
}
100
AcDbXrecord
  1
ellipse
  1
*ellip*
  1
*
  1
*
 70
     0
  1
*
  1
*
  0
XRECORD
  5
C7
102
{ACAD_REACTORS
330
14
102
}
100
AcDbXrecord
  1
ENSE
  1
*
  1
*
  1
*
 70
     1
  1
*
  1
*
  0
XRECORD
  5
C8
102
{ACAD_REACTORS
330
14
102
}
100
AcDbXrecord
  1
entorn
  1
entorn*
  1
*
  1
*
 70
     0
  1
*
  1
*
  0
XRECORD
  5
C9
102
{ACAD_REACTORS
330
14
102
}
100
AcDbXrecord
  1
ENTRADA
  1
*_EE
  1
*
  1
*
 70
     0
  1
*
  1
*
  0
XRECORD
  5
CA
102
{ACAD_REACTORS
330
14
102
}
100
AcDbXrecord
  1
Entramado-Fachadas
  1
e-per*
  1
*
  1
*
 70
     0
  1
*
  1
*
  0
XRECORD
  5
CB
102
{ACAD_REACTORS
330
14
102
}
100
AcDbXrecord
  1
eq
  1
*eq*
  1
*
  1
*
 70
     0
  1
*
  1
*
  0
XRECORD
  5
CC
102
{ACAD_REACTORS
330
14
102
}
100
AcDbXrecord
  1
EQU
  1
*EQ*
  1
*
  1
*
 70
     0
  1
*
  1
*
  0
XRECORD
  5
CD
102
{ACAD_REACTORS
330
14
102
}
100
AcDbXrecord
  1
escala 1-50
  1
*050-*
  1
*
  1
*
 70
     0
  1
*
  1
*
  0
XRECORD
  5
CE
102
{ACAD_REACTORS
330
14
102
}
100
AcDbXrecord
  1
escalator
  1
*esc*
  1
*
  1
*
 70
     0
  1
*
  1
*
  0
XRECORD
  5
CF
102
{ACAD_REACTORS
330
14
102
}
100
AcDbXrecord
  1
ESCALERA
  1
ESCAL*
  1
*
  1
*
 70
     0
  1
*
  1
*
  0
XRECORD
  5
D0
102
{ACAD_REACTORS
330
14
102
}
100
AcDbXrecord
  1
ESPAI VERD
  1
*P2*
  1
*
  1
*
 70
     0
  1
*
  1
*
  0
XRECORD
  5
D1
102
{ACAD_REACTORS
330
14
102
}
100
AcDbXrecord
  1
ESQUEMAS
  1
ESQUEMA*
  1
*
  1
*
 70
     0
  1
*
  1
*
  0
XRECORD
  5
D2
102
{ACAD_REACTORS
330
14
102
}
100
AcDbXrecord
  1
estru00
  1
estru*00
  1
*
  1
*
 70
     0
  1
*
  1
*
  0
XRECORD
  5
D3
102
{ACAD_REACTORS
330
14
102
}
100
AcDbXrecord
  1
ESTRUCTURA
  1
ESTRUC*
  1
*
  1
*
 70
     0
  1
*
  1
*
  0
XRECORD
  5
D4
102
{ACAD_REACTORS
330
14
102
}
100
AcDbXrecord
  1
estructuras
  1
e-*
  1
*
  1
*
 70
     0
  1
*
  1
*
  0
XRECORD
  5
D5
102
{ACAD_REACTORS
330
14
102
}
100
AcDbXrecord
  1
EXIS
  1
EXIS*
  1
*
  1
*
 70
     0
  1
*
  1
*
  0
XRECORD
  5
D6
102
{ACAD_REACTORS
330
14
102
}
100
AcDbXrecord
  1
exterior
  1
exterior*
  1
*
  1
*
 70
     0
  1
*
  1
*
  0
XRECORD
  5
D7
102
{ACAD_REACTORS
330
14
102
}
100
AcDbXrecord
  1
F1
  1
*F1
  1
*
  1
*
 70
     0
  1
*
  1
*
  0
XRECORD
  5
D8
102
{ACAD_REACTORS
330
14
102
}
100
AcDbXrecord
  1
F2
  1
*F2
  1
*
  1
*
 70
     0
  1
*
  1
*
  0
XRECORD
  5
D9
102
{ACAD_REACTORS
330
14
102
}
100
AcDbXrecord
  1
FACHADA
  1
*_FA
  1
*
  1
*
 70
     0
  1
*
  1
*
  0
XRECORD
  5
DA
102
{ACAD_REACTORS
330
14
102
}
100
AcDbXrecord
  1
FACHADAS
  1
FACHADA,CARPIN,EJES,TEJADO,PROFORJA,ESCALERA
  1
*
  1
*
 70
     0
  1
*
  1
*
  0
XRECORD
  5
DB
102
{ACAD_REACTORS
330
14
102
}
100
AcDbXrecord
  1
fall
  1
*fall*
  1
*
  1
*
 70
     0
  1
*
  1
*
  0
XRECORD
  5
DC
102
{ACAD_REACTORS
330
14
102
}
100
AcDbXrecord
  1
FALLOS
  1
FALLOS*
  1
*
  1
*
 70
     0
  1
*
  1
*
  0
XRECORD
  5
DD
102
{ACAD_REACTORS
330
14
102
}
100
AcDbXrecord
  1
fancoil
  1
f-*
  1
*
  1
*
 70
     0
  1
*
  1
*
  0
XRECORD
  5
DE
102
{ACAD_REACTORS
330
14
102
}
100
AcDbXrecord
  1
Fecales
  1
Fecales*
  1
*
  1
*
 70
     0
  1
*
  1
*
  0
XRECORD
  5
DF
102
{ACAD_REACTORS
330
14
102
}
100
AcDbXrecord
  1
ff200m
  1
*050-*,*020-*,*d0-*
  1
*
  1
*
 70
     0
  1
*
  1
*
  0
XRECORD
  5
E0
102
{ACAD_REACTORS
330
14
102
}
100
AcDbXrecord
  1
FIN
  1
*FIN*
  1
*
  1
*
 70
     0
  1
*
  1
*
  0
XRECORD
  5
E1
102
{ACAD_REACTORS
330
14
102
}
100
AcDbXrecord
  1
fire
  1
*fire*
  1
*
  1
*
 70
     0
  1
*
  1
*
  0
XRECORD
  5
E2
102
{ACAD_REACTORS
330
14
102
}
100
AcDbXrecord
  1
FIX
  1
*FIX*
  1
*
  1
*
 70
     0
  1
*
  1
*
  0
XRECORD
  5
E3
102
{ACAD_REACTORS
330
14
102
}
100
AcDbXrecord
  1
Floor
  1
A-Flor*
  1
*
  1
*
 70
     0
  1
*
  1
*
  0
XRECORD
  5
E4
102
{ACAD_REACTORS
330
14
102
}
100
AcDbXrecord
  1
freeze
  1
*
  1
*
  1
*
 70
     4
  1
*
  1
*
  0
XRECORD
  5
E5
102
{ACAD_REACTORS
330
14
102
}
100
AcDbXrecord
  1
Frozen
  1
*
  1
*
  1
*
 70
     4
  1
*
  1
*
  0
XRECORD
  5
E6
102
{ACAD_REACTORS
330
14
102
}
100
AcDbXrecord
  1
furn
  1
*furn*
  1
*
  1
*
 70
     0
  1
*
  1
*
  0
XRECORD
  5
E7
102
{ACAD_REACTORS
330
14
102
}
100
AcDbXrecord
  1
FURNITURE
  1
*FUR*
  1
*
  1
*
 70
     0
  1
*
  1
*
  0
XRECORD
  5
E8
102
{ACAD_REACTORS
330
14
102
}
100
AcDbXrecord
  1
fus
  1
*fus*
  1
*
  1
*
 70
     1
  1
*
  1
*
  0
XRECORD
  5
E9
102
{ACAD_REACTORS
330
14
102
}
100
AcDbXrecord
  1
Gas
  1
Gas*
  1
*
  1
*
 70
     0
  1
*
  1
*
  0
XRECORD
  5
EA
102
{ACAD_REACTORS
330
14
102
}
100
AcDbXrecord
  1
gel
  1
*
  1
*
  1
*
 70
    12
  1
*
  1
*
  0
XRECORD
  5
EB
102
{ACAD_REACTORS
330
14
102
}
100
AcDbXrecord
  1
gilltemp
  1
*
  1
*
  1
*
 70
     0
  1
*
  1
*
  0
XRECORD
  5
EC
102
{ACAD_REACTORS
330
14
102
}
100
AcDbXrecord
  1
green
  1
*
  1
3
  1
*
 70
    12
  1
*
  1
*
  0
XRECORD
  5
ED
102
{ACAD_REACTORS
330
14
102
}
100
AcDbXrecord
  1
grid
  1
*grid*
  1
*
  1
*
 70
     0
  1
*
  1
*
  0
XRECORD
  5
EE
102
{ACAD_REACTORS
330
14
102
}
100
AcDbXrecord
  1
gris8
  1
*
  1
8
  1
*
 70
    12
  1
*
  1
*
  0
XRECORD
  5
EF
102
{ACAD_REACTORS
330
14
102
}
100
AcDbXrecord
  1
gris9
  1
*
  1
9
  1
*
 70
     0
  1
*
  1
*
  0
XRECORD
  5
F0
102
{ACAD_REACTORS
330
14
102
}
100
AcDbXrecord
  1
grises
  1
h*
  1
*
  1
*
 70
     0
  1
*
  1
*
  0
XRECORD
  5
F1
102
{ACAD_REACTORS
330
14
102
}
100
AcDbXrecord
  1
gro
  1
*gro*
  1
*
  1
*
 70
     0
  1
*
  1
*
  0
XRECORD
  5
F2
102
{ACAD_REACTORS
330
14
102
}
100
AcDbXrecord
  1
h-
  1
h-*
  1
*
  1
*
 70
     0
  1
*
  1
*
  0
XRECORD
  5
F3
102
{ACAD_REACTORS
330
14
102
}
100
AcDbXrecord
  1
HA
  1
*HA*
  1
*
  1
*
 70
     0
  1
*
  1
*
  0
XRECORD
  5
F4
102
{ACAD_REACTORS
330
14
102
}
100
AcDbXrecord
  1
HA-GENE-AR
  1
*HA-GENE-AR
  1
*
  1
*
 70
     0
  1
*
  1
*
  0
XRECORD
  5
F5
102
{ACAD_REACTORS
330
14
102
}
100
AcDbXrecord
  1
HAOU
  1
HA*,OU-AREA*
  1
*
  1
*
 70
     0
  1
*
  1
*
  0
XRECORD
  5
F6
102
{ACAD_REACTORS
330
14
102
}
100
AcDbXrecord
  1
hojas
  1
*hojas
  1
*
  1
*
 70
     0
  1
*
  1
*
  0
XRECORD
  5
F7
102
{ACAD_REACTORS
330
14
102
}
100
AcDbXrecord
  1
I
  1
I*
  1
*
  1
*
 70
     0
  1
*
  1
*
  0
XRECORD
  5
F8
102
{ACAD_REACTORS
330
14
102
}
100
AcDbXrecord
  1
il
  1
*
  1
*
  1
*
 70
    48
  1
*
  1
*
  0
XRECORD
  5
F9
102
{ACAD_REACTORS
330
14
102
}
100
AcDbXrecord
  1
ilum
  1
i-*
  1
*
  1
*
 70
     0
  1
*
  1
*
  0
XRECORD
  5
FA
102
{ACAD_REACTORS
330
14
102
}
100
AcDbXrecord
  1
img
  1
*img*
  1
*
  1
*
 70
     0
  1
*
  1
*
  0
XRECORD
  5
FB
102
{ACAD_REACTORS
330
14
102
}
100
AcDbXrecord
  1
inac
  1
*
  1
*
  1
*
 70
     4
  1
*
  1
*
  0
XRECORD
  5
FC
102
{ACAD_REACTORS
330
14
102
}
100
AcDbXrecord
  1
INS
  1
*INS*
  1
*
  1
*
 70
     0
  1
*
  1
*
  0
XRECORD
  5
FD
102
{ACAD_REACTORS
330
14
102
}
100
AcDbXrecord
  1
INST_TECHO
  1
*TECHO
  1
*
  1
*
 70
     0
  1
*
  1
*
  0
XRECORD
  5
FE
102
{ACAD_REACTORS
330
14
102
}
100
AcDbXrecord
  1
INSTALACION_TECHO
  1
*TECHO
  1
*
  1
*
 70
     0
  1
*
  1
*
  0
XRECORD
  5
FF
102
{ACAD_REACTORS
330
14
102
}
100
AcDbXrecord
  1
INSTALACIONES_TECHO
  1
*_T
  1
*
  1
*
 70
     0
  1
*
  1
*
  0
XRECORD
  5
100
102
{ACAD_REACTORS
330
14
102
}
100
AcDbXrecord
  1
inu
  1
*
  1
*
  1
*
 70
    12
  1
*
  1
*
  0
XRECORD
  5
101
102
{ACAD_REACTORS
330
14
102
}
100
AcDbXrecord
  1
INUTIIL
  1
*
  1
*
  1
*
 70
     1
  1
*
  1
*
  0
XRECORD
  5
102
102
{ACAD_REACTORS
330
14
102
}
100
AcDbXrecord
  1
jalonamiento
  1
*iento
  1
*
  1
*
 70
     0
  1
*
  1
*
  0
XRECORD
  5
103
102
{ACAD_REACTORS
330
14
102
}
100
AcDbXrecord
  1
k52
  1
*
  1
*
  1
*
 70
     0
  1
*
  1
*
  0
XRECORD
  5
104
102
{ACAD_REACTORS
330
14
102
}
100
AcDbXrecord
  1
KAYDIRAKLAR
  1
KAY-*
  1
*
  1
*
 70
     0
  1
*
  1
*
  0
XRECORD
  5
105
102
{ACAD_REACTORS
330
14
102
}
100
AcDbXrecord
  1
KEY
  1
*KEY*
  1
*
  1
*
 70
     0
  1
*
  1
*
  0
XRECORD
  5
106
102
{ACAD_REACTORS
330
14
102
}
100
AcDbXrecord
  1
KONSOLLAR
  1
KONSOL*
  1
*
  1
*
 70
     0
  1
*
  1
*
  0
XRECORD
  5
107
102
{ACAD_REACTORS
330
14
102
}
100
AcDbXrecord
  1
LABEL
  1
*
  1
C*
  1
*
 70
     3
  1
*
  1
*
  0
XRECORD
  5
108
102
{ACAD_REACTORS
330
14
102
}
100
AcDbXrecord
  1
LAS-UTILES
  1
*
  1
*
  1
*
 70
    12
  1
*
  1
*
  0
XRECORD
  5
109
102
{ACAD_REACTORS
330
14
102
}
100
AcDbXrecord
  1
LAURA
  1
L*
  1
*
  1
*
 70
     0
  1
*
  1
*
  0
XRECORD
  5
10A
102
{ACAD_REACTORS
330
14
102
}
100
AcDbXrecord
  1
LAZY
  1
*LAZY*
  1
*
  1
*
 70
     0
  1
*
  1
*
  0
XRECORD
  5
10B
102
{ACAD_REACTORS
330
14
102
}
100
AcDbXrecord
  1
LGA
  1
1,2,3,4,R
  1
*
  1
*
 70
     0
  1
*
  1
*
  0
XRECORD
  5
10C
102
{ACAD_REACTORS
330
14
102
}
100
AcDbXrecord
  1
lim
  1
lim*
  1
*
  1
*
 70
     0
  1
*
  1
*
  0
XRECORD
  5
10D
102
{ACAD_REACTORS
330
14
102
}
100
AcDbXrecord
  1
LIMPIO
  1
*|020400,*|169104,*|168116,*|189703,*|168154,*|028112,*|168153,*|168114,*|167458,*|167458,*|145502,*|060370,*|021154,*|160302,*|110308,*|140102,*|160305,*|168123
  1
*
  1
*
 70
     0
  1
*
  1
*
  0
XRECORD
  5
10E
102
{ACAD_REACTORS
330
14
102
}
100
AcDbXrecord
  1
linea fina
  1
*20200
  1
*
  1
*
 70
     0
  1
*
  1
*
  0
XRECORD
  5
10F
102
{ACAD_REACTORS
330
14
102
}
100
AcDbXrecord
  1
LINEA GRUESA
  1
*20400
  1
*
  1
*
 70
     0
  1
*
  1
*
  0
XRECORD
  5
110
102
{ACAD_REACTORS
330
14
102
}
100
AcDbXrecord
  1
LINEAS_REFERENCIA
  1
LINEAS_REF*
  1
*
  1
*
 70
     0
  1
*
  1
*
  0
XRECORD
  5
111
102
{ACAD_REACTORS
330
14
102
}
100
AcDbXrecord
  1
LINES
  1
* LINE
  1
*
  1
*
 70
     0
  1
*
  1
*
  0
XRECORD
  5
112
102
{ACAD_REACTORS
330
14
102
}
100
AcDbXrecord
  1
llums
  1
i-*
  1
*
  1
*
 70
     0
  1
*
  1
*
  0
XRECORD
  5
113
102
{ACAD_REACTORS
330
14
102
}
100
AcDbXrecord
  1
LOCKER
  1
*LOCKER*
  1
*
  1
*
 70
     0
  1
*
  1
*
  0
XRECORD
  5
114
102
{ACAD_REACTORS
330
14
102
}
100
AcDbXrecord
  1
lot
  1
p*lot*
  1
*
  1
*
 70
     0
  1
*
  1
*
  0
XRECORD
  5
115
102
{ACAD_REACTORS
330
14
102
}
100
AcDbXrecord
  1
LUNAR
  1
*
  1
*
  1
*
 70
    48
  1
*
  1
*
  0
XRECORD
  5
116
102
{ACAD_REACTORS
330
14
102
}
100
AcDbXrecord
  1
LUNAR2
  1
*
  1
*
  1
*
 70
    12
  1
*
  1
*
  0
XRECORD
  5
117
102
{ACAD_REACTORS
330
14
102
}
100
AcDbXrecord
  1
lvl
  1
*lvl*
  1
*
  1
*
 70
     0
  1
*
  1
*
  0
XRECORD
  5
118
102
{ACAD_REACTORS
330
14
102
}
100
AcDbXrecord
  1
Magenta
  1
*
  1
6
  1
Hidden
 70
    12
  1
*
  1
*
  0
XRECORD
  5
119
102
{ACAD_REACTORS
330
14
102
}
100
AcDbXrecord
  1
MARCOS
  1
MARCO*
  1
*
  1
*
 70
     0
  1
*
  1
*
  0
XRECORD
  5
11A
102
{ACAD_REACTORS
330
14
102
}
100
AcDbXrecord
  1
MATAS
  1
*matas
  1
*
  1
*
 70
     0
  1
*
  1
*
  0
XRECORD
  5
11B
102
{ACAD_REACTORS
330
14
102
}
100
AcDbXrecord
  1
MATERIALS
  1
M-*
  1
*
  1
*
 70
     0
  1
*
  1
*
  0
XRECORD
  5
11C
102
{ACAD_REACTORS
330
14
102
}
100
AcDbXrecord
  1
Media Tension
  1
Media*
  1
*
  1
*
 70
     0
  1
*
  1
*
  0
XRECORD
  5
11D
102
{ACAD_REACTORS
330
14
102
}
100
AcDbXrecord
  1
MEUS
  1
G-*
  1
*
  1
*
 70
     0
  1
*
  1
*
  0
XRECORD
  5
11E
102
{ACAD_REACTORS
330
14
102
}
100
AcDbXrecord
  1
MEXT
  1
*M_EXT*
  1
*
  1
*
 70
     0
  1
*
  1
*
  0
XRECORD
  5
11F
102
{ACAD_REACTORS
330
14
102
}
100
AcDbXrecord
  1
mezz
  1
*mezz*
  1
*
  1
*
 70
     0
  1
*
  1
*
  0
XRECORD
  5
120
102
{ACAD_REACTORS
330
14
102
}
100
AcDbXrecord
  1
mill
  1
*mill*
  1
*
  1
*
 70
     0
  1
*
  1
*
  0
XRECORD
  5
121
102
{ACAD_REACTORS
330
14
102
}
100
AcDbXrecord
  1
MOBILIARIO
  1
MOB*
  1
*
  1
*
 70
     0
  1
*
  1
*
  0
XRECORD
  5
122
102
{ACAD_REACTORS
330
14
102
}
100
AcDbXrecord
  1
MUEBLEPERIMETRAL
  1
*_MU
  1
*
  1
*
 70
     0
  1
*
  1
*
  0
XRECORD
  5
123
102
{ACAD_REACTORS
330
14
102
}
100
AcDbXrecord
  1
MUEBLES
  1
*MUEBLES
  1
*
  1
*
 70
     0
  1
*
  1
*
  0
XRECORD
  5
124
102
{ACAD_REACTORS
330
14
102
}
100
AcDbXrecord
  1
mz
  1
*mz
  1
*
  1
*
 70
     0
  1
*
  1
*
  0
XRECORD
  5
125
102
{ACAD_REACTORS
330
14
102
}
100
AcDbXrecord
  1
N
  1
n*
  1
*
  1
*
 70
     0
  1
*
  1
*
  0
XRECORD
  5
126
102
{ACAD_REACTORS
330
14
102
}
100
AcDbXrecord
  1
n-clav
  1
*n-clav*
  1
*
  1
*
 70
     0
  1
*
  1
*
  0
XRECORD
  5
127
102
{ACAD_REACTORS
330
14
102
}
100
AcDbXrecord
  1
NAME
  1
*RM*
  1
*
  1
*
 70
     0
  1
*
  1
*
  0
XRECORD
  5
128
102
{ACAD_REACTORS
330
14
102
}
100
AcDbXrecord
  1
neal
  1
neal*|*
  1
*
  1
*
 70
     0
  1
*
  1
*
  0
XRECORD
  5
129
102
{ACAD_REACTORS
330
14
102
}
100
AcDbXrecord
  1
nelf
  1
*nelf*
  1
*
  1
*
 70
     0
  1
*
  1
*
  0
XRECORD
  5
12A
102
{ACAD_REACTORS
330
14
102
}
100
AcDbXrecord
  1
NEW
  1
NEW-*
  1
*
  1
*
 70
     0
  1
*
  1
*
  0
XRECORD
  5
12B
102
{ACAD_REACTORS
330
14
102
}
100
AcDbXrecord
  1
no xref
  1
~*|*
  1
*
  1
*
 70
     0
  1
*
  1
*
  0
XRECORD
  5
12C
102
{ACAD_REACTORS
330
14
102
}
100
AcDbXrecord
  1
NORMAL
  1
*
  1
*
  1
*
 70
     0
  1
*
  1
Normal
  0
XRECORD
  5
12D
102
{ACAD_REACTORS
330
14
102
}
100
AcDbXrecord
  1
NOTE
  1
*NOTE*
  1
*
  1
*
 70
     0
  1
*
  1
*
  0
XRECORD
  5
12E
102
{ACAD_REACTORS
330
14
102
}
100
AcDbXrecord
  1
NUEVA
  1
N-*
  1
*
  1
*
 70
     0
  1
*
  1
*
  0
XRECORD
  5
12F
102
{ACAD_REACTORS
330
14
102
}
100
AcDbXrecord
  1
NUEVA_IMPLANTACIÓN
  1
PBN*
  1
*
  1
*
 70
     0
  1
*
  1
*
  0
XRECORD
  5
130
102
{ACAD_REACTORS
330
14
102
}
100
AcDbXrecord
  1
NUEVAS
  1
N-*
  1
*
  1
*
 70
     0
  1
*
  1
*
  0
XRECORD
  5
131
102
{ACAD_REACTORS
330
14
102
}
100
AcDbXrecord
  1
NUEVOS-SERVICIOS
  1
NEW*
  1
*
  1
*
 70
     0
  1
*
  1
*
  0
XRECORD
  5
132
102
{ACAD_REACTORS
330
14
102
}
100
AcDbXrecord
  1
NUM
  1
0*,1*,2*,3*,4*,5*
  1
*
  1
*
 70
     0
  1
*
  1
*
  0
XRECORD
  5
133
102
{ACAD_REACTORS
330
14
102
}
100
AcDbXrecord
  1
OCULT
  1
*OCULT*
  1
*
  1
*
 70
     0
  1
*
  1
*
  0
XRECORD
  5
134
102
{ACAD_REACTORS
330
14
102
}
100
AcDbXrecord
  1
off
  1
*
  1
*
  1
*
 70
     3
  1
*
  1
*
  0
XRECORD
  5
135
102
{ACAD_REACTORS
330
14
102
}
100
AcDbXrecord
  1
OFICINES
  1
*P1P2P3P4P5*
  1
*
  1
*
 70
     0
  1
*
  1
*
  0
XRECORD
  5
136
102
{ACAD_REACTORS
330
14
102
}
100
AcDbXrecord
  1
oi
  1
*stai*
  1
*
  1
*
 70
     0
  1
*
  1
*
  0
XRECORD
  5
137
102
{ACAD_REACTORS
330
14
102
}
100
AcDbXrecord
  1
on
  1
*
  1
*
  1
*
 70
     1
  1
*
  1
*
  0
XRECORD
  5
138
102
{ACAD_REACTORS
330
14
102
}
100
AcDbXrecord
  1
OU
  1
OU-AREA*,*grid*
  1
*
  1
*
 70
     0
  1
*
  1
*
  0
XRECORD
  5
139
102
{ACAD_REACTORS
330
14
102
}
100
AcDbXrecord
  1
ou-area
  1
ou-area*
  1
*
  1
*
 70
     0
  1
*
  1
*
  0
XRECORD
  5
13A
102
{ACAD_REACTORS
330
14
102
}
100
AcDbXrecord
  1
OUTY
  1
*
  1
*
  1
*
 70
     7
  1
*
  1
*
  0
XRECORD
  5
13B
102
{ACAD_REACTORS
330
14
102
}
100
AcDbXrecord
  1
P
  1
P__*
  1
*
  1
*
 70
     0
  1
*
  1
*
  0
XRECORD
  5
13C
102
{ACAD_REACTORS
330
14
102
}
100
AcDbXrecord
  1
P-1
  1
*P-1
  1
*
  1
*
 70
     0
  1
*
  1
*
  0
XRECORD
  5
13D
102
{ACAD_REACTORS
330
14
102
}
100
AcDbXrecord
  1
p-2
  1
*-2
  1
*
  1
*
 70
     0
  1
*
  1
*
  0
XRECORD
  5
13E
102
{ACAD_REACTORS
330
14
102
}
100
AcDbXrecord
  1
p00
  1
*_p00
  1
*
  1
*
 70
     0
  1
*
  1
*
  0
XRECORD
  5
13F
102
{ACAD_REACTORS
330
14
102
}
100
AcDbXrecord
  1
p01
  1
*_p01
  1
*
  1
*
 70
     0
  1
*
  1
*
  0
XRECORD
  5
140
102
{ACAD_REACTORS
330
14
102
}
100
AcDbXrecord
  1
p02
  1
*_p02
  1
*
  1
*
 70
     0
  1
*
  1
*
  0
XRECORD
  5
141
102
{ACAD_REACTORS
330
14
102
}
100
AcDbXrecord
  1
p03
  1
*_p03
  1
*
  1
*
 70
     0
  1
*
  1
*
  0
XRECORD
  5
142
102
{ACAD_REACTORS
330
14
102
}
100
AcDbXrecord
  1
P05
  1
*P05
  1
*
  1
*
 70
     0
  1
*
  1
*
  0
XRECORD
  5
143
102
{ACAD_REACTORS
330
14
102
}
100
AcDbXrecord
  1
P1
  1
*P1*
  1
*
  1
*
 70
     0
  1
*
  1
*
  0
XRECORD
  5
144
102
{ACAD_REACTORS
330
14
102
}
100
AcDbXrecord
  1
p1401
  1
p14*p01
  1
*
  1
*
 70
     0
  1
*
  1
*
  0
XRECORD
  5
145
102
{ACAD_REACTORS
330
14
102
}
100
AcDbXrecord
  1
p14p-2
  1
p14*p-2
  1
*
  1
*
 70
     0
  1
*
  1
*
  0
XRECORD
  5
146
102
{ACAD_REACTORS
330
14
102
}
100
AcDbXrecord
  1
p14p00
  1
p14*p00
  1
*
  1
*
 70
     0
  1
*
  1
*
  0
XRECORD
  5
147
102
{ACAD_REACTORS
330
14
102
}
100
AcDbXrecord
  1
P2
  1
*P2*
  1
*
  1
*
 70
     0
  1
*
  1
*
  0
XRECORD
  5
148
102
{ACAD_REACTORS
330
14
102
}
100
AcDbXrecord
  1
P3
  1
*P3*
  1
*
  1
*
 70
     0
  1
*
  1
*
  0
XRECORD
  5
149
102
{ACAD_REACTORS
330
14
102
}
100
AcDbXrecord
  1
p4
  1
*p4*
  1
*
  1
*
 70
     0
  1
*
  1
*
  0
XRECORD
  5
14A
102
{ACAD_REACTORS
330
14
102
}
100
AcDbXrecord
  1
P5
  1
P5*
  1
*
  1
*
 70
     0
  1
*
  1
*
  0
XRECORD
  5
14B
102
{ACAD_REACTORS
330
14
102
}
100
AcDbXrecord
  1
Pa
  1
*Pa*
  1
*
  1
*
 70
     0
  1
*
  1
*
  0
XRECORD
  5
14C
102
{ACAD_REACTORS
330
14
102
}
100
AcDbXrecord
  1
Parcela
  1
Parcela*
  1
*
  1
*
 70
     0
  1
*
  1
*
  0
XRECORD
  5
14D
102
{ACAD_REACTORS
330
14
102
}
100
AcDbXrecord
  1
PARKING
  1
PARK*
  1
*
  1
*
 70
     0
  1
*
  1
*
  0
XRECORD
  5
14E
102
{ACAD_REACTORS
330
14
102
}
100
AcDbXrecord
  1
PARTITIONS
  1
*PART
  1
*
  1
*
 70
     0
  1
*
  1
*
  0
XRECORD
  5
14F
102
{ACAD_REACTORS
330
14
102
}
100
AcDbXrecord
  1
pasillo
  1
p*
  1
*
  1
*
 70
     0
  1
*
  1
*
  0
XRECORD
  5
150
102
{ACAD_REACTORS
330
14
102
}
100
AcDbXrecord
  1
patt
  1
*patt*
  1
*
  1
*
 70
     0
  1
*
  1
*
  0
XRECORD
  5
151
102
{ACAD_REACTORS
330
14
102
}
100
AcDbXrecord
  1
PAU
  1
*
  1
*
  1
*
 70
     1
  1
*
  1
*
  0
XRECORD
  5
152
102
{ACAD_REACTORS
330
14
102
}
100
AcDbXrecord
  1
pb
  1
*pb*
  1
*
  1
*
 70
     0
  1
*
  1
*
  0
XRECORD
  5
153
102
{ACAD_REACTORS
330
14
102
}
100
AcDbXrecord
  1
PEPE
  1
0,CARPIN,FACHADA,SOLERIA,SECCION,MOBIL
  1
*
  1
*
 70
     0
  1
*
  1
*
  0
XRECORD
  5
154
102
{ACAD_REACTORS
330
14
102
}
100
AcDbXrecord
  1
PIANOS
  1
*PIANO
  1
*
  1
*
 70
     0
  1
*
  1
*
  0
XRECORD
  5
155
102
{ACAD_REACTORS
330
14
102
}
100
AcDbXrecord
  1
pieza de cristal
  1
k*
  1
*
  1
*
 70
     0
  1
*
  1
*
  0
XRECORD
  5
156
102
{ACAD_REACTORS
330
14
102
}
100
AcDbXrecord
  1
pilares
  1
p*
  1
*
  1
*
 70
     0
  1
*
  1
*
  0
XRECORD
  5
157
102
{ACAD_REACTORS
330
14
102
}
100
AcDbXrecord
  1
PILARESZ2
  1
PIL-Z2*,PICU-Z2*
  1
*
  1
*
 70
     0
  1
*
  1
*
  0
XRECORD
  5
158
102
{ACAD_REACTORS
330
14
102
}
100
AcDbXrecord
  1
pipes
  1
pipe*
  1
*
  1
*
 70
     0
  1
*
  1
*
  0
XRECORD
  5
159
102
{ACAD_REACTORS
330
14
102
}
100
AcDbXrecord
  1
Pipes1
  1
pipes1*
  1
*
  1
*
 70
     0
  1
*
  1
*
  0
XRECORD
  5
15A
102
{ACAD_REACTORS
330
14
102
}
100
AcDbXrecord
  1
PIPING PLAN2
  1
DECKDRAIN FEED,DECKDRAIN,PIPING,SKIMMER,XBASE$0$MAINDRAIN,XBASE$0$RETURN
  1
*
  1
*
 70
     0
  1
*
  1
*
  0
XRECORD
  5
15B
102
{ACAD_REACTORS
330
14
102
}
100
AcDbXrecord
  1
pl
  1
pl*
  1
*
  1
*
 70
     0
  1
*
  1
*
  0
XRECORD
  5
15C
102
{ACAD_REACTORS
330
14
102
}
100
AcDbXrecord
  1
PLAKALAR
  1
PLAKA*
  1
*
  1
*
 70
     0
  1
*
  1
*
  0
XRECORD
  5
15D
102
{ACAD_REACTORS
330
14
102
}
100
AcDbXrecord
  1
PLAN
  1
*
  1
*
  1
*
 70
    12
  1
*
  1
*
  0
XRECORD
  5
15E
102
{ACAD_REACTORS
330
14
102
}
100
AcDbXrecord
  1
PLAN-PARCIAL
  1
PP*
  1
*
  1
*
 70
     0
  1
*
  1
*
  0
XRECORD
  5
15F
102
{ACAD_REACTORS
330
14
102
}
100
AcDbXrecord
  1
Planta baja
  1
Pbn_*
  1
*
  1
*
 70
     0
  1
*
  1
*
  0
XRECORD
  5
160
102
{ACAD_REACTORS
330
14
102
}
100
AcDbXrecord
  1
Planta baja ACT
  1
Pb_*
  1
*
  1
*
 70
     0
  1
*
  1
*
  0
XRECORD
  5
161
102
{ACAD_REACTORS
330
14
102
}
100
AcDbXrecord
  1
Planta Subsuelo
  1
Psn_*
  1
*
  1
*
 70
     0
  1
*
  1
*
  0
XRECORD
  5
162
102
{ACAD_REACTORS
330
14
102
}
100
AcDbXrecord
  1
Planta técnica
  1
Ptn_*
  1
*
  1
*
 70
     0
  1
*
  1
*
  0
XRECORD
  5
163
102
{ACAD_REACTORS
330
14
102
}
100
AcDbXrecord
  1
PLANTAS
  1
Z*
  1
*
  1
*
 70
     0
  1
*
  1
*
  0
XRECORD
  5
164
102
{ACAD_REACTORS
330
14
102
}
100
AcDbXrecord
  1
PLOT
  1
UNIT*COL*
  1
*
  1
*
 70
     0
  1
*
  1
*
  0
XRECORD
  5
165
102
{ACAD_REACTORS
330
14
102
}
100
AcDbXrecord
  1
ploteo
  1
*
  1
*
  1
*
 70
    12
  1
*
  1
*
  0
XRECORD
  5
166
102
{ACAD_REACTORS
330
14
102
}
100
AcDbXrecord
  1
Pluviales
  1
Pluviales*
  1
*
  1
*
 70
     0
  1
*
  1
*
  0
XRECORD
  5
167
102
{ACAD_REACTORS
330
14
102
}
100
AcDbXrecord
  1
POLILINEAS
  1
POL*
  1
*
  1
*
 70
     0
  1
*
  1
*
  0
XRECORD
  5
168
102
{ACAD_REACTORS
330
14
102
}
100
AcDbXrecord
  1
PONT
  1
PONT*
  1
*
  1
*
 70
     0
  1
*
  1
*
  0
XRECORD
  5
169
102
{ACAD_REACTORS
330
14
102
}
100
AcDbXrecord
  1
POOL
  1
A-POOL*
  1
*
  1
*
 70
     0
  1
*
  1
*
  0
XRECORD
  5
16A
102
{ACAD_REACTORS
330
14
102
}
100
AcDbXrecord
  1
Popopo
  1
*
  1
*
  1
*
 70
     0
  1
*
  1
*
  0
XRECORD
  5
16B
102
{ACAD_REACTORS
330
14
102
}
100
AcDbXrecord
  1
Pozos_Agua
  1
Pozos_A*
  1
*
  1
*
 70
     0
  1
*
  1
*
  0
XRECORD
  5
16C
102
{ACAD_REACTORS
330
14
102
}
100
AcDbXrecord
  1
Pozos_Fecales
  1
Pozos_Fe*
  1
*
  1
*
 70
     0
  1
*
  1
*
  0
XRECORD
  5
16D
102
{ACAD_REACTORS
330
14
102
}
100
AcDbXrecord
  1
Pozos_pluviales
  1
Pozos_Pl*
  1
*
  1
*
 70
     0
  1
*
  1
*
  0
XRECORD
  5
16E
102
{ACAD_REACTORS
330
14
102
}
100
AcDbXrecord
  1
Pq
  1
*Pq*
  1
*
  1
*
 70
     0
  1
*
  1
*
  0
XRECORD
  5
16F
102
{ACAD_REACTORS
330
14
102
}
100
AcDbXrecord
  1
PR
  1
X-NIVEL1*
  1
10
  1
*
 70
    13
  1
*
  1
*
  0
XRECORD
  5
170
102
{ACAD_REACTORS
330
14
102
}
100
AcDbXrecord
  1
PROGEST
  1
PRO-*
  1
*
  1
*
 70
     0
  1
*
  1
*
  0
XRECORD
  5
171
102
{ACAD_REACTORS
330
14
102
}
100
AcDbXrecord
  1
PROJ-URBANITZACIO
  1
PU*
  1
*
  1
*
 70
     0
  1
*
  1
*
  0
XRECORD
  5
172
102
{ACAD_REACTORS
330
14
102
}
100
AcDbXrecord
  1
PROYECCCIONES
  1
PROY_*
  1
*
  1
*
 70
     0
  1
*
  1
*
  0
XRECORD
  5
173
102
{ACAD_REACTORS
330
14
102
}
100
AcDbXrecord
  1
PRUEBA
  1
*|020400
  1
*
  1
*
 70
     0
  1
*
  1
*
  0
XRECORD
  5
174
102
{ACAD_REACTORS
330
14
102
}
100
AcDbXrecord
  1
PRUEBA3
  1
*|020400,*|169104
  1
*
  1
*
 70
     0
  1
*
  1
*
  0
XRECORD
  5
175
102
{ACAD_REACTORS
330
14
102
}
100
AcDbXrecord
  1
PUERTAS
  1
PUERTAS
  1
*
  1
*
 70
     0
  1
*
  1
*
  0
XRECORD
  5
176
102
{ACAD_REACTORS
330
14
102
}
100
AcDbXrecord
  1
RAIL
  1
*RAIL*
  1
*
  1
*
 70
     0
  1
*
  1
*
  0
XRECORD
  5
177
102
{ACAD_REACTORS
330
14
102
}
100
AcDbXrecord
  1
RCP
  1
*
  1
*
  1
*
 70
     0
  1
*
  1
*
  0
XRECORD
  5
178
102
{ACAD_REACTORS
330
14
102
}
100
AcDbXrecord
  1
red
  1
*
  1
1
  1
*
 70
    12
  1
*
  1
*
  0
XRECORD
  5
179
102
{ACAD_REACTORS
330
14
102
}
100
AcDbXrecord
  1
REFERENCIA
  1
*_46
  1
*
  1
*
 70
     0
  1
*
  1
*
  0
XRECORD
  5
17A
102
{ACAD_REACTORS
330
14
102
}
100
AcDbXrecord
  1
RELLENO
  1
RELLENO_*
  1
*
  1
*
 70
     0
  1
*
  1
*
  0
XRECORD
  5
17B
102
{ACAD_REACTORS
330
14
102
}
100
AcDbXrecord
  1
RELLENOS
  1
RELL*
  1
*
  1
*
 70
     0
  1
*
  1
*
  0
XRECORD
  5
17C
102
{ACAD_REACTORS
330
14
102
}
100
AcDbXrecord
  1
REPLANTEO
  1
REP*
  1
*
  1
*
 70
     0
  1
*
  1
*
  0
XRECORD
  5
17D
102
{ACAD_REACTORS
330
14
102
}
100
AcDbXrecord
  1
Riego
  1
Riego*
  1
*
  1
*
 70
     0
  1
*
  1
*
  0
XRECORD
  5
17E
102
{ACAD_REACTORS
330
14
102
}
100
AcDbXrecord
  1
RMTAGS
  1
R*
  1
*
  1
*
 70
     0
  1
*
  1
*
  0
XRECORD
  5
17F
102
{ACAD_REACTORS
330
14
102
}
100
AcDbXrecord
  1
room
  1
*room*
  1
*
  1
*
 70
     0
  1
*
  1
*
  0
XRECORD
  5
180
102
{ACAD_REACTORS
330
14
102
}
100
AcDbXrecord
  1
ROTULACION
  1
ROT*
  1
*
  1
*
 70
     0
  1
*
  1
*
  0
XRECORD
  5
181
102
{ACAD_REACTORS
330
14
102
}
100
AcDbXrecord
  1
S
  1
S*
  1
*
  1
*
 70
     0
  1
*
  1
*
  0
XRECORD
  5
182
102
{ACAD_REACTORS
330
14
102
}
100
AcDbXrecord
  1
S1
  1
*S1*
  1
*
  1
*
 70
     0
  1
*
  1
*
  0
XRECORD
  5
183
102
{ACAD_REACTORS
330
14
102
}
100
AcDbXrecord
  1
S2
  1
*S2*
  1
*
  1
*
 70
     0
  1
*
  1
*
  0
XRECORD
  5
184
102
{ACAD_REACTORS
330
14
102
}
100
AcDbXrecord
  1
SAA
  1
*SAA*
  1
*
  1
*
 70
     0
  1
*
  1
*
  0
XRECORD
  5
185
102
{ACAD_REACTORS
330
14
102
}
100
AcDbXrecord
  1
SANEAMIENTO
  1
SAN*
  1
*
  1
*
 70
     0
  1
*
  1
*
  0
XRECORD
  5
186
102
{ACAD_REACTORS
330
14
102
}
100
AcDbXrecord
  1
scale200
  1
*wind*,*clad*,*stone*,*stee*
  1
*
  1
*
 70
     0
  1
*
  1
*
  0
XRECORD
  5
187
102
{ACAD_REACTORS
330
14
102
}
100
AcDbXrecord
  1
se
  1
s*
  1
*
  1
*
 70
     0
  1
*
  1
*
  0
XRECORD
  5
188
102
{ACAD_REACTORS
330
14
102
}
100
AcDbXrecord
  1
SE100
  1
SE-100*
  1
*
  1
*
 70
     0
  1
*
  1
*
  0
XRECORD
  5
189
102
{ACAD_REACTORS
330
14
102
}
100
AcDbXrecord
  1
secc
  1
stran*
  1
*
  1
*
 70
     0
  1
*
  1
*
  0
XRECORD
  5
18A
102
{ACAD_REACTORS
330
14
102
}
100
AcDbXrecord
  1
SECCIO
  1
*s0*
  1
*
  1
*
 70
     0
  1
*
  1
*
  0
XRECORD
  5
18B
102
{ACAD_REACTORS
330
14
102
}
100
AcDbXrecord
  1
SECCION
  1
SEC*
  1
*
  1
*
 70
     0
  1
*
  1
*
  0
XRECORD
  5
18C
102
{ACAD_REACTORS
330
14
102
}
100
AcDbXrecord
  1
segunda
  1
*
  1
*
  1
*
 70
     0
  1
*
  1
*
  0
XRECORD
  5
18D
102
{ACAD_REACTORS
330
14
102
}
100
AcDbXrecord
  1
segundabis
  1
*
  1
*
  1
*
 70
     0
  1
*
  1
*
  0
XRECORD
  5
18E
102
{ACAD_REACTORS
330
14
102
}
100
AcDbXrecord
  1
seny_horit
  1
*|529
  1
*
  1
*
 70
     0
  1
*
  1
*
  0
XRECORD
  5
18F
102
{ACAD_REACTORS
330
14
102
}
100
AcDbXrecord
  1
SERVI
  1
EXIS-*
  1
*
  1
*
 70
     0
  1
*
  1
*
  0
XRECORD
  5
190
102
{ACAD_REACTORS
330
14
102
}
100
AcDbXrecord
  1
SILLAS
  1
*SILLAS
  1
*
  1
*
 70
     0
  1
*
  1
*
  0
XRECORD
  5
191
102
{ACAD_REACTORS
330
14
102
}
100
AcDbXrecord
  1
site
  1
*site*
  1
*
  1
*
 70
     0
  1
*
  1
*
  0
XRECORD
  5
192
102
{ACAD_REACTORS
330
14
102
}
100
AcDbXrecord
  1
SOLADOS
  1
SOL*
  1
*
  1
*
 70
     0
  1
*
  1
*
  0
XRECORD
  5
193
102
{ACAD_REACTORS
330
14
102
}
100
AcDbXrecord
  1
SOLO CAPA
  1
*
  1
*
  1
*
 70
     3
  1
*
  1
*
  0
XRECORD
  5
194
102
{ACAD_REACTORS
330
14
102
}
100
AcDbXrecord
  1
space planning
  1
*sp*
  1
*
  1
*
 70
     0
  1
*
  1
*
  0
XRECORD
  5
195
102
{ACAD_REACTORS
330
14
102
}
100
AcDbXrecord
  1
STR
  1
STR*
  1
*
  1
*
 70
     0
  1
*
  1
*
  0
XRECORD
  5
196
102
{ACAD_REACTORS
330
14
102
}
100
AcDbXrecord
  1
structural
  1
str*
  1
*
  1
*
 70
     0
  1
*
  1
*
  0
XRECORD
  5
197
102
{ACAD_REACTORS
330
14
102
}
100
AcDbXrecord
  1
STRUCTURE
  1
??STR???????*
  1
*
  1
*
 70
     0
  1
*
  1
*
  0
XRECORD
  5
198
102
{ACAD_REACTORS
330
14
102
}
100
AcDbXrecord
  1
SU
  1
*
  1
*
  1
*
 70
     0
  1
*
  1
*
  0
XRECORD
  5
199
102
{ACAD_REACTORS
330
14
102
}
100
AcDbXrecord
  1
SUELO
  1
SUEL*
  1
*
  1
*
 70
     0
  1
*
  1
*
  0
XRECORD
  5
19A
102
{ACAD_REACTORS
330
14
102
}
100
AcDbXrecord
  1
sup01
  1
001_*
  1
*
  1
*
 70
     0
  1
*
  1
*
  0
XRECORD
  5
19B
102
{ACAD_REACTORS
330
14
102
}
100
AcDbXrecord
  1
sup02
  1
002_*
  1
*
  1
*
 70
     0
  1
*
  1
*
  0
XRECORD
  5
19C
102
{ACAD_REACTORS
330
14
102
}
100
AcDbXrecord
  1
sup03
  1
003_*
  1
*
  1
*
 70
     0
  1
*
  1
*
  0
XRECORD
  5
19D
102
{ACAD_REACTORS
330
14
102
}
100
AcDbXrecord
  1
sup04
  1
004_*
  1
*
  1
*
 70
     0
  1
*
  1
*
  0
XRECORD
  5
19E
102
{ACAD_REACTORS
330
14
102
}
100
AcDbXrecord
  1
superficies
  1
sup*
  1
*
  1
*
 70
     0
  1
*
  1
*
  0
XRECORD
  5
19F
102
{ACAD_REACTORS
330
14
102
}
100
AcDbXrecord
  1
T
  1
T*
  1
*
  1
*
 70
     0
  1
*
  1
*
  0
XRECORD
  5
1A0
102
{ACAD_REACTORS
330
14
102
}
100
AcDbXrecord
  1
T_A
  1
T_A*
  1
*
  1
*
 70
     0
  1
*
  1
*
  0
XRECORD
  5
1A1
102
{ACAD_REACTORS
330
14
102
}
100
AcDbXrecord
  1
T_C
  1
T_C*
  1
*
  1
*
 70
     0
  1
*
  1
*
  0
XRECORD
  5
1A2
102
{ACAD_REACTORS
330
14
102
}
100
AcDbXrecord
  1
TAJEAS
  1
TAJEA*
  1
*
  1
*
 70
     0
  1
*
  1
*
  0
XRECORD
  5
1A3
102
{ACAD_REACTORS
330
14
102
}
100
AcDbXrecord
  1
talleres
  1
t*
  1
*
  1
*
 70
     0
  1
*
  1
*
  0
XRECORD
  5
1A4
102
{ACAD_REACTORS
330
14
102
}
100
AcDbXrecord
  1
TAQUIMETRICO
  1
TAQ*
  1
*
  1
*
 70
     0
  1
*
  1
*
  0
XRECORD
  5
1A5
102
{ACAD_REACTORS
330
14
102
}
100
AcDbXrecord
  1
TECHOS
  1
*_T
  1
*
  1
*
 70
     0
  1
*
  1
*
  0
XRECORD
  5
1A6
102
{ACAD_REACTORS
330
14
102
}
100
AcDbXrecord
  1
TELE
  1
TELE*
  1
*
  1
*
 70
     0
  1
*
  1
*
  0
XRECORD
  5
1A7
102
{ACAD_REACTORS
330
14
102
}
100
AcDbXrecord
  1
temp
  1
*
  1
253,252
  1
*
 70
     0
  1
*
  1
*
  0
XRECORD
  5
1A8
102
{ACAD_REACTORS
330
14
102
}
100
AcDbXrecord
  1
TEXT
  1
TEXT*
  1
*
  1
*
 70
     0
  1
*
  1
*
  0
XRECORD
  5
1A9
102
{ACAD_REACTORS
330
14
102
}
100
AcDbXrecord
  1
TEXTO
  1
TE*
  1
*
  1
*
 70
     0
  1
*
  1
*
  0
XRECORD
  5
1AA
102
{ACAD_REACTORS
330
14
102
}
100
AcDbXrecord
  1
Thawed
  1
*
  1
*
  1
*
 70
    12
  1
*
  1
*
  0
XRECORD
  5
1AB
102
{ACAD_REACTORS
330
14
102
}
100
AcDbXrecord
  1
tmp
  1
*tmp*
  1
*
  1
*
 70
     0
  1
*
  1
*
  0
XRECORD
  5
1AC
102
{ACAD_REACTORS
330
14
102
}
100
AcDbXrecord
  1
topo
  1
topo*
  1
*
  1
*
 70
     0
  1
*
  1
*
  0
XRECORD
  5
1AD
102
{ACAD_REACTORS
330
14
102
}
100
AcDbXrecord
  1
TOPOGRAFIA
  1
TOP*
  1
*
  1
*
 70
     0
  1
*
  1
*
  0
XRECORD
  5
1AE
102
{ACAD_REACTORS
330
14
102
}
100
AcDbXrecord
  1
trabajo
  1
*
  1
*
  1
*
 70
     0
  1
*
  1
*
  0
XRECORD
  5
1AF
102
{ACAD_REACTORS
330
14
102
}
100
AcDbXrecord
  1
tram
  1
*tram*
  1
*
  1
*
 70
     0
  1
*
  1
*
  0
XRECORD
  5
1B0
102
{ACAD_REACTORS
330
14
102
}
100
AcDbXrecord
  1
trama
  1
*trama*
  1
*
  1
*
 70
     0
  1
*
  1
*
  0
XRECORD
  5
1B1
102
{ACAD_REACTORS
330
14
102
}
100
AcDbXrecord
  1
TRAMA-FAÇANA
  1
*
  1
*
  1
*
 70
     0
  1
*
  1
*
  0
XRECORD
  5
1B2
102
{ACAD_REACTORS
330
14
102
}
100
AcDbXrecord
  1
tramas
  1
*tramas*
  1
*
  1
*
 70
     0
  1
*
  1
*
  0
XRECORD
  5
1B3
102
{ACAD_REACTORS
330
14
102
}
100
AcDbXrecord
  1
TRAMES
  1
*tra*
  1
*
  1
*
 70
     0
  1
*
  1
*
  0
XRECORD
  5
1B4
102
{ACAD_REACTORS
330
14
102
}
100
AcDbXrecord
  1
TREAD
  1
*TREAD*
  1
*
  1
*
 70
     0
  1
*
  1
*
  0
XRECORD
  5
1B5
102
{ACAD_REACTORS
330
14
102
}
100
AcDbXrecord
  1
TUB
  1
TUB*
  1
*
  1
*
 70
     0
  1
*
  1
*
  0
XRECORD
  5
1B6
102
{ACAD_REACTORS
330
14
102
}
100
AcDbXrecord
  1
uiskas
  1
*
  1
*
  1
*
 70
     1
  1
*
  1
*
  0
XRECORD
  5
1B7
102
{ACAD_REACTORS
330
14
102
}
100
AcDbXrecord
  1
uni
  1
*unit*
  1
*
  1
*
 70
     0
  1
*
  1
*
  0
XRECORD
  5
1B8
102
{ACAD_REACTORS
330
14
102
}
100
AcDbXrecord
  1
URB
  1
*P2*
  1
*
  1
*
 70
     0
  1
*
  1
*
  0
XRECORD
  5
1B9
102
{ACAD_REACTORS
330
14
102
}
100
AcDbXrecord
  1
urban
  1
1*
  1
*
  1
*
 70
     0
  1
*
  1
*
  0
XRECORD
  5
1BA
102
{ACAD_REACTORS
330
14
102
}
100
AcDbXrecord
  1
URBANIZACION
  1
URB*
  1
*
  1
*
 70
     0
  1
*
  1
*
  0
XRECORD
  5
1BB
102
{ACAD_REACTORS
330
14
102
}
100
AcDbXrecord
  1
USOS_MUEBLES
  1
*_UM
  1
*
  1
*
 70
     0
  1
*
  1
*
  0
XRECORD
  5
1BC
102
{ACAD_REACTORS
330
14
102
}
100
AcDbXrecord
  1
Utilizadas
  1
*
  1
*
  1
*
 70
    12
  1
*
  1
*
  0
XRECORD
  5
1BD
102
{ACAD_REACTORS
330
14
102
}
100
AcDbXrecord
  1
VESTUARIOS_ENTRADA
  1
*_VT
  1
*
  1
*
 70
     0
  1
*
  1
*
  0
XRECORD
  5
1BE
102
{ACAD_REACTORS
330
14
102
}
100
AcDbXrecord
  1
vistas
  1
*
  1
*
  1
*
 70
     4
  1
*
  1
*
  0
XRECORD
  5
1BF
102
{ACAD_REACTORS
330
14
102
}
100
AcDbXrecord
  1
VMULT
  1
*VMU*
  1
*
  1
*
 70
     0
  1
*
  1
*
  0
XRECORD
  5
1C0
102
{ACAD_REACTORS
330
14
102
}
100
AcDbXrecord
  1
VP
  1
V*
  1
*
  1
*
 70
     0
  1
*
  1
*
  0
XRECORD
  5
1C1
102
{ACAD_REACTORS
330
14
102
}
100
AcDbXrecord
  1
WALL
  1
*WALL*
  1
*
  1
*
 70
     0
  1
*
  1
*
  0
XRECORD
  5
1C2
102
{ACAD_REACTORS
330
14
102
}
100
AcDbXrecord
  1
WDW
  1
*WDW*
  1
*
  1
*
 70
     0
  1
*
  1
*
  0
XRECORD
  5
1C3
102
{ACAD_REACTORS
330
14
102
}
100
AcDbXrecord
  1
we
  1
*sym*
  1
*
  1
*
 70
     0
  1
*
  1
*
  0
XRECORD
  5
1C4
102
{ACAD_REACTORS
330
14
102
}
100
AcDbXrecord
  1
white
  1
*
  1
7
  1
*
 70
    12
  1
*
  1
*
  0
XRECORD
  5
1C5
102
{ACAD_REACTORS
330
14
102
}
100
AcDbXrecord
  1
window
  1
*wdw*
  1
*
  1
*
 70
     0
  1
*
  1
*
  0
XRECORD
  5
1C6
102
{ACAD_REACTORS
330
14
102
}
100
AcDbXrecord
  1
X
  1
*_*X*
  1
*
  1
*
 70
     0
  1
*
  1
*
  0
XRECORD
  5
1C7
102
{ACAD_REACTORS
330
14
102
}
100
AcDbXrecord
  1
XREF
  1
*X
  1
YELLOW
  1
*
 70
     0
  1
*
  1
*
  0
XRECORD
  5
1C8
102
{ACAD_REACTORS
330
14
102
}
100
AcDbXrecord
  1
YARDIMLAR
  1
*YARDIM
  1
*
  1
*
 70
     0
  1
*
  1
*
  0
XRECORD
  5
1C9
102
{ACAD_REACTORS
330
14
102
}
100
AcDbXrecord
  1
yo
  1
*somb*
  1
*
  1
*
 70
     0
  1
*
  1
*
  0
XRECORD
  5
1CA
102
{ACAD_REACTORS
330
14
102
}
100
AcDbXrecord
  1
yuzeyler
  1
*-yuzey*
  1
*
  1
*
 70
     0
  1
*
  1
*
  0
XRECORD
  5
1CB
102
{ACAD_REACTORS
330
14
102
}
100
AcDbXrecord
  1
YÜZEYLER
  1
*YUZ*
  1
*
  1
*
 70
     0
  1
*
  1
*
  0
XRECORD
  5
1E2
102
{ACAD_REACTORS
330
1E1
102
}
100
AcDbXrecord
102
EXTNAMES
  1
STANDARD
  2
Standard
  0
XRECORD
  5
16
102
{ACAD_REACTORS
330
15
102
}
100
AcDbXrecord
102
EXTNAMES
  1
__
  2
++
  1
-DETALLES
  2
-detalles
  1
00TRF
  2
00trf
  1
04CUBIERTAS
  2
04cubiertas
  1
2_PLAN_ESPECIAL
  2
2_PLAN ESPECIAL
  1
3D
  2
3d
  1
3D_LAYERS
  2
3D LAYERS
  1
_P00
  2
_p00
  1
A-FLOR
  2
A-Flor
  1
A_
  2
a_
  1
AA_FT
  2
AA_ft
  1
AAA
  2
aaa
  1
ACT
  2
act
  1
ACTIVADAS
  2
Activadas
  1
ACTIVAS
  2
activas
  1
AE
  2
ae
  1
AGUA
  2
Agua
  1
ALERO
  2
alero
  1
ALLE-SCHÜCO-LAYER
  2
alle-schüco-layer
  1
ALLE-SICHTBAREN-LAYER
  2
alle-sichtbaren-layer
  1
AMARILLO
  2
amarillo
  1
AN
  2
an
  1
AQ
  2
aq
  1
AQ-
  2
aq-
  1
ARBRES
  2
arbres
  1
AREA
  2
area
  1
ARQUETAS
  2
Arquetas
  1
B1
  2
b1
  1
BARRACONES
  2
barracones
  1
BASE
  2
base
  1
BLOQ
  2
bloq
  1
BLOQUEADA
  2
bloqueada
  1
BLOQUEADAS
  2
bloqueadas
  1
C-
  2
c-
  1
CAPA_0
  2
capa 0
  1
CAPAS_ACTIVADAS
  2
capas activadas
  1
CAPAS_DESACTIVADAS
  2
capas desactivadas
  1
CAPAS_P1
  2
capas p1
  1
CAR
  2
car
  1
CARTOGRAFIA
  2
cartografia
  1
CEL
  2
cel
  1
CEL-RAS
  2
cel-ras
  1
CIAN
  2
cian
  1
CLG
  2
clg
  1
COLOR
  2
Color
  1
COLOR_8
  2
COLOR 8
  1
COLOR_9
  2
color 9
  1
COLOR-8
  2
color-8
  1
COM
  2
com
  1
CONTOURS1
  2
contours1
  1
COTA
  2
Cota
  1
COULEUR
  2
couleur
  1
CURVA
  2
curva
  1
CYCL
  2
cycl
  1
DEL_DIBUJO
  2
Del dibujo
  1
DEMO
  2
demo
  1
DES
  2
des
  1
DETALLE
  2
detalle
  1
DETALLES
  2
detalles
  1
DIMS
  2
dims
  1
DOORS
  2
doors
  1
DRENAGEM
  2
drenagem
  1
EIXOS
  2
eixos
  1
EJE
  2
eje
  1
ELECT
  2
elect
  1
ELLIPSE
  2
ellipse
  1
ENTORN
  2
entorn
  1
ENTRAMADO-FACHADAS
  2
Entramado-Fachadas
  1
EQ
  2
eq
  1
ESCALA_1-50
  2
escala 1-50
  1
ESCALATOR
  2
escalator
  1
ESPAI_VERD
  2
ESPAI VERD
  1
ESTRU00
  2
estru00
  1
ESTRUCTURAS
  2
estructuras
  1
EXTERIOR
  2
exterior
  1
FALL
  2
fall
  1
FANCOIL
  2
fancoil
  1
FECALES
  2
Fecales
  1
FF200M
  2
ff200m
  1
FIRE
  2
fire
  1
FLOOR
  2
Floor
  1
FREEZE
  2
freeze
  1
FROZEN
  2
Frozen
  1
FURN
  2
furn
  1
FUS
  2
fus
  1
GAS
  2
Gas
  1
GEL
  2
gel
  1
GILLTEMP
  2
gilltemp
  1
GREEN
  2
green
  1
GRID
  2
grid
  1
GRIS8
  2
gris8
  1
GRIS9
  2
gris9
  1
GRISES
  2
grises
  1
GRO
  2
gro
  1
H-
  2
h-
  1
HOJAS
  2
hojas
  1
IL
  2
il
  1
ILUM
  2
ilum
  1
IMG
  2
img
  1
INAC
  2
inac
  1
INU
  2
inu
  1
JALONAMIENTO
  2
jalonamiento
  1
K52
  2
k52
  1
LIM
  2
lim
  1
LINEA_FINA
  2
linea fina
  1
LINEA_GRUESA
  2
LINEA GRUESA
  1
LLUMS
  2
llums
  1
LOT
  2
lot
  1
LVL
  2
lvl
  1
MAGENTA
  2
Magenta
  1
MEDIA_TENSION
  2
Media Tension
  1
MEZZ
  2
mezz
  1
MILL
  2
mill
  1
MZ
  2
mz
  1
N-CLAV
  2
n-clav
  1
NEAL
  2
neal
  1
NELF
  2
nelf
  1
NO_XREF
  2
no xref
  1
OFF
  2
off
  1
OI
  2
oi
  1
ON
  2
on
  1
OU-AREA
  2
ou-area
  1
P-2
  2
p-2
  1
P00
  2
p00
  1
P01
  2
p01
  1
P02
  2
p02
  1
P03
  2
p03
  1
P1401
  2
p1401
  1
P14P-2
  2
p14p-2
  1
P14P00
  2
p14p00
  1
P4
  2
p4
  1
PA
  2
Pa
  1
PARCELA
  2
Parcela
  1
PASILLO
  2
pasillo
  1
PATT
  2
patt
  1
PB
  2
pb
  1
PIEZA_DE_CRISTAL
  2
pieza de cristal
  1
PILARES
  2
pilares
  1
PIPES
  2
pipes
  1
PIPES1
  2
Pipes1
  1
PIPING_PLAN2
  2
PIPING PLAN2
  1
PL
  2
pl
  1
PLANTA_BAJA
  2
Planta baja
  1
PLANTA_BAJA_ACT
  2
Planta baja ACT
  1
PLANTA_SUBSUELO
  2
Planta Subsuelo
  1
PLANTA_TÉCNICA
  2
Planta técnica
  1
PLOTEO
  2
ploteo
  1
PLUVIALES
  2
Pluviales
  1
POPOPO
  2
Popopo
  1
POZOS_AGUA
  2
Pozos_Agua
  1
POZOS_FECALES
  2
Pozos_Fecales
  1
POZOS_PLUVIALES
  2
Pozos_pluviales
  1
PQ
  2
Pq
  1
RED
  2
red
  1
RIEGO
  2
Riego
  1
ROOM
  2
room
  1
SCALE200
  2
scale200
  1
SE
  2
se
  1
SECC
  2
secc
  1
SEGUNDA
  2
segunda
  1
SEGUNDABIS
  2
segundabis
  1
SENY_HORIT
  2
seny_horit
  1
SITE
  2
site
  1
SOLO_CAPA
  2
SOLO CAPA
  1
SPACE_PLANNING
  2
space planning
  1
STRUCTURAL
  2
structural
  1
SUP01
  2
sup01
  1
SUP02
  2
sup02
  1
SUP03
  2
sup03
  1
SUP04
  2
sup04
  1
SUPERFICIES
  2
superficies
  1
TALLERES
  2
talleres
  1
TEMP
  2
temp
  1
THAWED
  2
Thawed
  1
TMP
  2
tmp
  1
TOPO
  2
topo
  1
TRABAJO
  2
trabajo
  1
TRAM
  2
tram
  1
TRAMA
  2
trama
  1
TRAMAS
  2
tramas
  1
UISKAS
  2
uiskas
  1
UNI
  2
uni
  1
URBAN
  2
urban
  1
UTILIZADAS
  2
Utilizadas
  1
VISTAS
  2
vistas
  1
WE
  2
we
  1
WHITE
  2
white
  1
WINDOW
  2
window
  1
YO
  2
yo
  1
YUZEYLER
  2
yuzeyler
  0
ENDSEC
  0
EOF
