  0
SECTION
  2
HEADER
  9
$ACADVER
  1
AC1014
  9
$ACADMAINTVER
 70
     0
  9
$DWGCODEPAGE
  3
ANSI_1252
  9
$INSBASE
 10
4158.596744
 20
37.87594
 30
0.0
  9
$EXTMIN
 10
4226.395568
 20
20.18589
 30
-848.031637
  9
$EXTMAX
 10
8028.07013
 20
1965.72122
 30
791.935654
  9
$LIMMIN
 10
0.0
 20
0.0
  9
$LIMMAX
 10
420.0
 20
297.0
  9
$ORTHOMODE
 70
     1
  9
$REGENMODE
 70
     1
  9
$FILLMODE
 70
     1
  9
$QTEXTMODE
 70
     0
  9
$MIRRTEXT
 70
     0
  9
$DRAGMODE
 70
     2
  9
$LTSCALE
 40
10.0
  9
$OSMODE
 70
    33
  9
$ATTMODE
 70
     1
  9
$TEXTSIZE
 40
2.0
  9
$TRACEWID
 40
1.0
  9
$TEXTSTYLE
  7
ROMANS8
  9
$CLAYER
  8
JIH-4X2EVS
  9
$CELTYPE
  6
CONTINUOUS
  9
$CECOLOR
 62
   256
  9
$CELTSCALE
 40
1.0
  9
$DELOBJ
 70
     1
  9
$DISPSILH
 70
     0
  9
$DIMSCALE
 40
1.0
  9
$DIMASZ
 40
0.75
  9
$DIMEXO
 40
5.0
  9
$DIMDLI
 40
6.0
  9
$DIMRND
 40
0.0
  9
$DIMDLE
 40
2.0
  9
$DIMEXE
 40
1.8
  9
$DIMTP
 40
0.0
  9
$DIMTM
 40
0.0
  9
$DIMTXT
 40
2.0
  9
$DIMCEN
 40
1.5
  9
$DIMTSZ
 40
0.0
  9
$DIMTOL
 70
     0
  9
$DIMLIM
 70
     0
  9
$DIMTIH
 70
     0
  9
$DIMTOH
 70
     0
  9
$DIMSE1
 70
     0
  9
$DIMSE2
 70
     0
  9
$DIMTAD
 70
     0
  9
$DIMZIN
 70
     0
  9
$DIMBLK
  1
COTA
  9
$DIMASO
 70
     1
  9
$DIMSHO
 70
     1
  9
$DIMPOST
  1

  9
$DIMAPOST
  1

  9
$DIMALT
 70
     0
  9
$DIMALTD
 70
     2
  9
$DIMALTF
 40
25.4
  9
$DIMLFAC
 40
1.0
  9
$DIMTOFL
 70
     0
  9
$DIMTVP
 40
1.0
  9
$DIMTIX
 70
     1
  9
$DIMSOXD
 70
     0
  9
$DIMSAH
 70
     1
  9
$DIMBLK1
  1
COTA
  9
$DIMBLK2
  1
COTA
  9
$DIMSTYLE
  2
COTA1
  9
$DIMCLRD
 70
     1
  9
$DIMCLRE
 70
     1
  9
$DIMCLRT
 70
     1
  9
$DIMTFAC
 40
1.0
  9
$DIMGAP
 40
0.09
  9
$DIMJUST
 70
     0
  9
$DIMSD1
 70
     0
  9
$DIMSD2
 70
     0
  9
$DIMTOLJ
 70
     1
  9
$DIMTZIN
 70
     0
  9
$DIMALTZ
 70
     0
  9
$DIMALTTZ
 70
     0
  9
$DIMFIT
 70
     5
  9
$DIMUPT
 70
     0
  9
$DIMUNIT
 70
     2
  9
$DIMDEC
 70
     3
  9
$DIMTDEC
 70
     3
  9
$DIMALTU
 70
     2
  9
$DIMALTTD
 70
     2
  9
$DIMTXSTY
  7
ROMANS
  9
$DIMAUNIT
 70
     0
  9
$LUNITS
 70
     2
  9
$LUPREC
 70
     4
  9
$SKETCHINC
 40
1.0
  9
$FILLETRAD
 40
0.0
  9
$AUNITS
 70
     0
  9
$AUPREC
 70
     0
  9
$MENU
  1
.
  9
$ELEVATION
 40
0.0
  9
$PELEVATION
 40
0.0
  9
$THICKNESS
 40
0.0
  9
$LIMCHECK
 70
     0
  9
$BLIPMODE
 70
     0
  9
$CHAMFERA
 40
10.0
  9
$CHAMFERB
 40
10.0
  9
$CHAMFERC
 40
20.0
  9
$CHAMFERD
 40
0.0
  9
$SKPOLY
 70
     0
  9
$TDCREATE
 40
2452655.312412153
  9
$TDUPDATE
 40
2452960.477493449
  9
$TDINDWG
 40
1.4790679398
  9
$TDUSRTIMER
 40
1.4790679398
  9
$USRTIMER
 70
     1
  9
$ANGBASE
 50
0.0
  9
$ANGDIR
 70
     0
  9
$PDMODE
 70
     0
  9
$PDSIZE
 40
0.0
  9
$PLINEWID
 40
0.0
  9
$COORDS
 70
     1
  9
$SPLFRAME
 70
     0
  9
$SPLINETYPE
 70
     6
  9
$SPLINESEGS
 70
     8
  9
$ATTDIA
 70
     0
  9
$ATTREQ
 70
     1
  9
$HANDLING
 70
     1
  9
$HANDSEED
  5
ADF
  9
$SURFTAB1
 70
     6
  9
$SURFTAB2
 70
     6
  9
$SURFTYPE
 70
     6
  9
$SURFU
 70
     6
  9
$SURFV
 70
     6
  9
$UCSNAME
  2

  9
$UCSORG
 10
0.0
 20
0.0
 30
0.0
  9
$UCSXDIR
 10
1.0
 20
0.0
 30
0.0
  9
$UCSYDIR
 10
0.0
 20
1.0
 30
0.0
  9
$PUCSNAME
  2

  9
$PUCSORG
 10
0.0
 20
0.0
 30
0.0
  9
$PUCSXDIR
 10
1.0
 20
0.0
 30
0.0
  9
$PUCSYDIR
 10
0.0
 20
1.0
 30
0.0
  9
$USERI1
 70
     0
  9
$USERI2
 70
     0
  9
$USERI3
 70
     0
  9
$USERI4
 70
     0
  9
$USERI5
 70
     0
  9
$USERR1
 40
1.0
  9
$USERR2
 40
1.0
  9
$USERR3
 40
0.0
  9
$USERR4
 40
0.0
  9
$USERR5
 40
0.0
  9
$WORLDVIEW
 70
     1
  9
$SHADEDGE
 70
     3
  9
$SHADEDIF
 70
    70
  9
$TILEMODE
 70
     1
  9
$MAXACTVP
 70
    48
  9
$PINSBASE
 10
0.0
 20
0.0
 30
0.0
  9
$PLIMCHECK
 70
     0
  9
$PEXTMIN
 10
-39.29145
 20
-556.942407
 30
0.0
  9
$PEXTMAX
 10
1793.776916
 20
677.197447
 30
0.0
  9
$PLIMMIN
 10
0.0
 20
0.0
  9
$PLIMMAX
 10
420.0
 20
297.0
  9
$UNITMODE
 70
     0
  9
$VISRETAIN
 70
     1
  9
$PLINEGEN
 70
     0
  9
$PSLTSCALE
 70
     1
  9
$TREEDEPTH
 70
  3020
  9
$PICKSTYLE
 70
     0
  9
$CMLSTYLE
  2
STANDARD
  9
$CMLJUST
 70
     0
  9
$CMLSCALE
 40
20.0
  9
$PROXYGRAPHICS
 70
     1
  9
$MEASUREMENT
 70
     0
  0
ENDSEC
  0
SECTION
  2
CLASSES
  0
CLASS
  1
LWPOLYLINE
  2
AcDbPolyline
  3
"AutoCAD"
 90
        0
280
     0
281
     1
  0
CLASS
  1
XRECORD
  2
AcDbXrecord
  3
"<Built In>"
 90
        0
280
     0
281
     0
  0
CLASS
  1
HATCH
  2
AcDbHatch
  3
"ACAD_SEDONA"
 90
        0
280
     0
281
     1
  0
CLASS
  1
IDBUFFER
  2
AcDbIdBuffer
  3
"Acad"
 90
        0
280
     0
281
     0
  0
CLASS
  1
IMAGE
  2
AcDbRasterImage
  3
ISM
 90
      127
280
     0
281
     1
  0
CLASS
  1
IMAGEDEF_REACTOR
  2
AcDbRasterImageDefReactor
  3
ISM
 90
        1
280
     0
281
     0
  0
CLASS
  1
IMAGEDEF
  2
AcDbRasterImageDef
  3
ISM
 90
        0
280
     0
281
     0
  0
CLASS
  1
RASTERVARIABLES
  2
AcDbRasterVariables
  3
ISM
 90
        0
280
     0
281
     0
  0
CLASS
  1
DICTIONARYVAR
  2
AcDbDictionaryVar
  3
"AutoCAD"
 90
        0
280
     0
281
     0
  0
CLASS
  1
WIPEOUTVARIABLES
  2
AcDbWipeoutVariables
  3
WIPEOUT
 90
        0
280
     0
281
     0
  0
CLASS
  1
WIPEOUT
  2
AcDbWipeout
  3
WIPEOUT
 90
      127
280
     0
281
     1
  0
ENDSEC
  0
SECTION
  2
TABLES
  0
TABLE
  2
VPORT
  5
12
100
AcDbSymbolTable
 70
     2
  0
VPORT
  5
ADE
100
AcDbSymbolTableRecord
100
AcDbViewportTableRecord
  2
*ACTIVE
 70
     0
 10
0.0
 20
0.0
 11
1.0
 21
1.0
 12
4461.661305
 22
3313.498827
 13
0.0
 23
0.0
 14
10.0
 24
10.0
 15
10.0
 25
10.0
 16
-1.0
 26
-1.0
 36
1.0
 17
0.0
 27
0.0
 37
0.0
 40
4.177542
 41
1.57757
 42
50.0
 43
0.0
 44
0.0
 50
0.0
 51
0.0
 71
     0
 72
 20000
 73
     1
 74
     1
 75
     0
 76
     0
 77
     0
 78
     0
  0
ENDTAB
  0
TABLE
  2
LTYPE
  5
D
100
AcDbSymbolTable
 70
     4
  0
LTYPE
  5
E
100
AcDbSymbolTableRecord
100
AcDbLinetypeTableRecord
  2
BYBLOCK
 70
     0
  3

 72
    65
 73
     0
 40
0.0
  0
LTYPE
  5
F
100
AcDbSymbolTableRecord
100
AcDbLinetypeTableRecord
  2
BYLAYER
 70
     0
  3

 72
    65
 73
     0
 40
0.0
  0
LTYPE
  5
5
100
AcDbSymbolTableRecord
100
AcDbLinetypeTableRecord
  2
CONTINUOUS
 70
     0
  3
Solid line
 72
    65
 73
     0
 40
0.0
  0
LTYPE
  5
D1
100
AcDbSymbolTableRecord
100
AcDbLinetypeTableRecord
  2
RAYITAS2
 70
     0
  3
_ _ _ _ _ _ _ _ _ _ _ _ _ _ _ _ _ _ _ _ _ _ _ _
 72
    65
 73
     2
 40
0.1875
 49
0.125
 74
     0
 49
-0.0625
 74
     0
  0
LTYPE
  5
13D
100
AcDbSymbolTableRecord
100
AcDbLinetypeTableRecord
  2
DASHDOT
 70
     0
  3
Dash dot __ . __ . __ . __ . __ . __ . __ . __
 72
    65
 73
     4
 40
1.0
 49
0.5
 74
     0
 49
-0.25
 74
     0
 49
0.0
 74
     0
 49
-0.25
 74
     0
  0
LTYPE
  5
18D
100
AcDbSymbolTableRecord
100
AcDbLinetypeTableRecord
  2
RAYITAS
 70
     0
  3
__ __ __ __ __ __ __ __ __ __ __ __ __ __ __ __
 72
    65
 73
     2
 40
0.375
 49
0.25
 74
     0
 49
-0.125
 74
     0
  0
ENDTAB
  0
TABLE
  2
LAYER
  5
A
100
AcDbSymbolTable
 70
    29
  0
LAYER
  5
4
100
AcDbSymbolTableRecord
100
AcDbLayerTableRecord
  2
0
 70
     0
 62
     7
  6
CONTINUOUS
  0
LAYER
  5
CA
100
AcDbSymbolTableRecord
100
AcDbLayerTableRecord
  2
L-ROJA
 70
     0
 62
     1
  6
CONTINUOUS
  0
LAYER
  5
CD
100
AcDbSymbolTableRecord
100
AcDbLayerTableRecord
  2
T-MAGENTA
 70
     0
 62
     6
  6
CONTINUOUS
  0
LAYER
  5
142
100
AcDbSymbolTableRecord
100
AcDbLayerTableRecord
  2
_AA_TEXTOS
 70
     0
 62
  -240
  6
CONTINUOUS
  0
LAYER
  5
13C
100
AcDbSymbolTableRecord
100
AcDbLayerTableRecord
  2
_AA_EJES
 70
     0
 62
    -1
  6
CONTINUOUS
  0
LAYER
  5
18C
100
AcDbSymbolTableRecord
100
AcDbLayerTableRecord
  2
_AA_ESTRUCTURA_HR
 70
     0
 62
    -1
  6
CONTINUOUS
  0
LAYER
  5
477
100
AcDbSymbolTableRecord
100
AcDbLayerTableRecord
  2
_AA_PIEDRA
 70
     0
 62
     1
  6
CONTINUOUS
  0
LAYER
  5
486
100
AcDbSymbolTableRecord
100
AcDbLayerTableRecord
  2
_AA_PERFIL_AC
 70
     0
 62
     1
  6
CONTINUOUS
  0
LAYER
  5
60
100
AcDbSymbolTableRecord
100
AcDbLayerTableRecord
  2
BASE
 70
     0
 62
    -1
  6
CONTINUOUS
  0
LAYER
  5
1B
100
AcDbSymbolTableRecord
100
AcDbLayerTableRecord
  2
TRAMAS
 70
     0
 62
    -8
  6
CONTINUOUS
  0
LAYER
  5
63
100
AcDbSymbolTableRecord
100
AcDbLayerTableRecord
  2
TEXTOS
 70
     0
 62
    -1
  6
CONTINUOUS
  0
LAYER
  5
470
100
AcDbSymbolTableRecord
100
AcDbLayerTableRecord
  2
FAC-E-P-8_-_VISIBLE
 70
     0
 62
   253
  6
CONTINUOUS
  0
LAYER
  5
46E
100
AcDbSymbolTableRecord
100
AcDbLayerTableRecord
  2
FAC-E-P-2_-_VISIBLE
 70
     0
 62
     1
  6
CONTINUOUS
  0
LAYER
  5
85C
100
AcDbSymbolTableRecord
100
AcDbLayerTableRecord
  2
__EJES1
 70
     0
 62
     7
  6
CONTINUOUS
  0
LAYER
  5
8D8
100
AcDbSymbolTableRecord
100
AcDbLayerTableRecord
  2
__EJES
 70
     0
 62
     7
  6
CONTINUOUS
  0
LAYER
  5
8D9
100
AcDbSymbolTableRecord
100
AcDbLayerTableRecord
  2
CC
 70
     0
 62
     7
  6
CONTINUOUS
  0
LAYER
  5
8DA
100
AcDbSymbolTableRecord
100
AcDbLayerTableRecord
  2
JIH-VB
 70
     0
 62
     1
  6
CONTINUOUS
  0
LAYER
  5
8DB
100
AcDbSymbolTableRecord
100
AcDbLayerTableRecord
  2
JIH-VB-AUX
 70
     0
 62
    30
  6
CONTINUOUS
  0
LAYER
  5
8DC
100
AcDbSymbolTableRecord
100
AcDbLayerTableRecord
  2
JIH-4X2EH
 70
     0
 62
     2
  6
CONTINUOUS
  0
LAYER
  5
8DD
100
AcDbSymbolTableRecord
100
AcDbLayerTableRecord
  2
JIH-4X2EV
 70
     0
 62
     2
  6
CONTINUOUS
  0
LAYER
  5
8DE
100
AcDbSymbolTableRecord
100
AcDbLayerTableRecord
  2
JIH-PRE
 70
     0
 62
     4
  6
CONTINUOUS
  0
LAYER
  5
8DF
100
AcDbSymbolTableRecord
100
AcDbLayerTableRecord
  2
JIH-PILARES
 70
     0
 62
     3
  6
CONTINUOUS
  0
LAYER
  5
8E0
100
AcDbSymbolTableRecord
100
AcDbLayerTableRecord
  2
JIH-250V
 70
     0
 62
   241
  6
CONTINUOUS
  0
LAYER
  5
8E1
100
AcDbSymbolTableRecord
100
AcDbLayerTableRecord
  2
JIH-250H
 70
     0
 62
     6
  6
CONTINUOUS
  0
LAYER
  5
8E2
100
AcDbSymbolTableRecord
100
AcDbLayerTableRecord
  2
JIH-250T
 70
     0
 62
   211
  6
CONTINUOUS
  0
LAYER
  5
8E3
100
AcDbSymbolTableRecord
100
AcDbLayerTableRecord
  2
JIH-250VE
 70
     0
 62
   241
  6
CONTINUOUS
  0
LAYER
  5
8E4
100
AcDbSymbolTableRecord
100
AcDbLayerTableRecord
  2
JIH-250HE
 70
     0
 62
     6
  6
CONTINUOUS
  0
LAYER
  5
AB8
100
AcDbSymbolTableRecord
100
AcDbLayerTableRecord
  2
JIH-4X4EH
 70
     0
 62
     2
  6
CONTINUOUS
  0
LAYER
  5
AD5
100
AcDbSymbolTableRecord
100
AcDbLayerTableRecord
  2
JIH-4X2EVS
 70
     0
 62
     1
  6
CONTINUOUS
  0
ENDTAB
  0
TABLE
  2
STYLE
  5
B
100
AcDbSymbolTable
 70
     5
  0
STYLE
  5
C
100
AcDbSymbolTableRecord
100
AcDbTextStyleTableRecord
  2
STANDARD
 70
     0
 40
0.0
 41
1.0
 50
0.0
 71
     0
 42
2.5
  3
txt
  4

  0
STYLE
  5
1C
100
AcDbSymbolTableRecord
100
AcDbTextStyleTableRecord
  2
ROMANS
 70
     0
 40
2.0
 41
1.0
 50
0.0
 71
     0
 42
2.0
  3
ROMANS.shx
  4

  0
STYLE
  5
1D
100
AcDbSymbolTableRecord
100
AcDbTextStyleTableRecord
  2
ROMANS8
 70
     0
 40
0.0
 41
1.0
 50
0.0
 71
     0
 42
0.25
  3
romans.shx
  4

  0
STYLE
  5
29
100
AcDbSymbolTableRecord
100
AcDbTextStyleTableRecord
  2
TITLE
 70
     0
 40
0.15
 41
1.0
 50
0.0
 71
     0
 42
0.15
  3

  4

1001
ACAD
1000
Arial
1071
       34
  0
STYLE
  5
34
100
AcDbSymbolTableRecord
100
AcDbTextStyleTableRecord
  2
DOOR
 70
     0
 40
1.0
 41
1.0
 50
0.0
 71
     0
 42
1.0
  3

  4

1001
ACAD
1000
Arial
1071
       34
  0
ENDTAB
  0
TABLE
  2
VIEW
  5
10
100
AcDbSymbolTable
 70
     0
  0
ENDTAB
  0
TABLE
  2
UCS
  5
11
100
AcDbSymbolTable
 70
     0
  0
ENDTAB
  0
TABLE
  2
APPID
  5
14
100
AcDbSymbolTable
 70
     3
  0
APPID
  5
15
100
AcDbSymbolTableRecord
100
AcDbRegAppTableRecord
  2
ACAD
 70
     0
  0
APPID
  5
5D
100
AcDbSymbolTableRecord
100
AcDbRegAppTableRecord
  2
CONTENTBLOCKICON
 70
     0
  0
APPID
  5
720
100
AcDbSymbolTableRecord
100
AcDbRegAppTableRecord
  2
RAK
 70
     0
  0
ENDTAB
  0
TABLE
  2
DIMSTYLE
  5
16
100
AcDbSymbolTable
 70
     2
  0
DIMSTYLE
105
1F
100
AcDbSymbolTableRecord
100
AcDbDimStyleTableRecord
  2
COTA1
 70
     0
  3

  4

  5
COTA
  6
COTA
  7
COTA
 40
1.0
 41
0.75
 42
5.0
 43
6.0
 44
1.8
 45
0.0
 46
2.0
 47
0.0
 48
0.0
140
2.0
141
1.5
142
0.0
143
25.4
144
1.0
145
1.0
146
1.0
147
0.09
 71
     0
 72
     0
 73
     0
 74
     0
 75
     0
 76
     0
 77
     0
 78
     0
170
     0
171
     2
172
     0
173
     1
174
     1
175
     0
176
     1
177
     1
178
     1
270
     2
271
     3
272
     3
273
     2
274
     2
340
1C
275
     0
280
     0
281
     0
282
     0
283
     1
284
     0
285
     0
286
     0
287
     5
288
     0
  0
DIMSTYLE
105
8E5
102
{ACAD_XDICTIONARY
360
8E6
102
}
100
AcDbSymbolTableRecord
100
AcDbDimStyleTableRecord
  2
STANDARD
 70
     0
  3

  4

  5

  6

  7

 40
1.0
 41
0.18
 42
0.0625
 43
0.38
 44
0.18
 45
0.0
 46
0.0
 47
0.0
 48
0.0
140
0.18
141
0.09
142
0.0
143
25.4
144
1.0
145
0.0
146
1.0
147
0.09
 71
     0
 72
     0
 73
     1
 74
     1
 75
     0
 76
     0
 77
     0
 78
     0
170
     0
171
     2
172
     0
173
     0
174
     0
175
     0
176
     0
177
     0
178
     0
270
     2
271
     4
272
     4
273
     2
274
     2
340
C
275
     0
280
     0
281
     0
282
     0
283
     1
284
     0
285
     0
286
     0
287
     0
288
     0
  0
ENDTAB
  0
TABLE
  2
BLOCK_RECORD
  5
1
100
AcDbSymbolTable
 70
    10
  0
BLOCK_RECORD
  5
2
100
AcDbSymbolTableRecord
100
AcDbBlockTableRecord
  2
*MODEL_SPACE
  0
BLOCK_RECORD
  5
7
100
AcDbSymbolTableRecord
100
AcDbBlockTableRecord
  2
*PAPER_SPACE
  0
BLOCK_RECORD
  5
20
100
AcDbSymbolTableRecord
100
AcDbBlockTableRecord
  2
COTA
  0
BLOCK_RECORD
  5
E9
100
AcDbSymbolTableRecord
100
AcDbBlockTableRecord
  2
SIMB7
  0
BLOCK_RECORD
  5
42
100
AcDbSymbolTableRecord
100
AcDbBlockTableRecord
  2
TXT_CAJETIN
1001
CONTENTBLOCKICON
1071
        0
1004
2800000020000000200000000100080000000000000400000000000000000000000000000000000000000000000080000080000000808000800000008000800080800000C0C0C000C0DCC000F0CAA6000020400000206000002080000020A0000020C0000020E00000400000004020000040400000406000004080000040A0
1004
000040C0000040E00000600000006020000060400000606000006080000060A0000060C0000060E00000800000008020000080400000806000008080000080A0000080C0000080E00000A0000000A0200000A0400000A0600000A0800000A0A00000A0C00000A0E00000C0000000C0200000C0400000C0600000C0800000C0
1004
A00000C0C00000C0E00000E0000000E0200000E0400000E0600000E0800000E0A00000E0C00000E0E00040000000400020004000400040006000400080004000A0004000C0004000E00040200000402020004020400040206000402080004020A0004020C0004020E000404000004040200040404000404060004040800040
1004
40A0004040C0004040E00040600000406020004060400040606000406080004060A0004060C0004060E00040800000408020004080400040806000408080004080A0004080C0004080E00040A0000040A0200040A0400040A0600040A0800040A0A00040A0C00040A0E00040C0000040C0200040C0400040C0600040C08000
1004
40C0A00040C0C00040C0E00040E0000040E0200040E0400040E0600040E0800040E0A00040E0C00040E0E00080000000800020008000400080006000800080008000A0008000C0008000E00080200000802020008020400080206000802080008020A0008020C0008020E00080400000804020008040400080406000804080
1004
008040A0008040C0008040E00080600000806020008060400080606000806080008060A0008060C0008060E00080800000808020008080400080806000808080008080A0008080C0008080E00080A0000080A0200080A0400080A0600080A0800080A0A00080A0C00080A0E00080C0000080C0200080C0400080C0600080C0
1004
800080C0A00080C0C00080C0E00080E0000080E0200080E0400080E0600080E0800080E0A00080E0C00080E0E000C0000000C0002000C0004000C0006000C0008000C000A000C000C000C000E000C0200000C0202000C0204000C0206000C0208000C020A000C020C000C020E000C0400000C0402000C0404000C0406000C0
1004
408000C040A000C040C000C040E000C0600000C0602000C0604000C0606000C0608000C060A000C060C000C060E000C0800000C0802000C0804000C0806000C0808000C080A000C080C000C080E000C0A00000C0A02000C0A04000C0A06000C0A08000C0A0A000C0A0C000C0A0E000C0C00000C0C02000C0C04000C0C06000
1004
C0C08000C0C0A000F0FBFF00A4A0A000808080000000FF0000FF000000FFFF00FF000000FF00FF00FFFF0000FFFFFF000000000000000000000000000000000000000000000000000000000000000000000000000000000000000000FFFFFFFFFFFFFFFF000000000000000000000000000000000000000000000000FFFFFF
1004
FFFFFFFFFF000000000000000000000000000000000000000000000000FFFFFFFFFFFFFFFF0000000000000000000000000000000000000000000000000000FFFF00FFFFFF00000000000000000000000000000000000000000000FFFFFFFFFFFFFFFFFFFFFFFFFF00000000000000000000000000000000000000FFFFFFFF
1004
FFFFFFFFFFFFFFFF000000000000000000000000000000000000000000000000FFFFFFFF00000000000000000000000000000000000000000000000000000000FFFFFFFF00000000000000000000000000000000000000000000000000000000FFFFFF00000000000000000000000000000000000000000000000000000000
1004
00FFFF000000000000000000000000000000000000000000000000000000000000FFFFFFFF00000000000000000000000000000000000000000000000000000000FFFFFFFF00000000000000000000000000000000000000000000000000000000FFFFFFFF0000000000000000000000000000000000000000000000000000
1004
00000000000000000000000000000000000000000000000000000000000000000000000000000000000000000000000000000000000000000000000000000000000000000000000000000000000000000000000000000000000000000000000000000000000000000000000000000000000000000000000000000000000000
1004
00000000000000000000000000000000000000000000000000000000000000000000000000000000000000000000000000000000000000000000000000000000000000000000000000000000000000000000000000000000000000000000000000000000000000000000000000000000000000000000000000000000000000
1004
0000FFFFFFFFFFFFFFFF000000000000000000000000000000000000000000000000FFFFFFFFFFFFFFFF00000000000000000000000000000000000000000000000000000000000000000000000000000000000000000000000000000000000000000000000000000000000000000000000000000000000000000000000000
1004
000000000000000000000000000000000000000000000000000000000000000000000000000000000000000000000000000000000000000000000000000000000000000000000000000000000000000000000000000000000000000000000000000000FFFFFFFFFFFFFFFF0000000000000000000000000000000000000000
1004
00000000FFFFFFFFFFFFFFFF0000000000000000000000000000000000000000000000000000000000000000000000000000000000000000
  0
BLOCK_RECORD
  5
733
100
AcDbSymbolTableRecord
100
AcDbBlockTableRecord
  2
A$C6F530FAD
  0
BLOCK_RECORD
  5
737
100
AcDbSymbolTableRecord
100
AcDbBlockTableRecord
  2
A$C072073E7
  0
BLOCK_RECORD
  5
83A
100
AcDbSymbolTableRecord
100
AcDbBlockTableRecord
  2
A$C6C3D747B
  0
BLOCK_RECORD
  5
8C2
100
AcDbSymbolTableRecord
100
AcDbBlockTableRecord
  2
111111
  0
BLOCK_RECORD
  5
8CA
100
AcDbSymbolTableRecord
100
AcDbBlockTableRecord
  2
110000
  0
BLOCK_RECORD
  5
8D3
100
AcDbSymbolTableRecord
100
AcDbBlockTableRecord
  2
110X00
  0
BLOCK_RECORD
  5
8E8
100
AcDbSymbolTableRecord
100
AcDbBlockTableRecord
  2
FE1
  0
ENDTAB
  0
ENDSEC
  0
SECTION
  2
BLOCKS
  0
BLOCK
  5
3
100
AcDbEntity
  8
0
100
AcDbBlockBegin
  2
*MODEL_SPACE
 70
     0
 10
0.0
 20
0.0
 30
0.0
  3
*MODEL_SPACE
  1

  0
ENDBLK
  5
6
100
AcDbEntity
  8
0
100
AcDbBlockEnd
  0
BLOCK
  5
8
100
AcDbEntity
 67
     1
  8
0
100
AcDbBlockBegin
  2
*PAPER_SPACE
 70
     0
 10
0.0
 20
0.0
 30
0.0
  3
*PAPER_SPACE
  1

  0
ENDBLK
  5
9
100
AcDbEntity
 67
     1
  8
0
100
AcDbBlockEnd
  0
BLOCK
  5
25
100
AcDbEntity
  8
0
100
AcDbBlockBegin
  2
COTA
 70
     0
 10
0.0
 20
0.0
 30
0.0
  3
COTA
  1

  0
LINE
  5
21
100
AcDbEntity
  8
0
  6
CONTINUOUS
 62
     6
100
AcDbLine
 10
-0.707107
 20
-0.707107
 30
0.0
 11
0.0
 21
0.0
 31
0.0
  0
LINE
  5
22
100
AcDbEntity
  8
0
  6
CONTINUOUS
 62
     1
100
AcDbLine
 10
-1.0
 20
0.0
 30
0.0
 11
0.0
 21
0.0
 31
0.0
  0
LINE
  5
23
100
AcDbEntity
  8
0
  6
CONTINUOUS
 62
     6
100
AcDbLine
 10
0.0
 20
0.0
 30
0.0
 11
0.707107
 21
0.707107
 31
0.0
  0
LINE
  5
24
100
AcDbEntity
  8
0
  6
CONTINUOUS
 62
     1
100
AcDbLine
 10
0.0
 20
0.0
 30
0.0
 11
1.5
 21
0.0
 31
0.0
  0
ENDBLK
  5
26
100
AcDbEntity
  8
0
100
AcDbBlockEnd
  0
BLOCK
  5
EF
100
AcDbEntity
  8
0
100
AcDbBlockBegin
  2
SIMB7
 70
     0
 10
0.0
 20
0.0
 30
0.0
  3
SIMB7
  1

  0
LINE
  5
EA
100
AcDbEntity
  8
0
  6
CONTINUOUS
 62
     1
100
AcDbLine
 10
7.192294
 20
0.924556
 30
0.0
 11
19.119328
 21
-0.879235
 31
0.0
  0
LINE
  5
EB
100
AcDbEntity
  8
0
  6
CONTINUOUS
 62
     1
100
AcDbLine
 10
18.0
 20
0.0
 30
0.0
 11
28.0
 21
0.0
 31
0.0
  0
LINE
  5
EC
100
AcDbEntity
  8
0
  6
CONTINUOUS
 62
     1
100
AcDbLine
 10
18.0
 20
0.0
 30
0.0
 11
18.0
 21
-1.5
 31
0.0
  0
LINE
  5
ED
100
AcDbEntity
  8
0
  6
CONTINUOUS
 62
     1
100
AcDbLine
 10
8.0
 20
0.0
 30
0.0
 11
8.0
 21
1.5
 31
0.0
  0
LINE
  5
EE
100
AcDbEntity
  8
0
  6
CONTINUOUS
 62
     1
100
AcDbLine
 10
-2.0
 20
0.0
 30
0.0
 11
8.0
 21
0.0
 31
0.0
  0
ENDBLK
  5
F0
100
AcDbEntity
  8
0
100
AcDbBlockEnd
  0
BLOCK
  5
5B
100
AcDbEntity
  8
0
100
AcDbBlockBegin
  2
TXT_CAJETIN
 70
     2
 10
0.0
 20
0.0
 30
0.0
  3
TXT_CAJETIN
  1

  0
ATTDEF
  5
43
100
AcDbEntity
  8
0
100
AcDbText
 10
775.000767
 20
240.972655
 30
0.0
 40
7.0
  1
HEMEROTECA DE GALICIA
 41
0.475587
  7
TITLE
 72
     5
 11
835.21993
 21
240.972655
 31
0.0
100
AcDbAttributeDefinition
  3
TIPO DE EDIFICIO 1
  2
TIPO_DE_EDIFICIO1
 70
     0
  0
ATTDEF
  5
44
100
AcDbEntity
  8
0
100
AcDbText
 10
775.243497
 20
183.516236
 30
0.0
 40
7.0
  1
PROYECTO DE EJECUCION
 41
0.461245
  7
TITLE
 72
     5
 11
835.584732
 21
183.516236
 31
0.0
100
AcDbAttributeDefinition
  3
PROYECTO DE EJECUCION (LINEA 1)
  2
PROYECTO_DE_EJECUCION
 70
     0
  0
ATTDEF
  5
45
100
AcDbEntity
  8
0
100
AcDbText
 10
805.365904
 20
104.236525
 30
0.0
 40
3.0
  1

  7
TITLE
 72
     1
 11
805.365904
 21
104.236525
 31
0.0
100
AcDbAttributeDefinition
  3
TITULO DEL PLANO (LINEA 1)
  2
TITULO_PLANO1
 70
     0
  0
ATTDEF
  5
46
100
AcDbEntity
  8
0
100
AcDbText
 10
805.365904
 20
98.275565
 30
0.0
 40
3.0
  1

  7
TITLE
 72
     1
 11
805.365904
 21
98.275565
 31
0.0
100
AcDbAttributeDefinition
  3
TITULO DEL PLANO (LINEA 2)
  2
TITULO_PLANO2
 70
     0
  0
ATTDEF
  5
47
100
AcDbEntity
  8
0
100
AcDbText
 10
805.365904
 20
92.314605
 30
0.0
 40
3.0
  1

  7
TITLE
 72
     1
 11
805.365904
 21
92.314605
 31
0.0
100
AcDbAttributeDefinition
  3
TITULO DEL PLANO (LINEA 3)
  2
TITULO_PLANO3
 70
     0
  0
ATTDEF
  5
48
100
AcDbEntity
  8
0
100
AcDbText
 10
805.365904
 20
86.353645
 30
0.0
 40
3.0
  1

  7
TITLE
 72
     1
 11
805.365904
 21
86.353645
 31
0.0
100
AcDbAttributeDefinition
  3
TITULO DEL PLANO (LINEA 4)
  2
TITULO_PLANO4
 70
     0
  0
ATTDEF
  5
49
100
AcDbEntity
  8
0
  6
CONTINUOUS
 48
0.25
100
AcDbText
 10
794.814274
 20
76.432233
 30
0.0
 40
2.0
  1
Marzo 2003
  7
TITLE
100
AcDbAttributeDefinition
  3
fecha
  2
FECHA
 70
     0
  0
ATTDEF
  5
4A
100
AcDbEntity
  8
0
  6
CONTINUOUS
 48
0.25
100
AcDbText
 10
794.814274
 20
70.40193
 30
0.0
 40
2.0
  1

  7
TITLE
100
AcDbAttributeDefinition
  3
escala
  2
ESCALA
 70
     0
  0
ATTDEF
  5
4B
100
AcDbEntity
  8
0
  6
CONTINUOUS
 48
0.25
100
AcDbText
 10
794.814274
 20
58.341324
 30
0.0
 40
2.0
  1

  7
TITLE
100
AcDbAttributeDefinition
  3
dibujado por
  2
DIBUJADO_POR
 70
     0
  0
ATTDEF
  5
4C
100
AcDbEntity
  8
0
  6
CONTINUOUS
 48
0.25
100
AcDbText
 10
794.814274
 20
52.311021
 30
0.0
 40
2.0
  1

  7
TITLE
100
AcDbAttributeDefinition
  3
revisado por
  2
REVISADO_POR
 70
     0
  0
ATTDEF
  5
4D
100
AcDbEntity
  8
0
100
AcDbText
 10
785.485153
 20
30.727713
 30
0.0
 40
9.0
  1
Aa-001
  7
DOOR
 72
     4
 11
805.379082
 21
35.169391
 31
0.0
100
AcDbAttributeDefinition
  3
plano numero
  2
PLANO_NUMERO
 70
     0
  0
ATTDEF
  5
4E
100
AcDbEntity
  8
0
100
AcDbText
 10
775.667079
 20
13.910618
 30
0.0
 40
1.763865
  1

  7
TITLE
100
AcDbAttributeDefinition
  3
version1
  2
VERSION1
 70
     0
  0
ATTDEF
  5
4F
100
AcDbEntity
  8
0
100
AcDbText
 10
787.701394
 20
13.89605
 30
0.0
 40
1.763865
  1

  7
TITLE
100
AcDbAttributeDefinition
  3
fecha 1
  2
FECHA_1
 70
     0
  0
ATTDEF
  5
50
100
AcDbEntity
  8
0
100
AcDbText
 10
799.712477
 20
13.885392
 30
0.0
 40
1.763865
  1

  7
TITLE
100
AcDbAttributeDefinition
  3
nombre_primera_revision
  2
NOMBRE_PRIMERA_REVISION
 70
     0
  0
ATTDEF
  5
51
100
AcDbEntity
  8
0
100
AcDbText
 10
775.667079
 20
10.895465
 30
0.0
 40
1.763865
  1

  7
TITLE
100
AcDbAttributeDefinition
  3
version2
  2
VERSION2
 70
     0
  0
ATTDEF
  5
52
100
AcDbEntity
  8
0
100
AcDbText
 10
787.701392
 20
10.880899
 30
0.0
 40
1.763865
  1

  7
TITLE
100
AcDbAttributeDefinition
  3
fecha 2
  2
FECHA_2
 70
     0
  0
ATTDEF
  5
53
100
AcDbEntity
  8
0
100
AcDbText
 10
799.731657
 20
10.881556
 30
0.0
 40
1.763865
  1

  7
TITLE
100
AcDbAttributeDefinition
  3
nombre_segunda_revision
  2
NOMBRE_SEGUNDA_REVISION
 70
     0
  0
ATTDEF
  5
54
100
AcDbEntity
  8
0
100
AcDbText
 10
775.667079
 20
7.880314
 30
0.0
 40
1.763865
  1

  7
TITLE
100
AcDbAttributeDefinition
  3
version3
  2
VERSION3
 70
     0
  0
ATTDEF
  5
55
100
AcDbEntity
  8
0
100
AcDbText
 10
787.701392
 20
7.865746
 30
0.0
 40
1.763865
  1

  7
TITLE
100
AcDbAttributeDefinition
  3
fecha 3
  2
FECHA_3
 70
     0
  0
ATTDEF
  5
56
100
AcDbEntity
  8
0
100
AcDbText
 10
799.723426
 20
7.861549
 30
0.0
 40
1.763865
  1

  7
TITLE
100
AcDbAttributeDefinition
  3
nombre_tercera_revision
  2
NOMBRE_TERCERA_REVISION
 70
     0
  0
ATTDEF
  5
57
100
AcDbEntity
  8
0
100
AcDbText
 10
775.667079
 20
4.865164
 30
0.0
 40
1.763865
  1

  7
TITLE
100
AcDbAttributeDefinition
  3
version4
  2
VERSION4
 70
     0
  0
ATTDEF
  5
58
100
AcDbEntity
  8
0
100
AcDbText
 10
787.701392
 20
4.850595
 30
0.0
 40
1.763865
  1

  7
TITLE
100
AcDbAttributeDefinition
  3
fecha 4
  2
FECHA_4
 70
     0
  0
ATTDEF
  5
59
100
AcDbEntity
  8
0
100
AcDbText
 10
799.693275
 20
4.828606
 30
0.0
 40
1.763865
  1

  7
TITLE
100
AcDbAttributeDefinition
  3
nombre_cuarta_revision
  2
NOMBRE_CUARTA_REVISION
 70
     0
  0
ATTDEF
  5
5A
100
AcDbEntity
  8
0
100
AcDbText
 10
814.357589
 20
23.087191
 30
0.0
 40
1.763865
  1
957.96-EC-P-nn-00
  7
TITLE
 72
     2
 11
835.606994
 21
23.087191
 31
0.0
100
AcDbAttributeDefinition
  3
trazabilidad
  2
TRAZABILIDAD
 70
     0
  0
ENDBLK
  5
5C
100
AcDbEntity
  8
0
100
AcDbBlockEnd
  0
BLOCK
  5
735
100
AcDbEntity
  8
0
100
AcDbBlockBegin
  2
A$C6F530FAD
 70
     0
 10
0.0
 20
0.0
 30
0.0
  3
A$C6F530FAD
  1

  0
LINE
  5
734
100
AcDbEntity
  8
BASE
100
AcDbLine
 10
0.0
 20
0.0
 30
0.0
 11
0.846111
 21
0.409972
 31
0.0
  0
ENDBLK
  5
736
100
AcDbEntity
  8
0
100
AcDbBlockEnd
  0
BLOCK
  5
73F
100
AcDbEntity
  8
0
100
AcDbBlockBegin
  2
A$C072073E7
 70
     0
 10
0.0
 20
0.0
 30
0.0
  3
A$C072073E7
  1

  0
TEXT
  5
738
100
AcDbEntity
  8
TEXTOS
  6
CONTINUOUS
100
AcDbText
 10
132.679838
 20
0.978784
 30
0.0
 40
2.0
  1
200.160.6
 41
0.8
  7
ROMANS8
 11
132.679838
 21
1.978784
 31
0.0
100
AcDbText
 73
     2
  0
LINE
  5
739
100
AcDbEntity
  8
TEXTOS
  6
CONTINUOUS
100
AcDbLine
 10
130.383329
 20
0.700333
 30
0.0
 11
132.064665
 21
3.265095
 31
0.0
  0
LWPOLYLINE
  5
73A
100
AcDbEntity
  8
TEXTOS
  6
CONTINUOUS
100
AcDbPolyline
 90
        4
 70
     1
 43
0.0
 10
132.27714
 20
2.983341
 10
130.27714
 20
2.983341
 10
130.27714
 20
0.983341
 10
132.27714
 20
0.983341
  0
LINE
  5
73B
100
AcDbEntity
  8
TEXTOS
  6
CONTINUOUS
100
AcDbLine
 10
144.715716
 20
0.0
 30
0.0
 11
0.0
 21
0.0
 31
0.0
  0
INSERT
  5
73C
100
AcDbEntity
  8
TRAMAS
  6
CONTINUOUS
100
AcDbBlockReference
  2
A$C6F530FAD
 10
100.0
 20
0.0
 30
0.0
 50
0.0
  0
INSERT
  5
73D
100
AcDbEntity
  8
TRAMAS
  6
CONTINUOUS
100
AcDbBlockReference
  2
A$C6F530FAD
 10
110.0
 20
0.0
 30
0.0
 50
0.0
  0
INSERT
  5
73E
100
AcDbEntity
  8
TRAMAS
  6
CONTINUOUS
100
AcDbBlockReference
  2
A$C6F530FAD
 10
120.0
 20
0.0
 30
0.0
 50
0.0
  0
ENDBLK
  5
740
100
AcDbEntity
  8
0
100
AcDbBlockEnd
  0
BLOCK
  5
846
100
AcDbEntity
  8
0
100
AcDbBlockBegin
  2
A$C6C3D747B
 70
     0
 10
0.0
 20
0.0
 30
0.0
  3
A$C6C3D747B
  1

  0
TEXT
  5
83B
100
AcDbEntity
  8
TEXTOS
  6
CONTINUOUS
 62
     3
100
AcDbText
 10
3.563447
 20
31.141124
 30
0.0
 40
2.5
  1
EL CANTO DE LA VIGA DE BORDE EXTERIOR EN FACHADAS SUR, SUR-ESTE Y ESTE (VB) SE AJUSTARA SEGUN LAS SECCIONES DE REFERENCIA ENTRE UN MINIMO DE 1m (1000mm) Y UN MAXIMO DE 1.360m (1360mm)
  7
ROMANS8
 11
3.563447
 21
32.391124
 31
0.0
100
AcDbText
 73
     2
  0
TEXT
  5
83C
100
AcDbEntity
  8
TEXTOS
  6
CONTINUOUS
 62
     3
100
AcDbText
 10
3.563447
 20
26.878649
 30
0.0
 40
2.5
  1
EL CANTO DE VB2 Y VB3 ES FIJO SEGUN DETALLES ENCDVB1, 2, etc., DE DONDE SE TOMARAN LAS CHAPAS BASES DE UNAS Y OTRAS.
  7
ROMANS8
 11
3.563447
 21
28.128649
 31
0.0
100
AcDbText
 73
     2
  0
TEXT
  5
83D
100
AcDbEntity
  8
TEXTOS
  6
CONTINUOUS
 62
     3
100
AcDbText
 10
3.563447
 20
22.616174
 30
0.0
 40
2.5
  1
EL CANTO DE VR SE AJUSTARA CON VARIACION LINEAL ENTRE LAS CARAS DE VB Y VB2 A LAS QUE SE UNE, Y SUS CHAPAS BASE SE TOMARAN DEL DETALLE ENCDVT2.
  7
ROMANS8
 11
3.563447
 21
23.866174
 31
0.0
100
AcDbText
 73
     2
  0
TEXT
  5
83E
100
AcDbEntity
  8
TEXTOS
  6
CONTINUOUS
 62
     3
100
AcDbText
 10
3.563447
 20
18.353699
 30
0.0
 40
2.5
  1
LA UNION ATORNILLADA (O EQUIVALENTE) DEFINIDA EN EL DETALLE ENFDS1 DEBE SITUARSE EN TODOS LOS CASOS EN EL VERTICE EXTERIOR SUPERIOR DE LA VIGA DE BORDE EXTERIOR.
  7
ROMANS8
 11
3.563447
 21
19.603699
 31
0.0
100
AcDbText
 73
     2
  0
LWPOLYLINE
  5
83F
100
AcDbEntity
  8
TRAMAS
  6
CONTINUOUS
100
AcDbPolyline
 90
        4
 70
     1
 43
0.0
 10
0.0
 20
15.322493
 10
438.750124
 20
15.322493
 10
438.750124
 20
36.67233
 10
0.0
 20
36.67233
  0
TEXT
  5
840
100
AcDbEntity
  8
TEXTOS
  6
CONTINUOUS
 62
     3
100
AcDbText
 10
253.046481
 20
6.867135
 30
0.0
 40
2.5
  1
= SEGUN ENFSD2
  7
ROMANS8
 11
253.046481
 21
8.117135
 31
0.0
100
AcDbText
 73
     2
  0
TEXT
  5
841
100
AcDbEntity
  8
TEXTOS
  6
CONTINUOUS
 62
     3
100
AcDbText
 10
140.542034
 20
2.60466
 30
0.0
 40
2.5
  1
UNIONES ENTRE TUBOS
  7
ROMANS8
 11
140.542034
 21
3.85466
 31
0.0
100
AcDbText
 73
     2
  0
LWPOLYLINE
  5
842
100
AcDbEntity
  8
TRAMAS
  6
CONTINUOUS
100
AcDbPolyline
 90
        4
 70
     1
 43
0.0
 10
136.978587
 20
0.0
 10
301.771537
 20
0.0
 10
301.771537
 20
12.398341
 10
136.978587
 20
12.398341
  0
TEXT
  5
843
100
AcDbEntity
  8
TEXTOS
  6
CONTINUOUS
 62
     3
100
AcDbText
 10
253.046481
 20
2.60466
 30
0.0
 40
2.5
  1
= SEGUN ENFSD4  y 5
  7
ROMANS8
 11
253.046481
 21
3.85466
 31
0.0
100
AcDbText
 73
     2
  0
TEXT
  5
844
100
AcDbEntity
  8
TEXTOS
  6
CONTINUOUS
 62
     3
100
AcDbText
 10
140.542034
 20
6.867135
 30
0.0
 40
2.5
  1
UNIONES DE TUBOS ADOSADOS A OTRAS ESTRUCTURAS
  7
ROMANS8
 11
140.542034
 21
8.117135
 31
0.0
100
AcDbText
 73
     2
  0
LINE
  5
845
100
AcDbEntity
  8
TRAMAS
  6
CONTINUOUS
100
AcDbLine
 10
597.573273
 20
41.622553
 30
0.0
 11
727.339734
 21
41.622553
 31
0.0
  0
ENDBLK
  5
847
100
AcDbEntity
  8
0
100
AcDbBlockEnd
  0
BLOCK
  5
8C8
100
AcDbEntity
  8
0
100
AcDbBlockBegin
  2
111111
 70
     0
 10
0.0
 20
0.0
 30
0.0
  3
111111
  1

  0
LINE
  5
8C3
100
AcDbEntity
  8
CC
100
AcDbLine
 10
-61.569167
 20
0.0
 30
0.0
 11
0.0
 21
0.0
 31
0.0
  0
LINE
  5
8C4
100
AcDbEntity
  8
CC
100
AcDbLine
 10
-61.569167
 20
47.917849
 30
0.0
 11
-61.569167
 21
0.0
 31
0.0
  0
LINE
  5
8C5
100
AcDbEntity
  8
CC
100
AcDbLine
 10
0.0
 20
47.917849
 30
0.0
 11
0.0
 21
0.0
 31
0.0
  0
LINE
  5
8C6
100
AcDbEntity
  8
CC
100
AcDbLine
 10
61.569167
 20
47.917849
 30
0.0
 11
61.569167
 21
0.0
 31
0.0
  0
LINE
  5
8C7
100
AcDbEntity
  8
CC
100
AcDbLine
 10
0.0
 20
0.0
 30
0.0
 11
61.569167
 21
0.0
 31
0.0
  0
ENDBLK
  5
8C9
100
AcDbEntity
  8
0
100
AcDbBlockEnd
  0
BLOCK
  5
8D1
100
AcDbEntity
  8
0
100
AcDbBlockBegin
  2
110000
 70
     0
 10
0.0
 20
0.0
 30
0.0
  3
110000
  1

  0
LINE
  5
8CB
100
AcDbEntity
  8
CC
100
AcDbLine
 10
0.0
 20
59.425214
 30
0.0
 11
0.0
 21
11.507364
 31
0.0
  0
LINE
  5
8CC
100
AcDbEntity
  8
CC
100
AcDbLine
 10
0.0
 20
0.0
 30
0.0
 11
0.0
 21
-47.917849
 31
0.0
  0
LINE
  5
8CD
100
AcDbEntity
  8
CC
100
AcDbLine
 10
-61.569167
 20
0.0
 30
0.0
 11
0.0
 21
0.0
 31
0.0
  0
LINE
  5
8CE
100
AcDbEntity
  8
CC
100
AcDbLine
 10
-61.569167
 20
47.917849
 30
0.0
 11
-61.569167
 21
0.0
 31
0.0
  0
LINE
  5
8CF
100
AcDbEntity
  8
CC
100
AcDbLine
 10
61.569167
 20
47.917849
 30
0.0
 11
61.569167
 21
0.0
 31
0.0
  0
LINE
  5
8D0
100
AcDbEntity
  8
CC
100
AcDbLine
 10
0.0
 20
0.0
 30
0.0
 11
61.569167
 21
0.0
 31
0.0
  0
ENDBLK
  5
8D2
100
AcDbEntity
  8
0
100
AcDbBlockEnd
  0
BLOCK
  5
8D6
100
AcDbEntity
  8
0
100
AcDbBlockBegin
  2
110X00
 70
     0
 10
0.0
 20
0.0
 30
0.0
  3
110X00
  1

  0
LINE
  5
8D4
100
AcDbEntity
  8
CC
100
AcDbLine
 10
0.0
 20
0.0
 30
0.0
 11
61.569167
 21
0.0
 31
0.0
  0
LINE
  5
8D5
100
AcDbEntity
  8
CC
100
AcDbLine
 10
0.0
 20
47.917849
 30
0.0
 11
0.0
 21
0.0
 31
0.0
  0
ENDBLK
  5
8D7
100
AcDbEntity
  8
0
100
AcDbBlockEnd
  0
BLOCK
  5
AAE
100
AcDbEntity
  8
0
100
AcDbBlockBegin
  2
FE1
 70
     0
 10
0.0
 20
0.0
 30
0.0
  3
FE1
  1

  0
LINE
  5
8E9
100
AcDbEntity
  8
BASE
  6
CONTINUOUS
100
AcDbLine
 10
2738.861108
 20
1228.703387
 30
0.0
 11
3114.467917
 21
1379.570329
 31
0.0
  0
LINE
  5
8EA
100
AcDbEntity
  8
BASE
  6
CONTINUOUS
100
AcDbLine
 10
2738.861108
 20
1228.703387
 30
0.0
 11
2930.620154
 21
1379.570329
 31
0.0
  0
TEXT
  5
8EB
100
AcDbEntity
  8
TEXTOS
  6
CONTINUOUS
100
AcDbText
 10
569.831262
 20
457.282087
 30
0.0
 40
2.0
  1
200.200.5
 50
360.0
  7
ROMANS8
 11
569.831262
 21
458.282087
 31
0.0
100
AcDbText
 73
     2
  0
LWPOLYLINE
  5
8EC
100
AcDbEntity
  8
TEXTOS
  6
CONTINUOUS
100
AcDbPolyline
 90
        4
 70
     1
 43
0.0
 10
569.428563
 20
459.286643
 10
567.428563
 20
459.286643
 10
567.428563
 20
457.286643
 10
569.428563
 20
457.286643
  0
LINE
  5
8ED
100
AcDbEntity
  8
TEXTOS
  6
CONTINUOUS
100
AcDbLine
 10
567.534752
 20
457.003636
 30
0.0
 11
569.216089
 21
459.568398
 31
0.0
  0
LINE
  5
8EE
100
AcDbEntity
  8
BASE
100
AcDbLine
 10
2384.329797
 20
1228.703387
 30
0.0
 11
2738.861108
 21
1228.703387
 31
0.0
  0
CIRCLE
  5
8EF
100
AcDbEntity
  8
TEXTOS
  6
RAYITAS2
100
AcDbCircle
 10
580.038367
 20
470.844338
 30
0.0
 40
6.995854
  0
LWPOLYLINE
  5
8F0
100
AcDbEntity
  8
TEXTOS
  6
CONTINUOUS
100
AcDbPolyline
 90
        6
 70
     1
 43
0.0
 10
574.797309
 20
488.371993
 10
575.508496
 20
489.69268
 42
-0.281888
 10
582.721921
 20
477.305027
 42
0.319097
 10
576.777671
 20
492.049561
 10
577.490705
 20
493.373678
 10
572.173667
 20
493.010855
  0
CIRCLE
  5
8F1
100
AcDbEntity
  8
TEXTOS
  6
RAYITAS2
100
AcDbCircle
 10
489.830633
 20
466.333523
 30
0.0
 40
6.995854
  0
LWPOLYLINE
  5
8F2
100
AcDbEntity
  8
TEXTOS
  6
CONTINUOUS
100
AcDbPolyline
 90
        6
 70
     1
 43
0.0
 10
484.589575
 20
483.861179
 10
485.300762
 20
485.181865
 42
-0.281888
 10
492.514187
 20
472.794213
 42
0.319097
 10
486.569937
 20
487.538746
 10
487.282971
 20
488.862864
 10
481.965933
 20
488.500041
  0
TEXT
  5
8F3
100
AcDbEntity
  8
TEXTOS
  6
CONTINUOUS
100
AcDbText
 10
441.726935
 20
486.884963
 30
0.0
 40
2.0
  1
PRINCIPAL
 50
0.0
  7
ROMANS8
 11
441.726935
 21
487.884963
 31
0.0
100
AcDbText
 73
     2
  0
LWPOLYLINE
  5
8F4
100
AcDbEntity
  8
TEXTOS
  6
CONTINUOUS
100
AcDbPolyline
 90
        4
 70
     1
 43
0.0
 10
563.393277
 20
464.300806
 10
561.397687
 20
464.168064
 10
561.264945
 20
466.163654
 10
563.260535
 20
466.296396
  0
LINE
  5
8F5
100
AcDbEntity
  8
TEXTOS
  6
CONTINUOUS
100
AcDbLine
 10
561.352117
 20
466.453086
 30
0.0
 11
563.199971
 21
464.00557
 31
0.0
  0
TEXT
  5
8F6
100
AcDbEntity
  8
TEXTOS
  6
CONTINUOUS
100
AcDbText
 10
563.794785
 20
464.33208
 30
0.0
 40
2.0
  1
200.200.5
 50
3.805563
  7
ROMANS8
 11
563.728414
 21
465.329875
 31
0.0
100
AcDbText
 73
     2
  0
TEXT
  5
8F7
100
AcDbEntity
  8
TEXTOS
  6
CONTINUOUS
100
AcDbText
 10
528.974247
 20
462.015907
 30
0.0
 40
2.0
  1
200.200.5
 50
3.805563
  7
ROMANS8
 11
528.907877
 21
463.013702
 31
0.0
100
AcDbText
 73
     2
  0
LINE
  5
8F8
100
AcDbEntity
  8
TEXTOS
  6
CONTINUOUS
100
AcDbLine
 10
526.531579
 20
464.136913
 30
0.0
 11
528.379433
 21
461.689397
 31
0.0
  0
LWPOLYLINE
  5
8F9
100
AcDbEntity
  8
TEXTOS
  6
CONTINUOUS
100
AcDbPolyline
 90
        4
 70
     1
 43
0.0
 10
528.572739
 20
461.984633
 10
526.577149
 20
461.851891
 10
526.444407
 20
463.847481
 10
528.439997
 20
463.980223
  0
LWPOLYLINE
  5
8FA
100
AcDbEntity
  8
TEXTOS
  6
CONTINUOUS
100
AcDbPolyline
 90
        4
 70
     1
 43
0.0
 10
564.618714
 20
484.24555
 10
562.623124
 20
484.112809
 10
562.755865
 20
482.117219
 10
564.751455
 20
482.24996
  0
LINE
  5
8FB
100
AcDbEntity
  8
TEXTOS
  6
CONTINUOUS
100
AcDbLine
 10
562.880604
 20
481.841883
 30
0.0
 11
564.388008
 21
484.512582
 31
0.0
  0
TEXT
  5
8FC
100
AcDbEntity
  8
TEXTOS
  6
CONTINUOUS
100
AcDbText
 10
565.153569
 20
482.272141
 30
0.0
 40
2.0
  1
200.200.5
 50
3.805563
  7
ROMANS8
 11
565.087198
 21
483.269936
 31
0.0
100
AcDbText
 73
     2
  0
TEXT
  5
8FD
100
AcDbEntity
  8
TEXTOS
  6
CONTINUOUS
100
AcDbText
 10
504.558333
 20
478.241501
 30
0.0
 40
2.0
  1
200.200.5
 50
3.805563
  7
ROMANS8
 11
504.491962
 21
479.239296
 31
0.0
100
AcDbText
 73
     2
  0
LWPOLYLINE
  5
8FE
100
AcDbEntity
  8
TEXTOS
  6
CONTINUOUS
100
AcDbPolyline
 90
        4
 70
     1
 43
0.0
 10
504.023478
 20
480.21491
 10
502.027888
 20
480.082169
 10
502.16063
 20
478.086578
 10
504.15622
 20
478.21932
  0
LINE
  5
8FF
100
AcDbEntity
  8
TEXTOS
  6
CONTINUOUS
100
AcDbLine
 10
502.285368
 20
477.811243
 30
0.0
 11
503.792772
 21
480.481942
 31
0.0
  0
TEXT
  5
900
100
AcDbEntity
  8
TEXTOS
  6
CONTINUOUS
100
AcDbText
 10
556.469983
 20
445.325434
 30
0.0
 40
2.0
  1
250.250.12'5
 50
360.0
  7
ROMANS8
 11
556.469983
 21
446.325434
 31
0.0
100
AcDbText
 73
     2
  0
LWPOLYLINE
  5
901
100
AcDbEntity
  8
TEXTOS
  6
CONTINUOUS
100
AcDbPolyline
 90
        4
 70
     1
 43
0.0
 10
556.067284
 20
447.32999
 10
554.067284
 20
447.32999
 10
554.067284
 20
445.32999
 10
556.067284
 20
445.32999
  0
LINE
  5
902
100
AcDbEntity
  8
TEXTOS
  6
CONTINUOUS
100
AcDbLine
 10
554.173474
 20
445.046983
 30
0.0
 11
555.85481
 21
447.611745
 31
0.0
  0
LINE
  5
903
100
AcDbEntity
  8
BASE
100
AcDbLine
 10
2809.96759
 20
499.903977
 30
0.0
 11
2793.045354
 21
508.103408
 31
0.0
  0
LINE
  5
904
100
AcDbEntity
  8
BASE
100
AcDbLine
 10
1403.305204
 20
499.903977
 30
0.0
 11
1420.227441
 21
508.103408
 31
0.0
  0
LINE
  5
905
100
AcDbEntity
  8
BASE
100
AcDbLine
 10
1236.873407
 20
499.903977
 30
0.0
 11
1253.795644
 21
508.103408
 31
0.0
  0
LINE
  5
906
100
AcDbEntity
  8
BASE
100
AcDbLine
 10
989.057469
 20
499.903977
 30
0.0
 11
1005.979705
 21
508.103408
 31
0.0
  0
LINE
  5
907
100
AcDbEntity
  8
BASE
100
AcDbLine
 10
827.4541
 20
499.903977
 30
0.0
 11
844.376337
 21
508.103408
 31
0.0
  0
LINE
  5
908
100
AcDbEntity
  8
BASE
100
AcDbLine
 10
516.729521
 20
499.903977
 30
0.0
 11
533.651757
 21
508.103408
 31
0.0
  0
LINE
  5
909
100
AcDbEntity
  8
BASE
  6
CONTINUOUS
100
AcDbLine
 10
1770.830665
 20
499.903977
 30
0.0
 11
1770.830665
 21
-28.904005
 31
0.0
  0
LINE
  5
90A
100
AcDbEntity
  8
BASE
  6
CONTINUOUS
100
AcDbLine
 10
516.729521
 20
499.903977
 30
0.0
 11
2809.96759
 21
499.903977
 31
0.0
  0
TEXT
  5
90B
100
AcDbEntity
  8
TEXTOS
  6
CONTINUOUS
100
AcDbText
 10
538.566744
 20
391.113405
 30
0.0
 40
2.0
  1
SEGUN CUADRO DE PILARES
 50
0.0
  7
ROMANS8
 11
538.566744
 21
392.113405
 31
0.0
100
AcDbText
 73
     2
  0
TEXT
  5
90C
100
AcDbEntity
  8
TEXTOS
  6
CONTINUOUS
100
AcDbText
 10
538.566744
 20
394.401717
 30
0.0
 40
2.0
  1
PILARES ESTRUCTURA PRINCIPAL
 50
360.0
  7
ROMANS8
 11
538.566744
 21
395.401717
 31
0.0
100
AcDbText
 73
     2
  0
LINE
  5
90D
100
AcDbEntity
  8
BASE
100
AcDbLine
 10
1770.830665
 20
-28.904005
 30
0.0
 11
2805.485099
 21
-28.904005
 31
0.0
  0
TEXT
  5
90E
100
AcDbEntity
  8
TEXTOS
  6
CONTINUOUS
100
AcDbText
 10
592.506154
 20
473.134
 30
0.0
 40
2.0
  1
VB
 50
3.805563
  7
ROMANS8
 11
592.439783
 21
474.131795
 31
0.0
100
AcDbText
 73
     2
  0
TEXT
  5
90F
100
AcDbEntity
  8
TEXTOS
  6
CONTINUOUS
100
AcDbText
 10
552.807739
 20
470.493363
 30
0.0
 40
2.0
  1
VB
 50
3.805563
  7
ROMANS8
 11
552.741368
 21
471.491158
 31
0.0
100
AcDbText
 73
     2
  0
TEXT
  5
910
100
AcDbEntity
  8
TEXTOS
  6
CONTINUOUS
100
AcDbText
 10
502.493665
 20
467.1466
 30
0.0
 40
2.0
  1
VB
 50
3.805563
  7
ROMANS8
 11
502.427294
 21
468.144395
 31
0.0
100
AcDbText
 73
     2
  0
LINE
  5
911
100
AcDbEntity
  8
BASE
100
AcDbLine
 10
2641.832071
 20
1648.550909
 30
0.0
 11
2658.172707
 21
1657.855551
 31
0.0
  0
LINE
  5
912
100
AcDbEntity
  8
BASE
100
AcDbLine
 10
2441.515496
 20
1635.22453
 30
0.0
 11
2457.856132
 21
1644.529172
 31
0.0
  0
LINE
  5
913
100
AcDbEntity
  8
BASE
100
AcDbLine
 10
2241.198921
 20
1621.898151
 30
0.0
 11
2257.539557
 21
1631.202793
 31
0.0
  0
LINE
  5
914
100
AcDbEntity
  8
BASE
100
AcDbLine
 10
2040.881944
 20
1608.571745
 30
0.0
 11
2057.22258
 21
1617.876387
 31
0.0
  0
LINE
  5
915
100
AcDbEntity
  8
BASE
100
AcDbLine
 10
1840.565369
 20
1595.245366
 30
0.0
 11
1856.906005
 21
1604.550008
 31
0.0
  0
LINE
  5
916
100
AcDbEntity
  8
BASE
100
AcDbLine
 10
1640.248794
 20
1581.918987
 30
0.0
 11
1656.58943
 21
1591.223629
 31
0.0
  0
LINE
  5
917
100
AcDbEntity
  8
BASE
100
AcDbLine
 10
1640.248794
 20
1581.918987
 30
0.0
 11
2729.630237
 21
1654.391821
 31
0.0
1001
ACAD
1000
RTLwPs
1070
   128
  0
TEXT
  5
918
100
AcDbEntity
  8
TEXTOS
  6
CONTINUOUS
100
AcDbText
 10
548.03157
 20
450.895846
 30
0.0
 40
2.0
  1
250.250.10
 50
89.579746
 41
0.7
  7
ROMANS8
 11
547.031597
 21
450.90318
 31
0.0
100
AcDbText
 73
     2
  0
LWPOLYLINE
  5
919
100
AcDbEntity
  8
TEXTOS
  6
CONTINUOUS
100
AcDbPolyline
 90
        4
 70
     1
 43
0.0
 10
546.024114
 20
450.507861
 10
546.009445
 20
448.507914
 10
548.009391
 20
448.493245
 10
548.024061
 20
450.493191
  0
LINE
  5
91A
100
AcDbEntity
  8
TEXTOS
  6
CONTINUOUS
100
AcDbLine
 10
548.29317
 20
448.597355
 30
0.0
 11
545.740809
 21
450.297458
 31
0.0
  0
LINE
  5
91B
100
AcDbEntity
  8
TEXTOS
  6
CONTINUOUS
100
AcDbLine
 10
548.132433
 20
426.683491
 30
0.0
 11
545.580072
 21
428.383594
 31
0.0
  0
LWPOLYLINE
  5
91C
100
AcDbEntity
  8
TEXTOS
  6
CONTINUOUS
100
AcDbPolyline
 90
        4
 70
     1
 43
0.0
 10
545.863377
 20
428.593996
 10
545.848708
 20
426.59405
 10
547.848654
 20
426.579381
 10
547.863323
 20
428.579327
  0
TEXT
  5
91D
100
AcDbEntity
  8
TEXTOS
  6
CONTINUOUS
100
AcDbText
 10
547.870833
 20
428.981981
 30
0.0
 40
2.0
  1
250.250.10
 50
89.579746
 41
0.7
  7
ROMANS8
 11
546.87086
 21
428.989316
 31
0.0
100
AcDbText
 73
     2
  0
TEXT
  5
91E
100
AcDbEntity
  8
TEXTOS
  6
CONTINUOUS
100
AcDbText
 10
608.348875
 20
450.24331
 30
0.0
 40
2.0
  1
200.200.8
 50
89.579746
 41
0.7
  7
ROMANS8
 11
607.348902
 21
450.250645
 31
0.0
100
AcDbText
 73
     2
  0
LWPOLYLINE
  5
91F
100
AcDbEntity
  8
TEXTOS
  6
CONTINUOUS
100
AcDbPolyline
 90
        4
 70
     1
 43
0.0
 10
606.341419
 20
449.855325
 10
606.326749
 20
447.855379
 10
608.326696
 20
447.840709
 10
608.341365
 20
449.840656
  0
LINE
  5
920
100
AcDbEntity
  8
TEXTOS
  6
CONTINUOUS
100
AcDbLine
 10
608.610474
 20
447.94482
 30
0.0
 11
606.058113
 21
449.644923
 31
0.0
  0
LINE
  5
921
100
AcDbEntity
  8
TEXTOS
  6
CONTINUOUS
100
AcDbLine
 10
608.451748
 20
426.305073
 30
0.0
 11
605.899387
 21
428.005176
 31
0.0
  0
LWPOLYLINE
  5
922
100
AcDbEntity
  8
TEXTOS
  6
CONTINUOUS
100
AcDbPolyline
 90
        4
 70
     1
 43
0.0
 10
606.182692
 20
428.215579
 10
606.168023
 20
426.215632
 10
608.167969
 20
426.200963
 10
608.182639
 20
428.200909
  0
TEXT
  5
923
100
AcDbEntity
  8
TEXTOS
  6
CONTINUOUS
100
AcDbText
 10
608.190148
 20
428.603563
 30
0.0
 40
2.0
  1
200.200.8
 50
89.579746
 41
0.7
  7
ROMANS8
 11
607.190175
 21
428.610898
 31
0.0
100
AcDbText
 73
     2
  0
LINE
  5
924
100
AcDbEntity
  8
TEXTOS
  6
CONTINUOUS
100
AcDbLine
 10
598.598516
 20
447.832356
 30
0.0
 11
596.046155
 21
449.532459
 31
0.0
  0
LWPOLYLINE
  5
925
100
AcDbEntity
  8
TEXTOS
  6
CONTINUOUS
100
AcDbPolyline
 90
        4
 70
     1
 43
0.0
 10
596.32946
 20
449.742862
 10
596.314791
 20
447.742915
 10
598.314737
 20
447.728246
 10
598.329407
 20
449.728192
  0
TEXT
  5
926
100
AcDbEntity
  8
TEXTOS
  6
CONTINUOUS
100
AcDbText
 10
598.336916
 20
450.130847
 30
0.0
 40
2.0
  1
200.200.8
 50
89.579746
 41
0.7
  7
ROMANS8
 11
597.336943
 21
450.138181
 31
0.0
100
AcDbText
 73
     2
  0
TEXT
  5
927
100
AcDbEntity
  8
TEXTOS
  6
CONTINUOUS
100
AcDbText
 10
598.17819
 20
428.4911
 30
0.0
 40
2.0
  1
200.200.8
 50
89.579746
 41
0.7
  7
ROMANS8
 11
597.178217
 21
428.498435
 31
0.0
100
AcDbText
 73
     2
  0
LWPOLYLINE
  5
928
100
AcDbEntity
  8
TEXTOS
  6
CONTINUOUS
100
AcDbPolyline
 90
        4
 70
     1
 43
0.0
 10
596.170734
 20
428.103115
 10
596.156064
 20
426.103169
 10
598.156011
 20
426.088499
 10
598.17068
 20
428.088445
  0
LINE
  5
929
100
AcDbEntity
  8
TEXTOS
  6
CONTINUOUS
100
AcDbLine
 10
598.439789
 20
426.19261
 30
0.0
 11
595.887428
 21
427.892713
 31
0.0
  0
TEXT
  5
92A
100
AcDbEntity
  8
TEXTOS
  6
CONTINUOUS
100
AcDbText
 10
508.096369
 20
451.051289
 30
0.0
 40
2.0
  1
200.200.8
 50
89.579746
 41
0.7
  7
ROMANS8
 11
507.096396
 21
451.058624
 31
0.0
100
AcDbText
 73
     2
  0
LWPOLYLINE
  5
92B
100
AcDbEntity
  8
TEXTOS
  6
CONTINUOUS
100
AcDbPolyline
 90
        4
 70
     1
 43
0.0
 10
506.088913
 20
450.663304
 10
506.074243
 20
448.663358
 10
508.074189
 20
448.648689
 10
508.088859
 20
450.648635
  0
LINE
  5
92C
100
AcDbEntity
  8
TEXTOS
  6
CONTINUOUS
100
AcDbLine
 10
508.357968
 20
448.752799
 30
0.0
 11
505.805607
 21
450.452902
 31
0.0
  0
LINE
  5
92D
100
AcDbEntity
  8
TEXTOS
  6
CONTINUOUS
100
AcDbLine
 10
508.185531
 20
425.243847
 30
0.0
 11
505.63317
 21
426.94395
 31
0.0
  0
LWPOLYLINE
  5
92E
100
AcDbEntity
  8
TEXTOS
  6
CONTINUOUS
100
AcDbPolyline
 90
        4
 70
     1
 43
0.0
 10
505.916476
 20
427.154352
 10
505.901806
 20
425.154406
 10
507.901752
 20
425.139736
 10
507.916422
 20
427.139682
  0
TEXT
  5
92F
100
AcDbEntity
  8
TEXTOS
  6
CONTINUOUS
100
AcDbText
 10
507.923932
 20
427.542337
 30
0.0
 40
2.0
  1
200.200.8
 50
89.579746
 41
0.7
  7
ROMANS8
 11
506.923959
 21
427.549672
 31
0.0
100
AcDbText
 73
     2
  0
LINE
  5
930
100
AcDbEntity
  8
TEXTOS
  6
CONTINUOUS
100
AcDbLine
 10
488.337042
 20
448.899651
 30
0.0
 11
485.784681
 21
450.599755
 31
0.0
  0
LWPOLYLINE
  5
931
100
AcDbEntity
  8
TEXTOS
  6
CONTINUOUS
100
AcDbPolyline
 90
        4
 70
     1
 43
0.0
 10
486.067987
 20
450.810157
 10
486.053317
 20
448.810211
 10
488.053263
 20
448.795541
 10
488.067933
 20
450.795487
  0
TEXT
  5
932
100
AcDbEntity
  8
TEXTOS
  6
CONTINUOUS
100
AcDbText
 10
488.075443
 20
451.198142
 30
0.0
 40
2.0
  1
200.200.8
 50
89.579746
 41
0.7
  7
ROMANS8
 11
487.07547
 21
451.205476
 31
0.0
100
AcDbText
 73
     2
  0
TEXT
  5
933
100
AcDbEntity
  8
TEXTOS
  6
CONTINUOUS
100
AcDbText
 10
487.903006
 20
427.689189
 30
0.0
 40
2.0
  1
200.200.8
 50
89.579746
 41
0.7
  7
ROMANS8
 11
486.903033
 21
427.696524
 31
0.0
100
AcDbText
 73
     2
  0
LWPOLYLINE
  5
934
100
AcDbEntity
  8
TEXTOS
  6
CONTINUOUS
100
AcDbPolyline
 90
        4
 70
     1
 43
0.0
 10
485.89555
 20
427.301204
 10
485.88088
 20
425.301258
 10
487.880826
 20
425.286589
 10
487.895496
 20
427.286535
  0
LINE
  5
935
100
AcDbEntity
  8
TEXTOS
  6
CONTINUOUS
100
AcDbLine
 10
488.164605
 20
425.390699
 30
0.0
 11
485.612244
 21
427.090802
 31
0.0
  0
LINE
  5
936
100
AcDbEntity
  8
TEXTOS
  6
CONTINUOUS
100
AcDbLine
 10
478.327781
 20
449.128686
 30
0.0
 11
475.77542
 21
450.82879
 31
0.0
  0
LWPOLYLINE
  5
937
100
AcDbEntity
  8
TEXTOS
  6
CONTINUOUS
100
AcDbPolyline
 90
        4
 70
     1
 43
0.0
 10
476.058725
 20
451.039192
 10
476.044056
 20
449.039245
 10
478.044002
 20
449.024576
 10
478.058671
 20
451.024522
  0
TEXT
  5
938
100
AcDbEntity
  8
TEXTOS
  6
CONTINUOUS
100
AcDbText
 10
478.066181
 20
451.427177
 30
0.0
 40
2.0
  1
200.200.8
 50
89.579746
 41
0.7
  7
ROMANS8
 11
477.066208
 21
451.434511
 31
0.0
100
AcDbText
 73
     2
  0
TEXT
  5
939
100
AcDbEntity
  8
TEXTOS
  6
CONTINUOUS
100
AcDbText
 10
477.891033
 20
427.548517
 30
0.0
 40
2.0
  1
200.200.8
 50
89.579746
 41
0.7
  7
ROMANS8
 11
476.891059
 21
427.555852
 31
0.0
100
AcDbText
 73
     2
  0
LWPOLYLINE
  5
93A
100
AcDbEntity
  8
TEXTOS
  6
CONTINUOUS
100
AcDbPolyline
 90
        4
 70
     1
 43
0.0
 10
475.883576
 20
427.160532
 10
475.868907
 20
425.160586
 10
477.868853
 20
425.145917
 10
477.883523
 20
427.145863
  0
LINE
  5
93B
100
AcDbEntity
  8
TEXTOS
  6
CONTINUOUS
100
AcDbLine
 10
478.152632
 20
425.250027
 30
0.0
 11
475.600271
 21
426.95013
 31
0.0
  0
TEXT
  5
93C
100
AcDbEntity
  8
TEXTOS
  6
CONTINUOUS
100
AcDbText
 10
471.129874
 20
427.642355
 30
0.0
 40
2.0
  1
200.200.8
 50
90.578822
 41
0.7
  7
ROMANS8
 11
470.129925
 21
427.632252
 31
0.0
100
AcDbText
 73
     2
  0
LWPOLYLINE
  5
93D
100
AcDbEntity
  8
TEXTOS
  6
CONTINUOUS
100
AcDbPolyline
 90
        4
 70
     1
 43
0.0
 10
469.129488
 20
427.219426
 10
469.149693
 20
425.219528
 10
471.149591
 20
425.239732
 10
471.129386
 20
427.23963
  0
LINE
  5
93E
100
AcDbEntity
  8
TEXTOS
  6
CONTINUOUS
100
AcDbLine
 10
471.431511
 20
425.348775
 30
0.0
 11
468.849894
 21
427.004116
 31
0.0
  0
LINE
  5
93F
100
AcDbEntity
  8
TEXTOS
  6
CONTINUOUS
100
AcDbLine
 10
471.191417
 20
449.114095
 30
0.0
 11
468.609801
 21
450.769436
 31
0.0
  0
LWPOLYLINE
  5
940
100
AcDbEntity
  8
TEXTOS
  6
CONTINUOUS
100
AcDbPolyline
 90
        4
 70
     1
 43
0.0
 10
468.889395
 20
450.984746
 10
468.909599
 20
448.984848
 10
470.909497
 20
449.005053
 10
470.889293
 20
451.00495
  0
TEXT
  5
941
100
AcDbEntity
  8
TEXTOS
  6
CONTINUOUS
100
AcDbText
 10
470.889781
 20
451.407675
 30
0.0
 40
2.0
  1
200.200.8
 50
90.578822
 41
0.7
  7
ROMANS8
 11
469.889832
 21
451.397572
 31
0.0
100
AcDbText
 73
     2
  0
LINE
  5
942
100
AcDbEntity
  8
BASE
  6
RAYITAS2
 62
     9
100
AcDbLine
 10
471.853588
 20
1330.768016
 30
0.0
 11
471.853588
 21
1468.75409
 31
0.0
  0
LINE
  5
943
100
AcDbEntity
  8
BASE
  6
RAYITAS2
 62
     9
100
AcDbLine
 10
481.946799
 20
399.29718
 30
0.0
 11
472.535984
 21
1330.813408
 31
0.0
1001
ACAD
1000
RTLwPs
1070
   128
  0
LINE
  5
944
100
AcDbEntity
  8
BASE
  6
RAYITAS2
 62
     9
100
AcDbLine
 10
517.74592
 20
399.29718
 30
0.0
 11
508.311064
 21
1333.193074
 31
0.0
1001
ACAD
1000
RTLwPs
1070
   128
  0
POLYLINE
  5
945
100
AcDbEntity
  8
BASE
  6
RAYITAS2
 62
     9
100
AcDb2dPolyline
 66
     1
 10
0.0
 20
0.0
 30
0.0
1001
ACAD
1000
RTLwPs
1070
   128
  0
VERTEX
  5
946
100
AcDbEntity
  8
BASE
  6
RAYITAS2
 62
     9
100
AcDbVertex
100
AcDb2dVertex
 10
791.4325
 20
399.29718
 30
0.0
1001
ACAD
1000
RTLwPs
1070
   128
  0
VERTEX
  5
947
100
AcDbEntity
  8
BASE
  6
RAYITAS2
 62
     9
100
AcDbVertex
100
AcDb2dVertex
 10
843.620224
 20
1355.496982
 30
0.0
1001
ACAD
1000
RTLwPs
1070
   128
  0
SEQEND
  5
948
100
AcDbEntity
  8
BASE
  6
RAYITAS2
 62
     9
1001
ACAD
1000
RTLwPs
1070
   128
  0
POLYLINE
  5
949
100
AcDbEntity
  8
BASE
  6
RAYITAS2
 62
     9
100
AcDb2dPolyline
 66
     1
 10
0.0
 20
0.0
 30
0.0
1001
ACAD
1000
RTLwPs
1070
   128
  0
VERTEX
  5
94A
100
AcDbEntity
  8
BASE
  6
RAYITAS2
 62
     9
100
AcDbVertex
100
AcDb2dVertex
 10
821.963156
 20
399.29718
 30
0.0
1001
ACAD
1000
RTLwPs
1070
   128
  0
VERTEX
  5
94B
100
AcDbEntity
  8
BASE
  6
RAYITAS2
 62
     9
100
AcDbVertex
100
AcDb2dVertex
 10
874.262123
 20
1357.535203
 30
0.0
1001
ACAD
1000
RTLwPs
1070
   128
  0
SEQEND
  5
94C
100
AcDbEntity
  8
BASE
  6
RAYITAS2
 62
     9
1001
ACAD
1000
RTLwPs
1070
   128
  0
LINE
  5
94D
100
AcDbEntity
  8
BASE
  6
RAYITAS2
 62
     9
100
AcDbLine
 10
994.645082
 20
1365.542769
 30
0.0
 11
954.644151
 21
399.29718
 31
0.0
1001
ACAD
1000
RTLwPs
1070
   128
  0
LINE
  5
94E
100
AcDbEntity
  8
BASE
  6
RAYITAS2
 62
     9
100
AcDbLine
 10
1024.976974
 20
1367.560369
 30
0.0
 11
984.892518
 21
399.29718
 31
0.0
1001
ACAD
1000
RTLwPs
1070
   128
  0
LINE
  5
94F
100
AcDbEntity
  8
BASE
  6
RAYITAS2
 62
     9
100
AcDbLine
 10
1213.329522
 20
1380.089098
 30
0.0
 11
1206.135461
 21
399.29718
 31
0.0
1001
ACAD
1000
RTLwPs
1070
   128
  0
LINE
  5
950
100
AcDbEntity
  8
BASE
  6
RAYITAS2
 62
     9
100
AcDbLine
 10
1243.344166
 20
1382.085596
 30
0.0
 11
1236.135461
 21
399.29718
 31
0.0
1001
ACAD
1000
RTLwPs
1070
   128
  0
POLYLINE
  5
951
100
AcDbEntity
  8
BASE
  6
RAYITAS2
 62
     9
100
AcDb2dPolyline
 66
     1
 10
0.0
 20
0.0
 30
0.0
1001
ACAD
1000
RTLwPs
1070
   128
  0
VERTEX
  5
952
100
AcDbEntity
  8
BASE
  6
RAYITAS2
 62
     9
100
AcDbVertex
100
AcDb2dVertex
 10
1365.977294
 20
399.29718
 30
0.0
1001
ACAD
1000
RTLwPs
1070
   128
  0
VERTEX
  5
953
100
AcDbEntity
  8
BASE
  6
RAYITAS2
 62
     9
100
AcDbVertex
100
AcDb2dVertex
 10
1435.422401
 20
1394.862148
 30
0.0
1001
ACAD
1000
RTLwPs
1070
   128
  0
SEQEND
  5
954
100
AcDbEntity
  8
BASE
  6
RAYITAS2
 62
     9
1001
ACAD
1000
RTLwPs
1070
   128
  0
POLYLINE
  5
955
100
AcDbEntity
  8
BASE
  6
RAYITAS2
 62
     9
100
AcDb2dPolyline
 66
     1
 10
0.0
 20
0.0
 30
0.0
1001
ACAD
1000
RTLwPs
1070
   128
  0
VERTEX
  5
956
100
AcDbEntity
  8
BASE
  6
RAYITAS2
 62
     9
100
AcDbVertex
100
AcDb2dVertex
 10
1396.287431
 20
399.29718
 30
0.0
1001
ACAD
1000
RTLwPs
1070
   128
  0
VERTEX
  5
957
100
AcDbEntity
  8
BASE
  6
RAYITAS2
 62
     9
100
AcDbVertex
100
AcDb2dVertex
 10
1465.873829
 20
1396.8877
 30
0.0
1001
ACAD
1000
RTLwPs
1070
   128
  0
SEQEND
  5
958
100
AcDbEntity
  8
BASE
  6
RAYITAS2
 62
     9
1001
ACAD
1000
RTLwPs
1070
   128
  0
LINE
  5
959
100
AcDbEntity
  8
BASE
  6
RAYITAS2
 62
     9
100
AcDbLine
 10
2817.076918
 20
1486.766272
 30
0.0
 11
2809.544829
 21
441.21943
 31
0.0
1001
ACAD
1000
RTLwPs
1070
   128
  0
LINE
  5
95A
100
AcDbEntity
  8
BASE
  6
RAYITAS2
 62
     9
100
AcDbLine
 10
2847.091295
 20
1488.762751
 30
0.0
 11
2839.552047
 21
442.222187
 31
0.0
1001
ACAD
1000
RTLwPs
1070
   128
  0
POLYLINE
  5
95B
100
AcDbEntity
  8
BASE
  6
RAYITAS2
 62
     9
100
AcDb2dPolyline
 66
     1
 10
0.0
 20
0.0
 30
0.0
  0
VERTEX
  5
95C
100
AcDbEntity
  8
BASE
  6
RAYITAS2
 62
     9
100
AcDbVertex
100
AcDb2dVertex
 10
471.853588
 20
1468.75409
 30
0.0
  0
VERTEX
  5
95D
100
AcDbEntity
  8
BASE
  6
RAYITAS2
 62
     9
100
AcDbVertex
100
AcDb2dVertex
 10
3414.071722
 20
1664.462912
 30
0.0
  0
SEQEND
  5
95E
100
AcDbEntity
  8
BASE
  6
RAYITAS2
 62
     9
  0
LINE
  5
95F
100
AcDbEntity
  8
BASE
  6
RAYITAS2
 62
     9
100
AcDbLine
 10
3406.190204
 20
1525.95258
 30
0.0
 11
3414.071722
 21
1664.462912
 31
0.0
  0
POLYLINE
  5
960
100
AcDbEntity
  8
BASE
  6
RAYITAS2
 62
     9
100
AcDb2dPolyline
 66
     1
 10
0.0
 20
0.0
 30
0.0
  0
VERTEX
  5
961
100
AcDbEntity
  8
BASE
  6
RAYITAS2
 62
     9
100
AcDbVertex
100
AcDb2dVertex
 10
471.853588
 20
1330.768016
 30
0.0
  0
VERTEX
  5
962
100
AcDbEntity
  8
BASE
  6
RAYITAS2
 62
     9
100
AcDbVertex
100
AcDb2dVertex
 10
3406.190204
 20
1525.95258
 30
0.0
  0
SEQEND
  5
963
100
AcDbEntity
  8
BASE
  6
RAYITAS2
 62
     9
  0
HATCH
  5
964
100
AcDbEntity
  8
TRAMAS
  6
CONTINUOUS
100
AcDbHatch
 10
0.0
 20
0.0
 30
0.0
210
0.0
220
0.0
230
1.0
  2
U
 70
     0
 71
     1
 91
        6
 92
        7
 72
     0
 73
     1
 93
        4
 10
835.0262269261257
 20
989.5703286527909
 10
834.9528774135805
 20
979.5703286527945
 10
883.2060573115104
 20
979.5703286527944
 10
883.7518399375639
 20
989.5703286527909
 97
        4
330
9C5
330
9DE
330
9E8
330
9F8
 92
        7
 72
     0
 73
     1
 93
        4
 10
834.9528774135796
 20
979.5703286527947
 10
834.8795279010355
 20
969.570328652791
 10
882.6602746854559
 20
969.5703286527907
 10
883.2060573115095
 20
979.5703286527947
 97
        4
330
9E8
330
9DE
330
9C6
330
9F8
 92
        7
 72
     0
 73
     1
 93
        4
 10
634.7340508056549
 20
979.5703286527945
 10
634.6607012931099
 20
969.570328652791
 10
814.8795279058695
 20
969.570328652791
 10
814.9528774184137
 20
979.5703286527945
 97
        4
330
9E8
330
9DC
330
9C6
330
9DD
 92
        7
 72
     0
 73
     1
 93
        4
 10
634.8074003182
 20
989.5703286527911
 10
634.7340508056568
 20
979.5703286527947
 10
814.9528774184146
 20
979.5703286527949
 10
815.0262269309596
 20
989.5703286527909
 97
        4
330
9C5
330
9DC
330
9E8
330
9DD
 92
        7
 72
     0
 73
     1
 93
        4
 10
500.7456000934089
 20
989.5703286527909
 10
500.8466269447754
 20
979.5703286527945
 10
614.7340508105089
 20
979.5703286527945
 10
614.807400323054
 20
989.5703286527911
 97
        4
330
9C5
330
9B6
330
9E8
330
9DB
 92
        7
 72
     0
 73
     1
 93
        4
 10
500.8466269447763
 20
979.5703286527945
 10
500.9476537961436
 20
969.570328652791
 10
614.660701297963
 20
969.570328652791
 10
614.7340508105089
 20
979.5703286527947
 97
        4
330
9E8
330
9B6
330
9C6
330
9DB
 75
     0
 76
     0
 52
45.0
 41
0.5
 77
     0
 78
     1
 53
45.0
 43
-4023.474606
 44
-71.617392
 45
-0.3535533905932737
 46
0.3535533905932738
 79
     0
 47
0.075994
 98
        6
 10
490.787337
 20
444.433407
 10
490.559218
 20
443.825459
 10
485.388656
 20
443.901448
 10
485.236582
 20
444.433407
 10
477.784894
 20
444.433407
 10
475.27565
 20
443.749461
  0
HATCH
  5
965
100
AcDbEntity
  8
TRAMAS
  6
CONTINUOUS
100
AcDbHatch
 10
0.0
 20
0.0
 30
0.0
210
0.0
220
0.0
230
1.0
  2
U
 70
     0
 71
     0
 91
       16
 92
        7
 72
     0
 73
     1
 93
        4
 10
1520.174016135968
 20
979.5703286527951
 10
2014.102927499803
 20
979.5703286527951
 10
2014.175601998518
 20
989.5703286527933
 10
1520.174016135968
 20
989.5703286527933
 97
        0
 92
        7
 72
     0
 73
     1
 93
        4
 10
2014.102927499803
 20
979.5703286527952
 10
1520.174016135969
 20
979.5703286527952
 10
1520.174016135969
 20
969.5703286527932
 10
2014.030253001088
 20
969.5703286527932
 97
        0
 92
        7
 72
     0
 73
     1
 93
        4
 10
1520.174016135969
 20
979.5703286527951
 10
1455.696287849345
 20
979.5703286527949
 10
1454.998743143228
 20
969.5703286527932
 10
1520.174016135968
 20
969.5703286527928
 97
        0
 92
        7
 72
     0
 73
     1
 93
        4
 10
1455.696287849345
 20
979.5703286527951
 10
1520.174016135968
 20
979.5703286527951
 10
1520.174016135969
 20
989.5703286527933
 10
1456.393832555461
 20
989.5703286527933
 97
        0
 92
        7
 72
     0
 73
     1
 93
        4
 10
1431.394017804882
 20
979.5703286527949
 10
1455.696287849345
 20
979.5703286527949
 10
1456.393832555461
 20
989.5703286527933
 10
1432.091562510997
 20
989.5703286527933
 97
        0
 92
        7
 72
     0
 73
     1
 93
        4
 10
1455.696287849345
 20
979.5703286527951
 10
1431.394017804882
 20
979.5703286527949
 10
1430.696473098766
 20
969.5703286527932
 10
1454.998743143229
 20
969.5703286527933
 97
        0
 92
        7
 72
     0
 73
     1
 93
        4
 10
1235.319593548973
 20
969.570328652791
 10
1410.696500469157
 20
969.570328652791
 10
1411.394045175273
 20
979.5703286527951
 10
1235.392943061518
 20
979.5703286527949
 97
        0
 92
        7
 72
     0
 73
     1
 93
        4
 10
1235.392943061518
 20
979.5703286527949
 10
1411.394045175273
 20
979.5703286527947
 10
1412.091589881388
 20
989.5703286527909
 10
1235.466292574062
 20
989.5703286527909
 97
        0
 92
        7
 72
     0
 73
     1
 93
        4
 10
1035.245455488512
 20
989.5703286527909
 10
1035.172105975968
 20
979.5703286527949
 10
1215.392943056706
 20
979.5703286527951
 10
1215.46629256925
 20
989.5703286527909
 97
        0
 92
        7
 72
     0
 73
     1
 93
        4
 10
1035.172105975968
 20
979.5703286527949
 10
1035.098756463424
 20
969.570328652791
 10
1215.31959354416
 20
969.570328652791
 10
1215.392943056705
 20
979.5703286527949
 97
        0
 92
        7
 72
     0
 73
     1
 93
        4
 10
980.5392982731937
 20
979.5703286527947
 10
980.5392982731937
 20
969.570328652791
 10
1015.098756468263
 20
969.570328652791
 10
1015.172105980807
 20
979.5703286527949
 97
        0
 92
        7
 72
     0
 73
     1
 93
        4
 10
980.5392982731937
 20
989.5703286527909
 10
980.5392982731937
 20
979.5703286527949
 10
1015.172105980808
 20
979.5703286527949
 10
1015.245455493352
 20
989.5703286527909
 97
        0
 92
        7
 72
     0
 73
     1
 93
        4
 10
965.1424254188905
 20
989.5703286527909
 10
964.7284423565952
 20
979.5703286527949
 10
980.5392982731937
 20
979.5703286527947
 10
980.5392982731937
 20
989.5703286527909
 97
        0
 92
        7
 72
     0
 73
     1
 93
        4
 10
964.7284423565961
 20
979.5703286527949
 10
964.3144592943007
 20
969.5703286527908
 10
980.5392982731929
 20
969.5703286527907
 10
980.5392982731929
 20
979.5703286527947
 97
        0
 92
        7
 72
     0
 73
     1
 93
        4
 10
883.2060573115104
 20
979.5703286527949
 10
882.660274685455
 20
969.5703286527908
 10
964.3144592943007
 20
969.5703286527907
 10
964.7284423565952
 20
979.5703286527949
 97
        0
 92
        7
 72
     0
 73
     1
 93
        4
 10
883.751839937565
 20
989.5703286527909
 10
883.2060573115104
 20
979.5703286527949
 10
964.7284423565961
 20
979.5703286527949
 10
965.1424254188896
 20
989.5703286527909
 97
        0
 75
     0
 76
     0
 52
45.0
 41
0.5
 77
     0
 78
     1
 53
45.0
 43
-4023.474606
 44
-71.617392
 45
-0.3535533905932737
 46
0.3535533905932738
 79
     0
 47
0.075994
 98
       16
 10
527.784546
 20
444.513419
 10
528.164739
 20
444.133456
 10
521.701539
 20
443.829482
 10
521.853613
 20
444.513419
 10
519.952665
 20
444.43743
 10
519.952665
 20
443.905471
 10
516.987199
 20
443.905471
 10
516.987199
 20
444.513419
 10
507.102297
 20
444.513419
 10
506.417956
 20
443.981469
 10
497.901735
 20
443.905471
 10
497.901735
 20
444.361432
 10
496.457024
 20
444.43743
 10
496.457024
 20
443.905471
 10
493.87175
 20
443.829482
 10
493.94778
 20
444.361432
  0
HATCH
  5
966
100
AcDbEntity
  8
TRAMAS
  6
CONTINUOUS
100
AcDbHatch
 10
0.0
 20
0.0
 30
0.0
210
0.0
220
0.0
230
1.0
  2
U
 70
     0
 71
     0
 91
        2
 92
        7
 72
     0
 73
     1
 93
        4
 10
2044.225158886368
 20
979.5703286527952
 10
2797.168225969824
 20
979.5703286527954
 10
2797.240265683909
 20
989.5703286527933
 10
2044.297806225341
 20
989.5703286527933
 97
        0
 92
        7
 72
     0
 73
     1
 93
        4
 10
2797.168225969826
 20
979.5703286527954
 10
2044.22515888637
 20
979.5703286527949
 10
2044.152511547396
 20
969.5703286527932
 10
2797.096186255741
 20
969.5703286527933
 97
        0
 75
     0
 76
     0
 52
45.0
 41
0.5
 77
     0
 78
     1
 53
45.0
 43
-4023.474606
 44
-71.617392
 45
-0.3535533905932737
 46
0.3535533905932738
 79
     0
 47
0.075994
 98
        2
 10
585.618992
 20
444.361823
 10
585.314844
 20
443.905862
  0
HATCH
  5
967
100
AcDbEntity
  8
TRAMAS
  6
CONTINUOUS
100
AcDbHatch
 10
0.0
 20
0.0
 30
0.0
210
0.0
220
0.0
230
1.0
  2
U
 70
     0
 71
     0
 91
       12
 92
        7
 72
     0
 73
     1
 93
        4
 10
2918.773395907981
 20
979.5703286527954
 10
3020.33892283209
 20
979.5703286527954
 10
3020.412272344634
 20
989.5703286527909
 10
2918.77339590798
 20
989.5703286527908
 97
        0
 92
        7
 72
     0
 73
     1
 93
        4
 10
3020.338922832091
 20
979.5703286527954
 10
2918.77339590798
 20
979.5703286527954
 10
2918.77339590798
 20
969.570328652791
 10
3020.265573319547
 20
969.570328652791
 97
        0
 92
        7
 72
     0
 73
     1
 93
        4
 10
3220.56159398799
 20
979.5703286527954
 10
3040.338920796878
 20
979.5703286527954
 10
3040.265571284334
 20
969.570328652791
 10
3220.488244475447
 20
969.570328652791
 97
        0
 92
        7
 72
     0
 73
     1
 93
        4
 10
3040.338920796878
 20
979.5703286527954
 10
3220.561593987989
 20
979.5703286527954
 10
3220.634943500534
 20
989.5703286527909
 10
3040.412270309422
 20
989.5703286527909
 97
        0
 92
        7
 72
     0
 73
     1
 93
        4
 10
3240.561591952771
 20
979.5703286527954
 10
3266.635980901777
 20
979.5703286527954
 10
3267.205001141736
 20
989.5703286527909
 10
3240.634941465314
 20
989.5703286527909
 97
        0
 92
        7
 72
     0
 73
     1
 93
        4
 10
3266.635980901775
 20
979.5703286527954
 10
3240.561591952772
 20
979.5703286527954
 10
3240.488242440227
 20
969.5703286527908
 10
3266.066960661818
 20
969.5703286527908
 97
        0
 92
        7
 72
     0
 73
     1
 93
        4
 10
3266.635980901777
 20
979.5703286527954
 10
3284.735787210346
 20
979.5703286527954
 10
3285.304807450299
 20
989.5703286527908
 10
3267.205001141736
 20
989.5703286527908
 97
        0
 92
        7
 72
     0
 73
     1
 93
        4
 10
3284.735787210346
 20
979.5703286527954
 10
3266.635980901777
 20
979.5703286527952
 10
3266.066960661818
 20
969.570328652791
 10
3284.166766970392
 20
969.570328652791
 97
        0
 92
        7
 72
     0
 73
     1
 93
        4
 10
2918.77339590798
 20
979.5703286527954
 10
2837.136965737146
 20
979.5703286527954
 10
2837.064926023063
 20
969.570328652791
 10
2918.77339590798
 20
969.570328652791
 97
        0
 92
        7
 72
     0
 73
     1
 93
        4
 10
2837.136965737147
 20
979.5703286527952
 10
2918.77339590798
 20
979.5703286527951
 10
2918.77339590798
 20
989.5703286527909
 10
2837.20900545123
 20
989.5703286527908
 97
        0
 92
        7
 72
     0
 73
     1
 93
        4
 10
2797.168225969825
 20
979.5703286527954
 10
2817.137013989333
 20
979.5703286527952
 10
2817.209053703415
 20
989.5703286527933
 10
2797.240265683909
 20
989.5703286527933
 97
        0
 92
        7
 72
     0
 73
     1
 93
        4
 10
2817.137013989335
 20
979.5703286527954
 10
2797.168225969826
 20
979.5703286527954
 10
2797.096186255742
 20
969.5703286527932
 10
2817.064974275249
 20
969.5703286527932
 97
        0
 75
     0
 76
     0
 52
45.0
 41
0.5
 77
     0
 78
     1
 53
45.0
 43
-4023.474606
 44
-71.617392
 45
-0.3535533905932737
 46
0.3535533905932738
 79
     0
 47
0.075994
 98
       12
 10
596.075796
 20
444.376108
 10
595.847692
 20
443.76816
 10
601.626551
 20
443.920147
 10
601.778625
 20
444.528095
 10
610.44692
 20
444.452107
 10
610.44692
 20
443.844159
 10
611.739557
 20
444.528095
 10
611.511453
 20
443.844159
 10
591.589574
 20
443.920147
 10
591.817692
 20
444.528095
 10
588.395989
 20
444.452107
 10
588.243915
 20
443.996146
  0
HATCH
  5
968
100
AcDbEntity
  8
TRAMAS
  6
CONTINUOUS
100
AcDbHatch
 10
0.0
 20
0.0
 30
0.0
210
0.0
220
0.0
230
1.0
  2
U
 70
     0
 71
     1
 91
       10
 92
        7
 72
     0
 73
     1
 93
        4
 10
2840.018554300507
 20
1379.570328652793
 10
2918.773395907984
 20
1379.570328652793
 10
2918.773395907985
 20
1389.570328652791
 10
2840.090594014591
 20
1389.57032865279
 97
        4
330
9CB
330
9B8
330
99E
330
9BC
 92
        7
 72
     0
 73
     1
 93
        4
 10
2918.773395907985
 20
1379.570328652793
 10
2840.018554300508
 20
1379.570328652793
 10
2839.946514586424
 20
1369.570328652791
 10
2918.773395907984
 20
1369.570328652791
 97
        4
330
99E
330
9B8
330
9CC
330
9BC
 92
        7
 72
     0
 73
     1
 93
        4
 10
2918.773395907985
 20
1379.570328652793
 10
3023.272903333858
 20
1379.570328652793
 10
3023.346252846402
 20
1389.570328652791
 10
2918.773395907983
 20
1389.570328652791
 97
        4
330
9CB
330
9BC
330
99E
330
9CF
 92
        7
 72
     0
 73
     1
 93
        4
 10
3023.272903333857
 20
1379.570328652793
 10
2918.773395907984
 20
1379.570328652793
 10
2918.773395907984
 20
1369.570328652791
 10
3023.199553821313
 20
1369.570328652791
 97
        4
330
99E
330
9BC
330
9CC
330
9CF
 92
        7
 72
     0
 73
     1
 93
        4
 10
3043.272901298655
 20
1379.570328652793
 10
3223.49557448976
 20
1379.570328652793
 10
3223.568924002304
 20
1389.570328652791
 10
3043.346250811198
 20
1389.57032865279
 97
        4
330
9CB
330
9D0
330
99E
330
9CE
 92
        7
 72
     0
 73
     1
 93
        4
 10
3223.495574489759
 20
1379.570328652793
 10
3043.272901298655
 20
1379.570328652793
 10
3043.199551786111
 20
1369.570328652791
 10
3223.422224977216
 20
1369.570328652791
 97
        4
330
99E
330
9D0
330
9CC
330
9CE
 92
        7
 72
     0
 73
     1
 93
        4
 10
3243.495572454543
 20
1379.570328652793
 10
3289.396790500111
 20
1379.570328652793
 10
3289.96581074007
 20
1389.570328652791
 10
3243.568921967087
 20
1389.570328652791
 97
        4
330
9CB
330
9CD
330
99E
330
9EE
 92
        7
 72
     0
 73
     1
 93
        4
 10
3289.396790500112
 20
1379.570328652793
 10
3243.495572454543
 20
1379.570328652793
 10
3243.422222941997
 20
1369.570328652791
 10
3288.827770260152
 20
1369.57032865279
 97
        4
330
99E
330
9CD
330
9CC
330
9EE
 92
        7
 72
     0
 73
     1
 93
        4
 10
3289.396790500112
 20
1379.570328652793
 10
3307.496596808684
 20
1379.570328652793
 10
3308.065617048649
 20
1389.570328652791
 10
3289.96581074007
 20
1389.570328652791
 97
        4
330
9CB
330
9EE
330
99E
330
9A3
 92
        7
 72
     0
 73
     1
 93
        4
 10
3307.496596808686
 20
1379.570328652793
 10
3289.396790500112
 20
1379.570328652793
 10
3288.827770260154
 20
1369.570328652791
 10
3306.927576568721
 20
1369.570328652791
 97
        4
330
99E
330
9EE
330
9CC
330
9A3
 75
     0
 76
     0
 52
45.0
 41
0.5
 77
     0
 78
     1
 53
45.0
 43
-4023.474606
 44
-71.617392
 45
-0.3535533905932737
 46
0.3535533905932738
 79
     0
 47
0.075994
 98
       10
 10
591.817692
 20
464.438418
 10
591.741648
 20
463.83047
 10
596.303914
 20
464.362419
 10
597.672595
 20
463.83047
 10
601.550506
 20
464.286431
 10
606.188802
 20
463.83047
 10
610.675038
 20
464.362419
 10
611.283335
 20
463.906458
 10
612.652016
 20
464.438418
 10
612.652016
 20
463.83047
  0
HATCH
  5
969
100
AcDbEntity
  8
TRAMAS
  6
CONTINUOUS
100
AcDbHatch
 10
0.0
 20
0.0
 30
0.0
210
0.0
220
0.0
230
1.0
  2
U
 70
     0
 71
     0
 91
        8
 92
        7
 72
     0
 73
     1
 93
        3
 10
593.8591737644555
 20
482.6812776740305
 10
593.8591737644555
 20
483.5359850097428
 10
581.0098019721927
 20
482.6812776740305
 97
        0
 92
        7
 72
     0
 73
     1
 93
        5
 10
599.2213800424424
 20
482.8904554085152
 10
599.2287347911861
 20
483.8931544708883
 10
593.8591737644546
 20
483.5359850097427
 10
593.8591737644546
 20
482.6812776740305
 10
596.0766749852227
 20
482.6812776740305
 97
        0
 92
        7
 72
     0
 73
     1
 93
        5
 10
609.2374004385273
 20
483.5566954586579
 10
609.2419817186319
 20
484.1812776740304
 10
603.560278472235
 20
484.1812776740304
 10
600.229222829731
 20
483.9597043754021
 10
600.2218680809855
 20
482.9570053130289
 97
        0
 92
        7
 72
     0
 73
     1
 93
        3
 10
609.2419817186319
 20
484.1812776740304
 10
609.2447551872737
 20
484.559394521031
 10
603.5602784722368
 20
484.1812776740304
 97
        0
 92
        7
 72
     0
 73
     1
 93
        4
 10
613.5283839739786
 20
484.1812776740304
 10
613.5662563706773
 20
484.8468497229241
 10
610.2452432258169
 20
484.6259444255448
 10
610.2419816168694
 20
484.1812776740304
 97
        0
 92
        7
 72
     0
 73
     1
 93
        4
 10
610.2419816168703
 20
484.1812776740304
 10
610.2378884770715
 20
483.6232453631716
 10
613.5090119332407
 20
483.8408321261051
 10
613.5283839739786
 20
484.1812776740304
 97
        0
 92
        7
 72
     0
 73
     1
 93
        4
 10
613.5662563706755
 20
484.8468497229239
 10
613.5283839739777
 20
484.1812776740304
 10
614.4333742894059
 20
484.1812776740304
 10
614.474685067872
 20
484.9072760755907
 97
        0
 92
        7
 72
     0
 73
     1
 93
        4
 10
614.4174406304382
 20
483.9012584787719
 10
614.4333742894059
 20
484.1812776740304
 10
613.5283839739777
 20
484.1812776740306
 10
613.5090119332407
 20
483.8408321261051
 97
        0
 75
     0
 76
     0
 52
45.0
 41
0.5
 77
     0
 78
     1
 53
45.0
 43
-4023.474606
 44
-71.617392
 45
-0.3535533905932737
 46
0.3535533905932738
 79
     0
 47
0.075994
 98
        8
 10
589.850402
 20
482.950586
 10
596.46569
 20
483.178562
 10
602.01643
 20
483.406547
 10
608.631703
 20
484.31847
 10
612.357555
 20
484.470457
 10
611.216992
 20
483.938497
 10
614.106428
 20
484.546445
 10
613.650191
 20
483.938497
  0
HATCH
  5
96A
100
AcDbEntity
  8
TRAMAS
  6
CONTINUOUS
100
AcDbHatch
 10
0.0
 20
0.0
 30
0.0
210
0.0
220
0.0
230
1.0
  2
U
 70
     0
 71
     1
 91
        6
 92
        7
 72
     0
 73
     1
 93
        4
 10
1640.833360526649
 20
1661.61497703567
 10
1821.140159211773
 20
1673.608523958156
 10
1821.287254186679
 20
1693.662505205615
 10
1640.980455501555
 20
1681.668958283129
 97
        4
330
9AE
330
9DA
330
9B2
330
9D7
 92
        7
 72
     0
 73
     1
 93
        4
 10
1841.149922023722
 20
1674.939522184196
 10
2020.383740215691
 20
1686.861697189564
 10
2020.383740215691
 20
1706.905894055645
 10
1841.297016998631
 20
1694.993503431656
 97
        4
330
9BD
330
9AE
330
9D8
330
9B2
 92
        7
 72
     0
 73
     1
 93
        4
 10
2041.466483520816
 20
1688.264067332724
 10
2221.773684356612
 20
1700.257641005244
 10
2221.92077933152
 20
1720.311622252704
 10
2041.613578495724
 20
1708.318048580184
 97
        4
330
9D5
330
9AE
330
9BB
330
9B2
 92
        7
 72
     0
 73
     1
 93
        4
 10
2241.783447168561
 20
1701.588639231284
 10
2422.09024585369
 20
1713.582186153771
 10
2422.237340828596
 20
1733.636167401231
 10
2241.93054214347
 20
1721.642620478745
 97
        4
330
9D3
330
9AE
330
9D6
330
9B2
 92
        7
 72
     0
 73
     1
 93
        4
 10
2442.100008665637
 20
1714.913184379811
 10
2622.406807350763
 20
1726.906731302297
 10
2622.55390232567
 20
1746.960712549758
 10
2442.247103640544
 20
1734.967165627271
 97
        4
330
9D2
330
9AE
330
9D4
330
9B2
 92
        7
 72
     0
 73
     1
 93
        5
 10
2642.41657016273
 20
1728.237729528339
 10
2918.773395907988
 20
1746.620278500956
 10
2918.773395907986
 20
1749.570328652795
 10
2661.785960062787
 20
1749.570328652795
 10
2642.563665137637
 20
1748.291710775799
 97
        5
330
9BC
330
9FF
330
9AE
330
9D1
330
9B2
 75
     0
 76
     0
 52
45.0
 41
0.5
 77
     0
 78
     1
 53
45.0
 43
-4023.474606
 44
-71.617392
 45
-0.3535533905932737
 46
0.3535533905932738
 79
     0
 47
0.075994
 98
        6
 10
536.418679
 20
479.224428
 10
542.957923
 20
479.452414
 10
552.158485
 20
480.13636
 10
562.575639
 20
480.744309
 10
572.080349
 20
481.276258
 10
581.128837
 20
482.340168
  0
HATCH
  5
96B
100
AcDbEntity
  8
TRAMAS
  6
CONTINUOUS
100
AcDbHatch
 10
0.0
 20
0.0
 30
0.0
210
0.0
220
0.0
230
1.0
  2
U
 70
     0
 71
     1
 91
        8
 92
        7
 72
     0
 73
     1
 93
        4
 10
494.5239697782181
 20
1605.409606132333
 10
494.7263339982537
 20
1585.378870016409
 10
619.2383766292732
 20
1593.661092520495
 10
619.3854716041796
 20
1613.715073767955
 97
        4
330
9AE
330
9B6
330
9B2
330
9DB
 92
        7
 72
     0
 73
     1
 93
        4
 10
639.3952344064364
 20
1615.046071993351
 10
639.2481394315282
 20
1594.992090745891
 10
819.5549381263299
 20
1606.985637669021
 10
819.7020331012382
 20
1627.03961891648
 97
        4
330
9AE
330
9DC
330
9B2
330
9DD
 92
        7
 72
     0
 73
     1
 93
        4
 10
839.7117959035112
 20
1628.370617141877
 10
839.5647009286031
 20
1608.316635894418
 10
980.5392982732072
 20
1617.693905417591
 10
980.5392982732072
 20
1637.738102283672
 97
        4
330
9BF
330
9AE
330
9DE
330
9B2
 92
        7
 72
     0
 73
     1
 93
        4
 10
1040.028759551258
 20
1641.695189040438
 10
1039.88166457635
 20
1621.641207792978
 10
1220.19047472053
 20
1633.634888512575
 10
1220.337569695437
 20
1653.688869760034
 97
        4
330
9C1
330
9AE
330
9E0
330
9B2
 92
        7
 72
     0
 73
     1
 93
        4
 10
1240.347332507388
 20
1655.019867986075
 10
1240.200237532479
 20
1634.965886738615
 10
1420.507036217605
 20
1646.959433661101
 10
1420.654131192511
 20
1667.013414908561
 97
        4
330
9C9
330
9AE
330
9C2
330
9B2
 92
        7
 72
     0
 73
     1
 93
        4
 10
1520.174016135969
 20
1653.589026161164
 10
1520.17401613597
 20
1673.633223027246
 10
1440.663894004464
 20
1668.344413134602
 10
1440.516799029556
 20
1648.290431887141
 97
        4
330
9AE
330
9CA
330
9B2
330
9BE
 92
        7
 72
     0
 73
     1
 93
        4
 10
1520.174016135969
 20
1673.633223027245
 10
1520.174016135969
 20
1653.589026161164
 10
1620.823597714698
 20
1660.283978809629
 10
1620.970692689606
 20
1680.337960057089
 97
        4
330
9AE
330
9BE
330
9B2
330
9D9
 92
        7
 72
     0
 73
     1
 93
        4
 10
980.5392982732083
 20
1637.738102283672
 10
980.5392982732072
 20
1617.693905417592
 10
1019.871901774095
 20
1620.310209567583
 10
1020.018996749002
 20
1640.364190815042
 97
        4
330
9AE
330
9BF
330
9B2
330
9DF
 75
     0
 76
     0
 52
45.0
 41
0.5
 77
     0
 78
     1
 53
45.0
 43
-4023.474606
 44
-71.617392
 45
-0.3535533905932737
 46
0.3535533905932738
 79
     0
 47
0.075994
 98
        8
 10
475.442675
 20
475.033619
 10
483.654748
 20
475.641567
 10
491.334555
 20
476.021539
 10
500.915294
 20
476.781475
 10
513.157367
 20
477.54141
 10
521.36944
 20
478.07336
 10
525.247351
 20
478.453332
 10
498.025873
 20
476.553489
  0
HATCH
  5
96C
100
AcDbEntity
  8
TRAMAS
  6
CONTINUOUS
100
AcDbHatch
 10
0.0
 20
0.0
 30
0.0
210
0.0
220
0.0
230
1.0
  2
U
 70
     0
 71
     0
 91
       16
 92
        7
 72
     0
 73
     1
 93
        4
 10
610.2419816168703
 20
484.1812776740304
 10
610.2452432258187
 20
484.6259444255447
 10
609.2447551872728
 20
484.5593945210309
 10
609.2419817186319
 20
484.1812776740304
 97
        0
 92
        7
 72
     0
 73
     1
 93
        4
 10
610.2378884770724
 20
483.6232453631716
 10
610.2419816168703
 20
484.1812776740304
 10
609.2419817186327
 20
484.1812776740304
 10
609.2374004385292
 20
483.5566954586579
 97
        0
 92
        7
 72
     0
 73
     1
 93
        4
 10
610.2309791899897
 20
482.6812776740305
 10
610.2378884770732
 20
483.6232453631716
 10
609.2374004385283
 20
483.5566954586579
 10
609.2309792917504
 20
482.6812776740305
 97
        0
 92
        7
 72
     0
 73
     1
 93
        4
 10
609.098950169171
 20
464.6812776740303
 10
610.0989500674104
 20
464.6812776740303
 10
610.2309791899897
 20
482.6812776740305
 10
609.2309792917513
 20
482.6812776740305
 97
        0
 92
        7
 72
     0
 73
     1
 93
        4
 10
609.098950169171
 20
464.6812776740302
 10
609.0952826935436
 20
464.1812776740303
 10
610.095282591782
 20
464.1812776740304
 10
610.0989500674086
 20
464.6812776740303
 97
        0
 92
        7
 72
     0
 73
     1
 93
        4
 10
610.0916151161555
 20
463.6812776740304
 10
610.0952825917829
 20
464.1812776740304
 10
609.0952826935445
 20
464.1812776740305
 10
609.0916152179179
 20
463.6812776740304
 97
        0
 92
        7
 72
     0
 73
     1
 93
        4
 10
610.0916151161546
 20
463.6812776740303
 10
609.0916152179161
 20
463.6812776740304
 10
609.0137312477054
 20
453.0630789281249
 10
610.0145017200138
 20
453.1681340325818
 97
        0
 92
        7
 72
     0
 73
     1
 93
        4
 10
610.0145017200148
 20
453.1681340325819
 10
609.0137312477054
 20
453.0630789281249
 10
608.9522511440819
 20
444.6812776740302
 10
609.9522510423203
 20
444.6812776740302
 97
        0
 92
        7
 72
     0
 73
     1
 93
        4
 10
608.9522511440819
 20
444.6812776740302
 10
608.9485836684543
 20
444.1812776740305
 10
609.9485835666937
 20
444.1812776740305
 10
609.9522510423203
 20
444.6812776740302
 97
        0
 92
        7
 72
     0
 73
     1
 93
        4
 10
608.9485836684543
 20
444.1812776740305
 10
608.9449161928269
 20
443.6812776740302
 10
609.9449160910662
 20
443.6812776740302
 10
609.9485835666937
 20
444.1812776740305
 97
        0
 92
        7
 72
     0
 73
     1
 93
        4
 10
608.8055521189944
 20
424.6812776740303
 10
609.8055520172329
 20
424.6812776740303
 10
609.9449160910681
 20
443.6812776740302
 10
608.9449161928278
 20
443.6812776740303
 97
        0
 92
        7
 72
     0
 73
     1
 93
        4
 10
608.8055521189944
 20
424.6812776740303
 10
608.8018846433678
 20
424.1812776740306
 10
609.8018845416045
 20
424.1812776740305
 10
609.8055520172319
 20
424.6812776740303
 97
        0
 92
        7
 72
     0
 73
     1
 93
        4
 10
608.8018846433669
 20
424.1812776740305
 10
608.7982171677404
 20
423.6812776740303
 10
609.7982170659779
 20
423.6812776740303
 10
609.8018845416045
 20
424.1812776740304
 97
        0
 92
        7
 72
     0
 73
     1
 93
        4
 10
608.7982171677404
 20
423.6812776740303
 10
608.7945496921129
 20
423.1812776740305
 10
609.7945495903505
 20
423.1812776740305
 10
609.7982170659788
 20
423.6812776740302
 97
        0
 92
        7
 72
     0
 73
     1
 93
        4
 10
608.794549692111
 20
423.1812776740304
 10
608.7621536341003
 20
418.7646078301234
 10
609.7648281742367
 20
419.1292512756604
 10
609.7945495903513
 20
423.1812776740305
 97
        0
 92
        7
 72
     0
 73
     1
 93
        4
 10
608.7561349010656
 20
417.9440525426878
 10
609.7563799726968
 20
417.9774779036306
 10
609.7648281742376
 20
419.1292512756612
 10
608.7621536341011
 20
418.7646078301238
 97
        0
 75
     0
 76
     0
 52
45.0
 41
0.5
 77
     0
 78
     1
 53
45.0
 43
-4023.474606
 44
-71.617392
 45
-0.3535533905932737
 46
0.3535533905932738
 79
     0
 47
0.123997
 98
       16
 10
609.757255
 20
484.29855
 10
609.757255
 20
483.802563
 10
609.757255
 20
483.058584
 10
609.633191
 20
481.570624
 10
609.881319
 20
464.583052
 10
609.757255
 20
463.839063
 10
609.633191
 20
461.731115
 10
609.757255
 20
451.563372
 10
609.509113
 20
444.49555
 10
609.633191
 20
443.999563
 10
609.260985
 20
442.635596
 10
609.260985
 20
424.532049
 10
609.260985
 20
424.036063
 10
609.385049
 20
423.540076
 10
609.260985
 20
422.796096
 10
609.136906
 20
418.4562
  0
HATCH
  5
96D
100
AcDbEntity
  8
TRAMAS
  6
CONTINUOUS
100
AcDbHatch
 10
0.0
 20
0.0
 30
0.0
210
0.0
220
0.0
230
1.0
  2
U
 70
     0
 71
     0
 91
       13
 92
        7
 72
     0
 73
     1
 93
        4
 10
599.2213800424424
 20
482.8904554085152
 10
600.2218680809855
 20
482.9570053130288
 10
600.229222829731
 20
483.9597043754021
 10
599.2287347911861
 20
483.8931544708882
 97
        0
 92
        7
 72
     0
 73
     1
 93
        4
 10
599.2213800424406
 20
482.8904554085152
 10
599.2198457339545
 20
482.6812776740305
 10
600.2198456321949
 20
482.6812776740305
 10
600.2218680809865
 20
482.9570053130289
 97
        0
 92
        7
 72
     0
 73
     1
 93
        4
 10
600.219845632193
 20
482.6812776740305
 10
599.2198457339545
 20
482.6812776740305
 10
599.0878166113752
 20
464.6812776740302
 10
600.0878165096146
 20
464.6812776740302
 97
        0
 92
        7
 72
     0
 73
     1
 93
        4
 10
599.0878166113752
 20
464.6812776740302
 10
599.0841491357486
 20
464.1812776740303
 10
600.0841490339881
 20
464.1812776740303
 10
600.0878165096155
 20
464.6812776740303
 97
        0
 92
        7
 72
     0
 73
     1
 93
        4
 10
599.0841491357477
 20
464.1812776740303
 10
599.0804816601203
 20
463.6812776740302
 10
600.0804815583596
 20
463.6812776740302
 10
600.0841490339862
 20
464.1812776740303
 97
        0
 92
        7
 72
     0
 73
     1
 93
        4
 10
600.0804815583615
 20
463.6812776740304
 10
599.0804816601203
 20
463.6812776740303
 10
598.941117586286
 20
444.6812776740302
 10
599.9411174845254
 20
444.6812776740302
 97
        0
 92
        7
 72
     0
 73
     1
 93
        4
 10
598.941117586286
 20
444.6812776740302
 10
598.9374501106595
 20
444.1812776740305
 10
599.9374500088988
 20
444.1812776740305
 10
599.9411174845254
 20
444.6812776740302
 97
        0
 92
        7
 72
     0
 73
     1
 93
        4
 10
599.9337825332713
 20
443.6812776740302
 10
599.9374500088988
 20
444.1812776740304
 10
598.9374501106595
 20
444.1812776740304
 10
598.933782635032
 20
443.6812776740302
 97
        0
 92
        7
 72
     0
 73
     1
 93
        4
 10
599.9337825332695
 20
443.6812776740302
 10
598.9337826350329
 20
443.6812776740303
 10
598.7944185611986
 20
424.6812776740302
 10
599.7944184594371
 20
424.6812776740302
 97
        0
 92
        7
 72
     0
 73
     1
 93
        4
 10
598.7944185611986
 20
424.6812776740303
 10
598.7907510855712
 20
424.1812776740304
 10
599.7907509838096
 20
424.1812776740304
 10
599.7944184594371
 20
424.6812776740303
 97
        0
 92
        7
 72
     0
 73
     1
 93
        4
 10
598.7907510855712
 20
424.1812776740305
 10
598.7870836099455
 20
423.6812776740302
 10
599.7870835081821
 20
423.6812776740302
 10
599.7907509838096
 20
424.1812776740304
 97
        0
 92
        7
 72
     0
 73
     1
 93
        4
 10
599.7834160325546
 20
423.1812776740304
 10
599.7870835081831
 20
423.6812776740302
 10
598.7870836099436
 20
423.6812776740302
 10
598.7834161343153
 20
423.1812776740304
 97
        0
 92
        7
 72
     0
 73
     1
 93
        4
 10
599.7834160325546
 20
423.1812776740304
 10
598.7834161343171
 20
423.1812776740304
 10
598.7425468794372
 20
417.6094267560203
 10
599.7427919510682
 20
417.6428521169631
 97
        0
 75
     0
 76
     0
 52
45.0
 41
0.5
 77
     0
 78
     1
 53
45.0
 43
-4023.474606
 44
-71.617392
 45
-0.3535533905932737
 46
0.3535533905932738
 79
     0
 47
0.123997
 98
       13
 10
599.459551
 20
483.306577
 10
599.955821
 20
482.81059
 10
600.079885
 20
481.942609
 10
599.459551
 20
464.459051
 10
599.707679
 20
464.087056
 10
599.955821
 20
462.10311
 10
599.583615
 20
444.49555
 10
599.211408
 20
443.875562
 10
599.459551
 20
442.139609
 10
599.211408
 20
424.532049
 10
599.211408
 20
424.036063
 10
599.335472
 20
423.416075
 10
599.583615
 20
422.796096
  0
HATCH
  5
96E
100
AcDbEntity
  8
TRAMAS
  6
CONTINUOUS
100
AcDbHatch
 10
0.0
 20
0.0
 30
0.0
210
0.0
220
0.0
230
1.0
  2
U
 70
     0
 71
     0
 91
       13
 92
        7
 72
     0
 73
     1
 93
        4
 10
588.9771466758957
 20
471.914870167709
 10
589.9776237475943
 20
471.9814284975855
 10
590.0518181054958
 20
482.2805196093585
 10
589.0513410997819
 20
482.2139704387204
 97
        0
 92
        7
 72
     0
 73
     1
 93
        4
 10
588.9626999613637
 20
469.909488175686
 10
589.9631770330615
 20
469.9760465055627
 10
589.9776237475953
 20
471.9814284975856
 10
588.9771466758975
 20
471.9148701677089
 97
        0
 92
        7
 72
     0
 73
     1
 93
        4
 10
588.9250360823925
 20
464.6812776740302
 10
589.9250336697851
 20
464.6812776740302
 10
589.9631770330615
 20
469.9760465055628
 10
588.9626999613637
 20
469.9094881756861
 97
        0
 92
        7
 72
     0
 73
     1
 93
        4
 10
589.9214316840807
 20
464.1812776740303
 10
589.9250336697851
 20
464.6812776740302
 10
588.9250360823943
 20
464.6812776740302
 10
588.92143409669
 20
464.1812776740303
 97
        0
 92
        7
 72
     0
 73
     1
 93
        4
 10
588.92143409669
 20
464.1812776740303
 10
588.9178321109857
 20
463.6812776740303
 10
589.9178296983763
 20
463.6812776740303
 10
589.9214316840798
 20
464.1812776740303
 97
        0
 92
        7
 72
     0
 73
     1
 93
        4
 10
588.7809566542255
 20
444.6812776740301
 10
589.7809542416171
 20
444.68127767403
 10
589.9178296983763
 20
463.6812776740304
 10
588.9178321109857
 20
463.6812776740303
 97
        0
 92
        7
 72
     0
 73
     1
 93
        4
 10
588.7809566542264
 20
444.6812776740302
 10
588.777354668522
 20
444.1812776740304
 10
589.7773522559118
 20
444.1812776740304
 10
589.7809542416162
 20
444.6812776740302
 97
        0
 92
        7
 72
     0
 73
     1
 93
        4
 10
588.777354668522
 20
444.1812776740305
 10
588.7737526828186
 20
443.6812776740302
 10
589.7737502702093
 20
443.6812776740302
 10
589.7773522559127
 20
444.1812776740305
 97
        0
 92
        7
 72
     0
 73
     1
 93
        4
 10
588.6368772260594
 20
424.6812776740303
 10
589.6368748134491
 20
424.6812776740303
 10
589.7737502702084
 20
443.6812776740302
 10
588.7737526828186
 20
443.6812776740302
 97
        0
 92
        7
 72
     0
 73
     1
 93
        4
 10
588.6368772260594
 20
424.6812776740303
 10
588.6332752403541
 20
424.1812776740304
 10
589.6332728277448
 20
424.1812776740304
 10
589.6368748134491
 20
424.6812776740303
 97
        0
 92
        7
 72
     0
 73
     1
 93
        4
 10
588.6332752403541
 20
424.1812776740305
 10
588.6296732546506
 20
423.6812776740302
 10
589.6296708420395
 20
423.6812776740302
 10
589.6332728277439
 20
424.1812776740306
 97
        0
 92
        7
 72
     0
 73
     1
 93
        4
 10
589.6260688563361
 20
423.1812776740304
 10
589.6296708420395
 20
423.6812776740302
 10
588.6296732546516
 20
423.6812776740303
 10
588.6260712689463
 20
423.1812776740304
 97
        0
 92
        7
 72
     0
 73
     1
 93
        4
 10
589.6260688563361
 20
423.1812776740305
 10
588.6260712689472
 20
423.1812776740305
 10
588.5834861590747
 20
417.2699396832535
 10
589.583724540199
 20
417.3033648206184
 97
        0
 75
     0
 76
     0
 52
45.0
 41
0.5
 77
     0
 78
     1
 53
45.0
 43
-4023.474606
 44
-71.617392
 45
-0.3535533905932737
 46
0.3535533905932738
 79
     0
 47
0.123997
 98
       13
 10
589.409974
 20
476.114763
 10
589.409974
 20
471.27888
 10
589.409974
 20
467.434979
 10
589.409974
 20
464.335049
 10
589.409974
 20
463.963064
 10
589.409974
 20
462.84709
 10
589.409974
 20
444.49555
 10
589.409974
 20
443.999563
 10
589.161831
 20
442.635596
 10
589.037767
 20
424.532049
 10
589.161831
 20
424.036063
 10
588.913689
 20
423.416075
 10
589.161831
 20
422.30011
  0
HATCH
  5
96F
100
AcDbEntity
  8
TRAMAS
  6
CONTINUOUS
100
AcDbHatch
 10
0.0
 20
0.0
 30
0.0
210
0.0
220
0.0
230
1.0
  2
U
 70
     0
 71
     0
 91
       13
 92
        7
 72
     0
 73
     1
 93
        4
 10
548.9396909798397
 20
465.9941307263247
 10
550.2908795130387
 20
466.0840206944832
 10
550.2999849039469
 20
467.3373895084464
 10
548.9396909798397
 20
467.2468937896627
 97
        0
 92
        7
 72
     0
 73
     1
 93
        4
 10
550.2908795130379
 20
466.0840206944831
 10
548.9396909798397
 20
465.9941307263247
 10
548.9396909798397
 20
464.1812776740303
 10
550.2770565913206
 20
464.1812776740304
 97
        0
 92
        7
 72
     0
 73
     1
 93
        4
 10
550.2770565913197
 20
464.1812776740303
 10
548.9396909798387
 20
464.1812776740303
 10
548.9396909798397
 20
444.6812776740304
 10
550.1353942803225
 20
444.6812776740304
 97
        0
 92
        7
 72
     0
 73
     1
 93
        4
 10
548.9396909798406
 20
464.1812776740303
 10
548.7709993414774
 20
464.1812776740303
 10
548.6292840689802
 20
444.6812776740303
 10
548.9396909798397
 20
444.6812776740302
 97
        0
 92
        7
 72
     0
 73
     1
 93
        4
 10
550.1317619133724
 20
444.1812776740305
 10
550.1353942803206
 20
444.6812776740304
 10
548.9396909798387
 20
444.6812776740302
 10
548.9396909798387
 20
444.1812776740304
 97
        0
 92
        7
 72
     0
 73
     1
 93
        4
 10
550.1281295464259
 20
443.6812776740303
 10
550.1317619133742
 20
444.1812776740304
 10
548.9396909798387
 20
444.1812776740304
 10
548.9396909798387
 20
443.6812776740304
 97
        0
 92
        7
 72
     0
 73
     1
 93
        4
 10
548.9396909798387
 20
443.6812776740303
 10
548.6220166191096
 20
443.6812776740303
 10
548.4803013466126
 20
424.1812776740304
 10
548.9396909798397
 20
424.1812776740304
 97
        0
 92
        7
 72
     0
 73
     1
 93
        4
 10
550.1281295464241
 20
443.6812776740303
 10
548.9396909798397
 20
443.6812776740304
 10
548.9396909798397
 20
424.1812776740304
 10
549.9864672354278
 20
424.1812776740304
 97
        0
 92
        7
 72
     0
 73
     1
 93
        4
 10
548.9396909798397
 20
423.1812776740305
 10
549.9792025015303
 20
423.1812776740305
 10
549.9864672354278
 20
424.1812776740304
 10
548.9396909798397
 20
424.1812776740304
 97
        0
 92
        7
 72
     0
 73
     1
 93
        4
 10
548.9396909798397
 20
424.1812776740304
 10
548.4803013466116
 20
424.1812776740305
 10
548.4730338967401
 20
423.1812776740305
 10
548.9396909798397
 20
423.1812776740304
 97
        0
 92
        7
 72
     0
 73
     1
 93
        4
 10
548.4203196132766
 20
415.9278002651527
 10
548.9396909798397
 20
415.9451561870993
 10
548.9396909798397
 20
423.1812776740304
 10
548.473033896741
 20
423.1812776740305
 97
        0
 92
        7
 72
     0
 73
     1
 93
        4
 10
549.9792025015294
 20
423.1812776740304
 10
548.9396909798397
 20
423.1812776740304
 10
548.9396909798387
 20
415.9451561870993
 10
549.9268736597151
 20
415.9781450398586
 97
        0
 92
        7
 72
     0
 73
     1
 93
        4
 10
549.9214207441363
 20
415.2275441704362
 10
549.9268736597159
 20
415.9781450398587
 10
548.9396909798397
 20
415.9451561870993
 10
548.9396909798397
 20
415.1947375386909
 97
        0
 75
     0
 76
     0
 52
45.0
 41
0.5
 77
     0
 78
     1
 53
45.0
 43
-4023.474606
 44
-71.617392
 45
-0.3535533905932737
 46
0.3535533905932738
 79
     0
 47
0.110429
 98
       13
 10
549.347577
 20
466.508947
 10
549.789543
 20
464.962946
 10
549.679055
 20
462.975221
 10
548.795109
 20
447.294328
 10
549.458065
 20
444.423174
 10
549.679055
 20
443.871031
 10
548.795109
 20
427.858852
 10
549.568567
 20
430.177862
 10
549.347577
 20
423.662554
 10
548.795109
 20
423.662554
 10
548.684621
 20
420.128838
 10
549.458065
 20
421.56441
 10
549.347577
 20
415.490827
  0
HATCH
  5
970
100
AcDbEntity
  8
TRAMAS
  6
CONTINUOUS
100
AcDbHatch
 10
0.0
 20
0.0
 30
0.0
210
0.0
220
0.0
230
1.0
  2
U
 70
     0
 71
     1
 91
        3
 92
        7
 72
     0
 73
     1
 93
        4
 10
1463.786054309959
 20
1443.942521877007
 10
1460.976670912771
 20
1403.667205147375
 10
1520.174016135968
 20
1407.605402775932
 10
1520.174016135969
 20
1447.693820802745
 97
        4
330
9E3
330
9AA
330
9E4
330
9BE
 92
        7
 72
     0
 73
     1
 93
        4
 10
1520.174016135969
 20
1447.693820802746
 10
1520.174016135969
 20
1407.605402775932
 10
2020.383740215692
 20
1440.882650965438
 10
2020.383740215692
 20
1480.971068992251
 97
        4
330
9BD
330
9E3
330
9BE
330
9E4
 92
        7
 72
     0
 73
     1
 93
        4
 10
2020.38374021569
 20
1440.882650965438
 10
2820.843919846179
 20
1494.134538685907
 10
2821.132854136847
 20
1534.242178526366
 10
2020.383740215691
 20
1480.971068992251
 97
        4
330
9B9
330
9E3
330
9BD
330
9E4
 75
     0
 76
     0
 52
45.0
 41
0.5
 77
     0
 78
     1
 53
45.0
 43
-4023.474606
 44
-71.617392
 45
-0.3535533905932737
 46
0.3535533905932738
 79
     0
 47
0.110429
 98
        3
 10
522.272213
 20
466.123848
 10
526.360451
 20
466.78642
 10
552.76826
 20
468.774145
  0
HATCH
  5
971
100
AcDbEntity
  8
TRAMAS
  6
CONTINUOUS
100
AcDbHatch
 10
0.0
 20
0.0
 30
0.0
210
0.0
220
0.0
230
1.0
  2
U
 70
     0
 71
     1
 91
        2
 92
        7
 72
     0
 73
     1
 93
        4
 10
2622.406807350764
 20
1726.906731302298
 10
2642.416570162728
 20
1728.237729528339
 10
2642.563665137638
 20
1748.2917107758
 10
2622.553902325668
 20
1746.960712549758
 97
        4
330
9AE
330
9D2
330
9B2
330
9D1
 92
        7
 72
     0
 73
     1
 93
        4
 10
2642.41657016273
 20
1728.237729528339
 10
2622.406807350763
 20
1726.906731302297
 10
2620.895912765825
 20
1520.921097239972
 10
2640.905676921426
 20
1522.252278654416
 97
        4
330
9B2
330
9D2
330
9E3
330
9D1
 75
     0
 76
     0
 52
45.0
 41
0.5
 77
     0
 78
     1
 53
45.0
 43
-4023.474606
 44
-71.617392
 45
-0.3535533905932737
 46
0.3535533905932738
 79
     0
 47
0.110429
 98
        2
 10
579.618034
 20
482.025599
 10
579.618034
 20
480.148312
  0
HATCH
  5
972
100
AcDbEntity
  8
TRAMAS
  6
CONTINUOUS
100
AcDbHatch
 10
0.0
 20
0.0
 30
0.0
210
0.0
220
0.0
230
1.0
  2
U
 70
     0
 71
     1
 91
        2
 92
        7
 72
     0
 73
     1
 93
        4
 10
2422.090245853692
 20
1713.582186153771
 10
2442.100008665637
 20
1714.913184379811
 10
2442.247103640545
 20
1734.967165627272
 10
2422.237340828596
 20
1733.636167401231
 97
        4
330
9AE
330
9D3
330
9B2
330
9D4
 92
        7
 72
     0
 73
     1
 93
        4
 10
2442.100008665637
 20
1714.913184379811
 10
2422.090245853689
 20
1713.582186153771
 10
2420.57933781727
 20
1507.594718203061
 10
2440.58910197287
 20
1508.925899617506
 97
        4
330
9B2
330
9D3
330
9E3
330
9D4
 75
     0
 76
     0
 52
45.0
 41
0.5
 77
     0
 78
     1
 53
45.0
 43
-4023.474606
 44
-71.617392
 45
-0.3535533905932737
 46
0.3535533905932738
 79
     0
 47
0.110429
 98
        2
 10
569.784168
 20
481.363027
 10
569.673666
 20
478.381454
  0
HATCH
  5
973
100
AcDbEntity
  8
TRAMAS
  6
CONTINUOUS
100
AcDbHatch
 10
0.0
 20
0.0
 30
0.0
210
0.0
220
0.0
230
1.0
  2
U
 70
     0
 71
     1
 91
        2
 92
        7
 72
     0
 73
     1
 93
        4
 10
2221.773684356612
 20
1700.257641005244
 10
2241.78344716856
 20
1701.588639231284
 10
2241.93054214347
 20
1721.642620478744
 10
2221.92077933152
 20
1720.311622252704
 97
        4
330
9AE
330
9D5
330
9B2
330
9D6
 92
        7
 72
     0
 73
     1
 93
        4
 10
2241.783447168561
 20
1701.588639231284
 10
2221.773684356612
 20
1700.257641005244
 10
2220.262762868695
 20
1494.26833916615
 10
2240.27252702428
 20
1495.599520580594
 97
        4
330
9B2
330
9D5
330
9E3
330
9D6
 75
     0
 76
     0
 52
45.0
 41
0.5
 77
     0
 78
     1
 53
45.0
 43
-4023.474606
 44
-71.617392
 45
-0.3535533905932737
 46
0.3535533905932738
 79
     0
 47
0.110429
 98
        2
 10
559.397834
 20
480.700455
 10
559.397834
 20
479.264883
  0
HATCH
  5
974
100
AcDbEntity
  8
TRAMAS
  6
CONTINUOUS
100
AcDbHatch
 10
0.0
 20
0.0
 30
0.0
210
0.0
220
0.0
230
1.0
  2
U
 70
     0
 71
     1
 91
        4
 92
        7
 72
     0
 73
     1
 93
        4
 10
2021.456720708867
 20
1686.933069106683
 10
2032.339705096522
 20
1687.656977383364
 10
2032.339705096524
 20
1707.701174249446
 10
2021.603815683772
 20
1706.987050354144
 97
        4
330
9AE
330
9BA
330
9B2
330
9C0
 92
        7
 72
     0
 73
     1
 93
        4
 10
2032.33970509652
 20
1687.656977383364
 10
2041.466483520816
 20
1688.264067332724
 10
2041.613578495722
 20
1708.318048580184
 10
2032.339705096523
 20
1707.701174249446
 97
        4
330
9AE
330
9C0
330
9B2
330
9BB
 92
        7
 72
     0
 73
     1
 93
        4
 10
2041.466483520814
 20
1688.264067332723
 10
2032.339705096522
 20
1687.656977383364
 10
2032.339705096509
 20
1481.766458588916
 10
2039.955549925051
 20
1482.273114789969
 97
        4
330
9B2
330
9C0
330
9E3
330
9BB
 92
        7
 72
     0
 73
     1
 93
        5
 10
2032.339705096521
 20
1687.656977383364
 10
2021.456720708867
 20
1686.933069106683
 10
2020.383740215691
 20
1540.649821138562
 10
2020.383740215691
 20
1480.97106899225
 10
2032.339705096509
 20
1481.766458588916
 97
        5
330
9B2
330
9BA
330
9BD
330
9E3
330
9C0
 75
     0
 76
     0
 52
45.0
 41
0.5
 77
     0
 78
     1
 53
45.0
 43
-4023.474606
 44
-71.617392
 45
-0.3535533905932737
 46
0.3535533905932738
 79
     0
 47
0.110429
 98
        4
 10
549.23249
 20
480.258741
 10
549.784943
 20
479.927455
 10
549.895446
 20
478.491883
 10
549.342978
 20
478.491883
  0
HATCH
  5
975
100
AcDbEntity
  8
TRAMAS
  6
CONTINUOUS
100
AcDbHatch
 10
0.0
 20
0.0
 30
0.0
210
0.0
220
0.0
230
1.0
  2
U
 70
     0
 71
     1
 91
        2
 92
        7
 72
     0
 73
     1
 93
        4
 10
1821.140159211773
 20
1673.608523958155
 10
1841.149922023722
 20
1674.939522184196
 10
1841.297016998631
 20
1694.993503431656
 10
1821.287254186679
 20
1693.662505205615
 97
        4
330
9AE
330
9D7
330
9B2
330
9D8
 92
        7
 72
     0
 73
     1
 93
        4
 10
1841.149922023722
 20
1674.939522184196
 10
1821.140159211775
 20
1673.608523958155
 10
1819.629210820875
 20
1467.615554338613
 10
1839.638974976477
 20
1468.946735753058
 97
        4
330
9B2
330
9D7
330
9E3
330
9D8
 75
     0
 76
     0
 52
45.0
 41
0.5
 77
     0
 78
     1
 53
45.0
 43
-4023.474606
 44
-71.617392
 45
-0.3535533905932737
 46
0.3535533905932738
 79
     0
 47
0.110429
 98
        2
 10
539.509111
 20
479.264883
 10
539.619599
 20
477.056301
  0
HATCH
  5
976
100
AcDbEntity
  8
TRAMAS
  6
CONTINUOUS
100
AcDbHatch
 10
0.0
 20
0.0
 30
0.0
210
0.0
220
0.0
230
1.0
  2
U
 70
     0
 71
     0
 91
        2
 92
        7
 72
     0
 73
     1
 93
        4
 10
529.9695267441329
 20
479.2862091555472
 10
528.9690386035345
 20
479.2196592442452
 10
528.961683854789
 20
478.216960181872
 10
529.9621719953866
 20
478.283510093174
 97
        0
 92
        7
 72
     0
 73
     1
 93
        4
 10
529.9621719953866
 20
478.2835100931741
 10
528.961683854789
 20
478.216960181872
 10
528.8861357626711
 20
467.9172200064758
 10
529.8866239704511
 20
467.9837790771981
 97
        0
 75
     0
 76
     0
 52
45.0
 41
0.5
 77
     0
 78
     1
 53
45.0
 43
-4023.474606
 44
-71.617392
 45
-0.3535533905932737
 46
0.3535533905932738
 79
     0
 47
0.110429
 98
        2
 10
529.675245
 20
478.933598
 10
529.454255
 20
476.835444
  0
HATCH
  5
977
100
AcDbEntity
  8
TRAMAS
  6
CONTINUOUS
100
AcDbHatch
 10
0.0
 20
0.0
 30
0.0
210
0.0
220
0.0
230
1.0
  2
U
 70
     0
 71
     0
 91
       11
 92
        7
 72
     0
 73
     1
 93
        4
 10
521.8312615069326
 20
477.7426627309174
 10
520.8266013639923
 20
477.6758353086939
 10
520.1051458973616
 20
467.3330506770311
 10
521.1098066845534
 20
467.399887335241
 97
        0
 92
        7
 72
     0
 73
     1
 93
        4
 10
521.1098066845525
 20
467.399887335241
 10
520.1051458973616
 20
467.3330506770311
 10
519.9646767275026
 20
465.3192848405494
 10
520.9693375146935
 20
465.3861214987595
 97
        0
 92
        7
 72
     0
 73
     1
 93
        4
 10
519.7258739669077
 20
447.5598296943058
 10
520.8852942715311
 20
464.1812776740304
 10
519.8852956400497
 20
464.1812776740304
 10
519.8433843433404
 20
463.5804373788932
 97
        0
 92
        7
 72
     0
 73
     1
 93
        4
 10
519.8433843433394
 20
463.5804373788972
 10
518.5250834631224
 20
444.6812776740302
 10
519.5250820946048
 20
444.6812776740303
 10
519.7258739669059
 20
447.559829694287
 97
        0
 92
        7
 72
     0
 73
     1
 93
        4
 10
519.4902048592994
 20
444.1812776740305
 10
519.5250820946048
 20
444.6812776740302
 10
518.5250834631242
 20
444.6812776740302
 10
518.4902062278161
 20
444.1812776740305
 97
        0
 92
        7
 72
     0
 73
     1
 93
        4
 10
518.4902062278188
 20
444.1812776740305
 10
518.4553289925133
 20
443.6812776740303
 10
519.455327623993
 20
443.6812776740302
 10
519.4902048592985
 20
444.1812776740305
 97
        0
 92
        7
 72
     0
 73
     1
 93
        4
 10
517.0951168155871
 20
424.1812776740304
 10
518.0951154470685
 20
424.1812776740303
 10
519.455327623993
 20
443.6812776740302
 10
518.4553289925116
 20
443.6812776740302
 97
        0
 92
        7
 72
     0
 73
     1
 93
        4
 10
517.0951168155871
 20
424.1812776740304
 10
517.077583371738
 20
423.9299182457987
 10
518.0749052709743
 20
423.8915446158247
 10
518.0951154470676
 20
424.1812776740304
 97
        0
 92
        7
 72
     0
 73
     1
 93
        4
 10
518.0749052709743
 20
423.8915446158246
 10
517.077583371738
 20
423.9299182457986
 10
516.6388274750042
 20
417.639914280648
 10
517.6542544417425
 20
417.8610948748302
 97
        0
 92
        7
 72
     0
 73
     1
 93
        4
 10
516.5147689140949
 20
415.8614109127428
 10
517.5153450921925
 20
415.8696906202895
 10
517.6542544417434
 20
417.8610948748303
 10
516.6388274750033
 20
417.6399142806475
 97
        0
 92
        7
 72
     0
 73
     1
 93
        4
 10
520.8852942715302
 20
464.1812776740303
 10
520.9693375146935
 20
465.3861214987594
 10
519.9646767275026
 20
465.3192848405495
 10
519.8852956400497
 20
464.1812776740303
 97
        0
 75
     0
 76
     0
 52
45.0
 41
0.5
 77
     0
 78
     1
 53
45.0
 43
-4023.474606
 44
-71.617392
 45
-0.3535533905932737
 46
0.3535533905932738
 79
     0
 47
0.110429
 98
       11
 10
521.229774
 20
475.236031
 10
520.787808
 20
466.291293
 10
520.124852
 20
462.868005
 10
519.461896
 20
449.837399
 10
519.019916
 20
444.426387
 10
519.130404
 20
443.984672
 10
518.798926
 20
441.77609
 10
517.694004
 20
424.107481
 10
517.694004
 20
423.224052
 10
516.920546
 20
416.819173
 10
520.45633
 20
464.634863
  0
HATCH
  5
978
100
AcDbEntity
  8
TRAMAS
  6
CONTINUOUS
100
AcDbHatch
 10
0.0
 20
0.0
 30
0.0
210
0.0
220
0.0
230
1.0
  2
U
 70
     0
 71
     1
 91
        5
 92
        7
 72
     0
 73
     1
 93
        4
 10
1420.654131192512
 20
1667.013414908561
 10
1420.507036217603
 20
1646.959433661101
 10
1440.516799029555
 20
1648.290431887142
 10
1440.663894004464
 20
1668.344413134601
 97
        4
330
9AE
330
9C9
330
9B2
330
9CA
 92
        7
 72
     0
 73
     1
 93
        4
 10
1420.507036217604
 20
1646.959433661101
 10
1418.996060923728
 20
1440.96279626479
 10
1439.005825079346
 20
1442.293977679236
 10
1440.516799029555
 20
1648.290431887141
 97
        4
330
9B2
330
9C9
330
9E3
330
9CA
 92
        7
 72
     0
 73
     1
 93
        4
 10
1418.99606092373
 20
1440.962796264791
 10
1418.701870775874
 20
1400.854806770063
 10
1438.711634931488
 20
1402.185988184509
 10
1439.005825079346
 20
1442.293977679236
 97
        4
330
9E3
330
9C9
330
9E4
330
9CA
 92
        7
 72
     0
 73
     1
 93
        4
 10
1418.545750166406
 20
1379.570328652793
 10
1438.545750171235
 20
1379.570328652793
 10
1438.711634931488
 20
1402.185988184509
 10
1418.701870775872
 20
1400.854806770063
 97
        4
330
9E4
330
9C9
330
99E
330
9CA
 92
        7
 72
     0
 73
     1
 93
        4
 10
1416.107396735349
 20
1047.140930490234
 10
1438.457607485704
 20
1367.553522749944
 10
1438.545750171236
 20
1379.570328652793
 10
1418.545750166406
 20
1379.570328652793
 97
        4
330
9CA
330
99E
330
9C9
330
9A6
 75
     0
 76
     0
 52
45.0
 41
0.5
 77
     0
 78
     1
 53
45.0
 43
-4023.474606
 44
-71.617392
 45
-0.3535533905932737
 46
0.3535533905932738
 79
     0
 47
0.110429
 98
        5
 10
519.572384
 20
477.775899
 10
519.572384
 20
476.229888
 10
519.351394
 20
466.180864
 10
519.351394
 20
464.634863
 10
519.240906
 20
462.978434
  0
HATCH
  5
979
100
AcDbEntity
  8
TRAMAS
  6
CONTINUOUS
100
AcDbHatch
 10
0.0
 20
0.0
 30
0.0
210
0.0
220
0.0
230
1.0
  2
U
 70
     0
 71
     0
 91
        8
 92
        7
 72
     0
 73
     1
 93
        4
 10
1220.337569695437
 20
1653.688869760034
 10
1220.190474720529
 20
1633.634888512574
 10
1240.20023753248
 20
1634.965886738614
 10
1240.347332507388
 20
1655.019867986075
 97
        0
 92
        7
 72
     0
 73
     1
 93
        4
 10
1220.19047472053
 20
1633.634888512574
 10
1218.326923558478
 20
1379.570328652793
 10
1238.326923563308
 20
1379.570328652793
 10
1240.20023753248
 20
1634.965886738615
 97
        0
 92
        7
 72
     0
 73
     1
 93
        4
 10
1215.46629256925
 20
989.5703286527909
 10
1235.466292574063
 20
989.5703286527909
 10
1238.326923563309
 20
1379.570328652793
 10
1218.326923558479
 20
1379.570328652793
 97
        0
 92
        7
 72
     0
 73
     1
 93
        4
 10
1215.392943056706
 20
979.5703286527947
 10
1235.392943061518
 20
979.5703286527945
 10
1235.466292574063
 20
989.5703286527909
 10
1215.466292569249
 20
989.5703286527909
 97
        0
 92
        7
 72
     0
 73
     1
 93
        4
 10
1215.31959354416
 20
969.570328652791
 10
1235.319593548973
 20
969.570328652791
 10
1235.392943061518
 20
979.5703286527947
 10
1215.392943056705
 20
979.5703286527947
 97
        0
 92
        7
 72
     0
 73
     1
 93
        4
 10
1212.458962554931
 20
579.5703286527937
 10
1232.458962559726
 20
579.5703286527937
 10
1235.319593548972
 20
969.570328652791
 10
1215.319593544161
 20
969.570328652791
 97
        0
 92
        7
 72
     1
 73
     1
 93
        4
 10
1232.458962559727
 20
579.5703286527939
 42
0.0
 10
1212.458962554932
 20
579.5703286527937
 42
0.0
 10
1211.320859788224
 20
424.4087294504049
 42
-0.0000095278004164
 10
1231.325166693081
 20
424.9959044594787
 42
0.0
 97
        0
 92
        7
 72
     1
 73
     1
 93
        4
 10
1211.228694954064
 20
411.843569715732
 42
0.0
 10
1231.229908958123
 20
412.009078555697
 42
0.0
 10
1231.325166693077
 20
424.9959044594787
 42
0.0000095278004164
 10
1211.320859788224
 20
424.4087294504049
 42
0.0
 97
        0
 75
     0
 76
     0
 52
45.0
 41
0.5
 77
     0
 78
     1
 53
45.0
 43
-4023.474606
 44
-71.617392
 45
-0.3535533905932737
 46
0.3535533905932738
 79
     0
 47
0.110429
 98
        8
 10
509.62803
 20
477.334184
 10
509.62803
 20
475.015173
 10
509.62803
 20
461.653281
 10
509.296538
 20
444.315958
 10
509.18605
 20
443.763815
 10
509.18605
 20
441.334376
 10
509.18605
 20
420.684184
 10
509.075562
 20
416.377458
  0
HATCH
  5
97A
100
AcDbEntity
  8
TRAMAS
  6
CONTINUOUS
100
AcDbHatch
 10
0.0
 20
0.0
 30
0.0
210
0.0
220
0.0
230
1.0
  2
U
 70
     0
 71
     0
 91
        7
 92
        7
 72
     0
 73
     1
 93
        4
 10
1020.018996749003
 20
1640.364190815042
 10
1019.871901774095
 20
1620.310209567582
 10
1039.88166457635
 20
1621.641207792978
 10
1040.028759551257
 20
1641.695189040438
 97
        0
 92
        7
 72
     0
 73
     1
 93
        4
 10
1019.871901774094
 20
1620.310209567582
 10
1018.106086482585
 20
1379.570328652793
 10
1038.106086477741
 20
1379.570328652793
 10
1039.88166457635
 20
1621.641207792978
 97
        0
 92
        7
 72
     0
 73
     1
 93
        4
 10
1018.106086482585
 20
1379.570328652793
 10
1015.245455493352
 20
989.5703286527909
 10
1035.245455488512
 20
989.5703286527909
 10
1038.10608647774
 20
1379.570328652793
 97
        0
 92
        7
 72
     0
 73
     1
 93
        4
 10
1015.245455493353
 20
989.5703286527909
 10
1015.172105980808
 20
979.5703286527945
 10
1035.172105975968
 20
979.5703286527945
 10
1035.245455488512
 20
989.5703286527909
 97
        0
 92
        7
 72
     0
 73
     1
 93
        4
 10
1015.172105980809
 20
979.5703286527945
 10
1015.098756468266
 20
969.570328652791
 10
1035.098756463424
 20
969.570328652791
 10
1035.172105975967
 20
979.5703286527947
 97
        0
 92
        7
 72
     0
 73
     1
 93
        4
 10
1012.238125479033
 20
579.5703286527936
 10
1032.238125474196
 20
579.5703286527936
 10
1035.098756463425
 20
969.570328652791
 10
1015.098756468264
 20
969.570328652791
 97
        0
 92
        7
 72
     0
 73
     1
 93
        4
 10
1032.238125474195
 20
579.5703286527937
 10
1012.238125479033
 20
579.5703286527937
 10
1011.077743566673
 20
421.3713342617309
 10
1031.079285880106
 20
421.5816039981291
 97
        0
 75
     0
 76
     0
 52
45.0
 41
0.5
 77
     0
 78
     1
 53
45.0
 43
-4023.474606
 44
-71.617392
 45
-0.3535533905932737
 46
0.3535533905932738
 79
     0
 47
0.106433
 98
        7
 10
499.511002
 20
476.335766
 10
499.404507
 20
471.65272
 10
499.191517
 20
460.583679
 10
499.191517
 20
444.512296
 10
499.298012
 20
444.086557
 10
499.298012
 20
443.022228
 10
499.298012
 20
422.374224
  0
HATCH
  5
97B
100
AcDbEntity
  8
TRAMAS
  6
CONTINUOUS
100
AcDbHatch
 10
0.0
 20
0.0
 30
0.0
210
0.0
220
0.0
230
1.0
  2
U
 70
     0
 71
     0
 91
        7
 92
        7
 72
     0
 73
     1
 93
        4
 10
819.7020331012373
 20
1627.03961891648
 10
819.5549381263308
 20
1606.985637669021
 10
839.564700928604
 20
1608.316635894418
 10
839.7117959035103
 20
1628.370617141877
 97
        0
 92
        7
 72
     0
 73
     1
 93
        4
 10
819.5549381263308
 20
1606.985637669021
 10
817.8868579201854
 20
1379.570328652793
 10
837.8868579153541
 20
1379.570328652793
 10
839.5647009286031
 20
1608.316635894418
 97
        0
 92
        7
 72
     0
 73
     1
 93
        4
 10
817.8868579201854
 20
1379.570328652793
 10
815.0262269309587
 20
989.5703286527909
 10
835.0262269261246
 20
989.5703286527909
 10
837.886857915355
 20
1379.570328652793
 97
        0
 92
        7
 72
     0
 73
     1
 93
        4
 10
815.0262269309578
 20
989.5703286527909
 10
814.9528774184146
 20
979.5703286527945
 10
834.9528774135796
 20
979.5703286527945
 10
835.0262269261238
 20
989.5703286527908
 97
        0
 92
        7
 72
     0
 73
     1
 93
        4
 10
814.9528774184137
 20
979.5703286527945
 10
814.8795279058695
 20
969.570328652791
 10
834.8795279010355
 20
969.570328652791
 10
834.9528774135787
 20
979.5703286527945
 97
        0
 92
        7
 72
     0
 73
     1
 93
        4
 10
812.0188969166411
 20
579.5703286527936
 10
832.0188969118062
 20
579.5703286527936
 10
834.8795279010355
 20
969.570328652791
 10
814.8795279058695
 20
969.570328652791
 97
        0
 92
        7
 72
     0
 73
     1
 93
        4
 10
810.8434014787526
 20
419.3108535568003
 10
830.8448315902142
 20
419.5058263997728
 10
832.0188969118062
 20
579.5703286527936
 10
812.018896916642
 20
579.5703286527936
 97
        0
 75
     0
 76
     0
 52
45.0
 41
0.5
 77
     0
 78
     1
 53
45.0
 43
-4023.474606
 44
-71.617392
 45
-0.3535533905932737
 46
0.3535533905932738
 79
     0
 47
0.106433
 98
        7
 10
489.39137
 20
476.015749
 10
489.39137
 20
474.09996
 10
489.284875
 20
462.285885
 10
489.17838
 20
444.405139
 10
489.17838
 20
443.872974
 10
489.17838
 20
442.595775
 10
488.858896
 20
422.692796
  0
HATCH
  5
97C
100
AcDbEntity
  8
TRAMAS
  6
CONTINUOUS
100
AcDbHatch
 10
0.0
 20
0.0
 30
0.0
210
0.0
220
0.0
230
1.0
  2
U
 70
     0
 71
     0
 91
        7
 92
        7
 72
     0
 73
     1
 93
        4
 10
619.3854716041805
 20
1613.715073767955
 10
619.2383766292741
 20
1593.661092520495
 10
639.2481394315282
 20
1594.992090745891
 10
639.3952344064364
 20
1615.046071993351
 97
        0
 92
        7
 72
     0
 73
     1
 93
        4
 10
619.2383766292732
 20
1593.661092520495
 10
617.6680313122815
 20
1379.570328652793
 10
637.6680313074302
 20
1379.570328652793
 10
639.2481394315291
 20
1594.992090745891
 97
        0
 92
        7
 72
     0
 73
     1
 93
        4
 10
617.6680313122797
 20
1379.570328652793
 10
614.8074003230513
 20
989.5703286527909
 10
634.8074003181991
 20
989.5703286527909
 10
637.6680313074311
 20
1379.570328652793
 97
        0
 92
        7
 72
     0
 73
     1
 93
        4
 10
614.8074003230521
 20
989.5703286527909
 10
614.734050810508
 20
979.5703286527944
 10
634.7340508056549
 20
979.5703286527942
 10
634.8074003181991
 20
989.5703286527909
 97
        0
 92
        7
 72
     0
 73
     1
 93
        4
 10
614.734050810508
 20
979.5703286527949
 10
614.6607012979639
 20
969.570328652791
 10
634.6607012931117
 20
969.570328652791
 10
634.7340508056568
 20
979.5703286527945
 97
        0
 92
        7
 72
     0
 73
     1
 93
        4
 10
614.6607012979639
 20
969.570328652791
 10
611.8000703087354
 20
579.5703286527936
 10
631.8000703038806
 20
579.5703286527936
 10
634.6607012931108
 20
969.570328652791
 97
        0
 92
        7
 72
     0
 73
     1
 93
        4
 10
610.6102580604774
 20
417.3589918643116
 10
630.611688171919
 20
417.5539647072838
 10
631.8000703038806
 20
579.5703286527935
 10
611.8000703087363
 20
579.5703286527933
 97
        0
 75
     0
 76
     0
 52
45.0
 41
0.5
 77
     0
 78
     1
 53
45.0
 43
-4023.474606
 44
-71.617392
 45
-0.3535533905932737
 46
0.3535533905932738
 79
     0
 47
0.106433
 98
        7
 10
479.593855
 20
475.270724
 10
479.48736
 20
472.397032
 10
479.593855
 20
461.647295
 10
479.061381
 20
444.405139
 10
479.061381
 20
444.085844
 10
479.167876
 20
440.786412
 10
479.274371
 20
422.479936
  0
HATCH
  5
97D
100
AcDbEntity
  8
TRAMAS
  6
CONTINUOUS
100
AcDbHatch
 10
0.0
 20
0.0
 30
0.0
210
0.0
220
0.0
230
1.0
  2
U
 70
     0
 71
     0
 91
        7
 92
        7
 72
     0
 73
     1
 93
        4
 10
472.6467024579669
 20
475.4732415480074
 10
471.6473764224338
 20
475.406768936961
 10
471.6574946334367
 20
474.4052321311649
 10
472.656820668968
 20
474.4717047422112
 97
        0
 92
        7
 72
     0
 73
     1
 93
        4
 10
472.6568206689671
 20
474.4717047422112
 10
471.6574946334367
 20
474.4052321311649
 10
471.7607840261689
 20
464.1812776740303
 10
472.7607816135605
 20
464.1812776740303
 97
        0
 92
        7
 72
     0
 73
     1
 93
        4
 10
472.7607816135605
 20
464.1812776740303
 10
471.7607840261689
 20
464.1812776740303
 10
471.9577863863341
 20
444.6812776740301
 10
472.9577839737258
 20
444.6812776740302
 97
        0
 92
        7
 72
     0
 73
     1
 93
        4
 10
472.9577839737258
 20
444.6812776740302
 10
471.9577863863341
 20
444.6812776740302
 10
471.9628377289027
 20
444.1812776740302
 10
472.9628353162943
 20
444.1812776740302
 97
        0
 92
        7
 72
     0
 73
     1
 93
        4
 10
472.9628353162934
 20
444.1812776740304
 10
471.9628377289045
 20
444.1812776740304
 10
471.9678890714731
 20
443.6812776740302
 10
472.9678866588629
 20
443.6812776740302
 97
        0
 92
        7
 72
     0
 73
     1
 93
        4
 10
472.9678866588629
 20
443.6812776740302
 10
471.9678890714722
 20
443.6812776740302
 10
472.1648914316374
 20
424.1812776740304
 10
473.1648890190281
 20
424.1812776740303
 97
        0
 92
        7
 72
     0
 73
     1
 93
        4
 10
473.1648890190281
 20
424.1812776740304
 10
472.1648914316374
 20
424.1812776740304
 10
472.2474408654697
 20
416.0102387161696
 10
473.2473399823739
 20
416.0199856778828
 97
        0
 75
     0
 76
     0
 52
45.0
 41
0.5
 77
     0
 78
     1
 53
45.0
 43
-4023.474606
 44
-71.617392
 45
-0.3535533905932737
 46
0.3535533905932738
 79
     0
 47
0.106433
 98
        7
 10
472.108833
 20
474.843901
 10
472.108833
 20
471.970208
 10
472.428317
 20
459.943283
 10
472.641306
 20
444.404055
 10
472.428317
 20
443.87189
 10
472.641306
 20
441.849657
 10
472.96079
 20
422.159547
  0
TEXT
  5
97E
100
AcDbEntity
  8
_AA_TEXTOS
100
AcDbText
 10
-242.400246
 20
959.570329
 30
0.0
 40
40.0
  1
COTA +293
 50
0.0
  7
ROMANS
 11
-242.400246
 21
979.570329
 31
0.0
100
AcDbText
 73
     2
  0
TEXT
  5
97F
100
AcDbEntity
  8
_AA_TEXTOS
100
AcDbText
 10
-242.400246
 20
559.570329
 30
0.0
 40
40.0
  1
COTA +289
 50
0.0
  7
ROMANS
 11
-242.400246
 21
579.570329
 31
0.0
100
AcDbText
 73
     2
  0
TEXT
  5
980
100
AcDbEntity
  8
_AA_TEXTOS
100
AcDbText
 10
-242.400246
 20
1759.570329
 30
0.0
 40
40.0
  1
COTA +301
 50
0.0
  7
ROMANS
 11
-242.400246
 21
1779.570329
 31
0.0
100
AcDbText
 73
     2
  0
TEXT
  5
981
100
AcDbEntity
  8
_AA_TEXTOS
100
AcDbText
 10
-242.400246
 20
1359.570329
 30
0.0
 40
40.0
  1
COTA +297
 50
0.0
  7
ROMANS
 11
-242.400246
 21
1379.570329
 31
0.0
100
AcDbText
 73
     2
  0
TEXT
  5
982
100
AcDbEntity
  8
TEXTOS
  6
CONTINUOUS
100
AcDbText
 10
494.042707
 20
400.743693
 30
0.0
 40
2.0
  1
S14
 50
0.0
  7
ROMANS
 72
     1
 11
496.947469
 21
401.743693
 31
0.0
100
AcDbText
 73
     2
1001
ACAD
1000
MTEXTBEGIN
1070
    73
1070
     1
1070
    44
1040
1.0
1070
    74
1070
     0
1000
MTEXTEND
  0
TEXT
  5
983
100
AcDbEntity
  8
TEXTOS
  6
CONTINUOUS
100
AcDbText
 10
521.072062
 20
400.743693
 30
0.0
 40
2.0
  1
S13
 50
0.0
  7
ROMANS
 72
     1
 11
523.929205
 21
401.743693
 31
0.0
100
AcDbText
 73
     2
1001
ACAD
1000
MTEXTBEGIN
1070
    73
1070
     1
1070
    44
1040
1.0
1070
    74
1070
     0
1000
MTEXTEND
  0
TEXT
  5
984
100
AcDbEntity
  8
TEXTOS
  6
CONTINUOUS
100
AcDbText
 10
546.082548
 20
400.743693
 30
0.0
 40
2.0
  1
S12
 50
0.0
  7
ROMANS
 72
     1
 11
548.939691
 21
401.743693
 31
0.0
100
AcDbText
 73
     2
1001
ACAD
1000
MTEXTBEGIN
1070
    73
1070
     1
1070
    44
1040
1.0
1070
    74
1070
     0
1000
MTEXTEND
  0
TEXT
  5
985
100
AcDbEntity
  8
TEXTOS
  6
CONTINUOUS
100
AcDbText
 10
591.287745
 20
400.743693
 30
0.0
 40
2.0
  1
S11
 50
0.0
  7
ROMANS
 72
     1
 11
593.859174
 21
401.743693
 31
0.0
100
AcDbText
 73
     2
1001
ACAD
1000
MTEXTBEGIN
1070
    73
1070
     1
1070
    44
1040
1.0
1070
    74
1070
     0
1000
MTEXTEND
  0
CIRCLE
  5
986
100
AcDbEntity
  8
TEXTOS
  6
CONTINUOUS
100
AcDbCircle
 10
496.947469
 20
401.743693
 30
0.0
 40
3.734812
  0
CIRCLE
  5
987
100
AcDbEntity
  8
TEXTOS
  6
CONTINUOUS
100
AcDbCircle
 10
523.929205
 20
401.743693
 30
0.0
 40
3.734812
  0
CIRCLE
  5
988
100
AcDbEntity
  8
TEXTOS
  6
CONTINUOUS
100
AcDbCircle
 10
548.939691
 20
401.743693
 30
0.0
 40
3.734812
  0
CIRCLE
  5
989
100
AcDbEntity
  8
TEXTOS
  6
CONTINUOUS
100
AcDbCircle
 10
593.859174
 20
401.743693
 30
0.0
 40
3.734812
  0
LINE
  5
98A
100
AcDbEntity
  8
_AA_TEXTOS
100
AcDbLine
 10
3032.243701
 20
1137.301053
 30
0.0
 11
3498.009094
 21
1186.194414
 31
0.0
  0
LINE
  5
98B
100
AcDbEntity
  8
_AA_TEXTOS
100
AcDbLine
 10
4256.607824
 20
1186.194414
 30
0.0
 11
3498.009094
 21
1186.194414
 31
0.0
  0
MTEXT
  5
98C
100
AcDbEntity
  8
_AA_TEXTOS
100
AcDbMText
 10
4256.116042
 20
1379.384027
 30
0.0
 40
40.0
 41
750.043867
 71
     3
 72
     5
  1
{\Fromans.shx;RESPETAR EL ANGULO DE LOS PERFILES EN EL ALZADO (CORRESPONDE CON LAS TRAMAS DE TODO EL PROYECTO)}
1001
ACAD
1000
MTEXTBEGIN
1070
    73
1070
     1
1070
    44
1040
1.0
1070
    74
1070
     0
1000
MTEXTEND
  0
LINE
  5
98D
100
AcDbEntity
  8
BASE
  6
RAYITAS
100
AcDbLine
 10
174.921637
 20
388.267678
 30
0.0
 11
1517.385004
 21
399.376481
 31
0.0
  0
LINE
  5
98E
100
AcDbEntity
  8
BASE
  6
RAYITAS
100
AcDbLine
 10
1516.841532
 20
399.381831
 30
0.0
 11
1783.047176
 21
391.936659
 31
0.0
  0
POLYLINE
  5
98F
100
AcDbEntity
  8
BASE
  6
RAYITAS
100
AcDb2dPolyline
 66
     1
 10
0.0
 20
0.0
 30
0.0
  0
VERTEX
  5
990
100
AcDbEntity
  8
BASE
  6
RAYITAS
100
AcDbVertex
100
AcDb2dVertex
 10
3270.388463
 20
441.611148
 30
0.0
  0
VERTEX
  5
991
100
AcDbEntity
  8
BASE
  6
RAYITAS
100
AcDbVertex
100
AcDb2dVertex
 10
1783.967506
 20
391.939164
 30
0.0
  0
SEQEND
  5
992
100
AcDbEntity
  8
BASE
  6
RAYITAS
  0
LINE
  5
993
100
AcDbEntity
  8
BASE
100
AcDbLine
 10
1517.260885
 20
414.375968
 30
0.0
 11
1783.466528
 21
406.930796
 31
0.0
  0
LINE
  5
994
100
AcDbEntity
  8
BASE
100
AcDbLine
 10
174.797517
 20
403.267164
 30
0.0
 11
1517.260885
 21
414.375968
 31
0.0
  0
POLYLINE
  5
995
100
AcDbEntity
  8
BASE
100
AcDb2dPolyline
 66
     1
 10
0.0
 20
0.0
 30
0.0
  0
VERTEX
  5
996
100
AcDbEntity
  8
BASE
100
AcDbVertex
100
AcDb2dVertex
 10
3269.887485
 20
456.60278
 30
0.0
  0
VERTEX
  5
997
100
AcDbEntity
  8
BASE
100
AcDbVertex
100
AcDb2dVertex
 10
1783.466528
 20
406.930796
 30
0.0
  0
SEQEND
  5
998
100
AcDbEntity
  8
BASE
  0
LINE
  5
999
100
AcDbEntity
  8
BASE
100
AcDbLine
 10
1432.091563
 20
989.570329
 30
0.0
 11
2817.209054
 21
989.570329
 31
0.0
1001
ACAD
1000
RTLwPs
1070
   128
  0
LINE
  5
99A
100
AcDbEntity
  8
BASE
100
AcDbLine
 10
1430.696473
 20
969.570329
 30
0.0
 11
2817.064974
 21
969.570329
 31
0.0
1001
ACAD
1000
RTLwPs
1070
   128
  0
LINE
  5
99B
100
AcDbEntity
  8
_AA_TEXTOS
100
AcDbLine
 10
4458.63283
 20
646.963062
 30
0.0
 11
3700.0341
 21
646.963062
 31
0.0
  0
MTEXT
  5
99C
100
AcDbEntity
  8
_AA_TEXTOS
100
AcDbMText
 10
4458.141047
 20
780.772585
 30
0.0
 40
40.0
 41
682.982733
 71
     3
 72
     5
  1
{\Fromans.shx;nivel de muro de contención (arranque de estructura)}
1001
ACAD
1000
MTEXTBEGIN
1070
    73
1070
     1
1070
    44
1040
1.0
1070
    74
1070
     0
1000
MTEXTEND
  0
LINE
  5
99D
100
AcDbEntity
  8
_AA_TEXTOS
100
AcDbLine
 10
3121.70775
 20
436.642659
 30
0.0
 11
3700.0341
 21
646.963062
 31
0.0
  0
LINE
  5
99E
102
{ACAD_REACTORS
330
978
330
968
102
}
100
AcDbEntity
  8
_AA_EJES
  6
DASHDOT
100
AcDbLine
 10
152.406376
 20
1379.570329
 30
0.0
 11
3619.00211
 21
1379.570329
 31
0.0
  0
LINE
  5
99F
100
AcDbEntity
  8
_AA_TEXTOS
100
AcDbLine
 10
3307.496597
 20
1379.570329
 30
0.0
 11
3498.009094
 21
1557.131866
 31
0.0
  0
LINE
  5
9A0
100
AcDbEntity
  8
_AA_TEXTOS
100
AcDbLine
 10
4256.607824
 20
1557.131866
 30
0.0
 11
3498.009094
 21
1557.131866
 31
0.0
  0
MTEXT
  5
9A1
100
AcDbEntity
  8
_AA_TEXTOS
100
AcDbMText
 10
4256.116042
 20
1750.025201
 30
0.0
 40
40.0
 41
750.043864
 71
     3
 72
     5
  1
{\Fromans.shx;VER PLANTAS PARA DETERMINAR LOS LIMITES DE ESTRUCTURA}
1001
ACAD
1000
MTEXTBEGIN
1070
    73
1070
     1
1070
    44
1040
1.0
1070
    74
1070
     0
1000
MTEXTEND
  0
LINE
  5
9A2
100
AcDbEntity
  8
BASE
100
AcDbLine
 10
3261.405957
 20
569.570329
 30
0.0
 11
3262.543998
 21
589.570329
 31
0.0
1001
ACAD
1000
RTLwPs
1070
   128
  0
LINE
  5
9A3
102
{ACAD_REACTORS
330
968
102
}
100
AcDbEntity
  8
BASE
100
AcDbLine
 10
3306.927577
 20
1369.570329
 30
0.0
 11
3308.065617
 21
1389.570329
 31
0.0
1001
ACAD
1000
RTLwPs
1070
   128
  0
LINE
  5
9A4
100
AcDbEntity
  8
BASE
100
AcDbLine
 10
3284.166767
 20
969.570329
 30
0.0
 11
3285.304807
 21
989.570329
 31
0.0
1001
ACAD
1000
RTLwPs
1070
   128
  0
LINE
  5
9A5
100
AcDbEntity
  8
BASE
100
AcDbLine
 10
3329.938733
 20
1773.969945
 30
0.0
 11
3331.083622
 21
1794.090297
 31
0.0
1001
ACAD
1000
RTLwPs
1070
   128
  0
POLYLINE
  5
9A6
102
{ACAD_REACTORS
330
978
102
}
100
AcDbEntity
  8
BASE
100
AcDb2dPolyline
 66
     1
 10
0.0
 20
0.0
 30
0.0
1001
ACAD
1000
RTLwPs
1070
   128
  0
VERTEX
  5
9A7
100
AcDbEntity
  8
BASE
100
AcDbVertex
100
AcDb2dVertex
 10
1370.838342
 20
398.163816
 30
0.0
1001
ACAD
1000
RTLwPs
1070
   128
  0
VERTEX
  5
9A8
100
AcDbEntity
  8
BASE
100
AcDbVertex
100
AcDb2dVertex
 10
1459.526638
 20
1669.599115
 30
0.0
1001
ACAD
1000
RTLwPs
1070
   128
  0
SEQEND
  5
9A9
100
AcDbEntity
  8
BASE
1001
ACAD
1000
RTLwPs
1070
   128
  0
POLYLINE
  5
9AA
102
{ACAD_REACTORS
330
970
102
}
100
AcDbEntity
  8
BASE
100
AcDb2dPolyline
 66
     1
 10
0.0
 20
0.0
 30
0.0
1001
ACAD
1000
RTLwPs
1070
   128
  0
VERTEX
  5
9AB
100
AcDbEntity
  8
BASE
100
AcDbVertex
100
AcDb2dVertex
 10
1390.849865
 20
398.329411
 30
0.0
1001
ACAD
1000
RTLwPs
1070
   128
  0
VERTEX
  5
9AC
100
AcDbEntity
  8
BASE
100
AcDbVertex
100
AcDb2dVertex
 10
1479.619841
 20
1670.935663
 30
0.0
1001
ACAD
1000
RTLwPs
1070
   128
  0
SEQEND
  5
9AD
100
AcDbEntity
  8
BASE
1001
ACAD
1000
RTLwPs
1070
   128
  0
POLYLINE
  5
9AE
102
{ACAD_REACTORS
330
978
330
975
330
974
330
973
330
972
330
971
330
96A
330
96B
102
}
100
AcDbEntity
  8
BASE
100
AcDb2dPolyline
 66
     1
 10
0.0
 20
0.0
 30
0.0
1001
ACAD
1000
RTLwPs
1070
   128
  0
VERTEX
  5
9AF
100
AcDbEntity
  8
BASE
100
AcDbVertex
100
AcDb2dVertex
 10
474.537449
 20
1604.080154
 30
0.0
1001
ACAD
1000
RTLwPs
1070
   128
  0
VERTEX
  5
9B0
100
AcDbEntity
  8
BASE
100
AcDbVertex
100
AcDb2dVertex
 10
3331.083622
 20
1794.090297
 30
0.0
1001
ACAD
1000
RTLwPs
1070
   128
  0
SEQEND
  5
9B1
100
AcDbEntity
  8
BASE
1001
ACAD
1000
RTLwPs
1070
   128
  0
POLYLINE
  5
9B2
102
{ACAD_REACTORS
330
978
330
975
330
974
330
973
330
972
330
971
330
96A
330
96B
102
}
100
AcDbEntity
  8
BASE
100
AcDb2dPolyline
 66
     1
 10
0.0
 20
0.0
 30
0.0
1001
ACAD
1000
RTLwPs
1070
   128
  0
VERTEX
  5
9B3
100
AcDbEntity
  8
BASE
100
AcDbVertex
100
AcDb2dVertex
 10
474.739813
 20
1584.049418
 30
0.0
1001
ACAD
1000
RTLwPs
1070
   128
  0
VERTEX
  5
9B4
100
AcDbEntity
  8
BASE
100
AcDbVertex
100
AcDb2dVertex
 10
3329.938733
 20
1773.969945
 30
0.0
1001
ACAD
1000
RTLwPs
1070
   128
  0
SEQEND
  5
9B5
100
AcDbEntity
  8
BASE
1001
ACAD
1000
RTLwPs
1070
   128
  0
LINE
  5
9B6
102
{ACAD_REACTORS
330
964
330
96B
102
}
100
AcDbEntity
  8
BASE
100
AcDbLine
 10
506.708944
 20
399.29718
 30
0.0
 11
494.52397
 21
1605.409606
 31
0.0
1001
ACAD
1000
RTLwPs
1070
   128
  0
LINE
  5
9B7
100
AcDbEntity
  8
BASE
100
AcDbLine
 10
486.708992
 20
399.29718
 30
0.0
 11
474.537449
 21
1604.080154
 31
0.0
1001
ACAD
1000
RTLwPs
1070
   128
  0
LINE
  5
9B8
102
{ACAD_REACTORS
330
968
102
}
100
AcDbEntity
  8
BASE
100
AcDbLine
 10
2842.77075
 20
1761.608974
 30
0.0
 11
2833.156265
 21
427.000085
 31
0.0
1001
ACAD
1000
RTLwPs
1070
   128
  0
LINE
  5
9B9
102
{ACAD_REACTORS
330
970
102
}
100
AcDbEntity
  8
BASE
100
AcDbLine
 10
2822.76121
 20
1760.27799
 30
0.0
 11
2813.151498
 21
426.331582
 31
0.0
1001
ACAD
1000
RTLwPs
1070
   128
  0
LINE
  5
9BA
102
{ACAD_REACTORS
330
974
102
}
100
AcDbEntity
  8
BASE
100
AcDbLine
 10
2021.603829
 20
1706.988884
 30
0.0
 11
2019.945786
 21
1480.941933
 31
0.0
1001
ACAD
1000
RTLwPs
1070
   128
  0
LINE
  5
9BB
102
{ACAD_REACTORS
330
974
330
96A
102
}
100
AcDbEntity
  8
BASE
100
AcDbLine
 10
2041.613592
 20
1708.319882
 30
0.0
 11
2039.95555
 21
1482.273115
 31
0.0
1001
ACAD
1000
RTLwPs
1070
   128
  0
LINE
  5
9BC
102
{ACAD_REACTORS
330
96A
330
968
102
}
100
AcDbEntity
  8
_AA_EJES
  6
DASHDOT
100
AcDbLine
 10
2918.773396
 20
1915.934309
 30
0.0
 11
2918.773396
 21
242.030396
 31
0.0
1001
ACAD
1000
RTLwPs
1070
   128
  0
LINE
  5
9BD
102
{ACAD_REACTORS
330
974
330
970
330
96A
102
}
100
AcDbEntity
  8
_AA_EJES
  6
DASHDOT
100
AcDbLine
 10
2020.38374
 20
1915.934309
 30
0.0
 11
2020.38374
 21
242.030396
 31
0.0
1001
ACAD
1000
RTLwPs
1070
   128
  0
LINE
  5
9BE
102
{ACAD_REACTORS
330
970
330
96B
102
}
100
AcDbEntity
  8
_AA_EJES
  6
DASHDOT
100
AcDbLine
 10
1520.174016
 20
1915.934309
 30
0.0
 11
1520.174016
 21
242.030396
 31
0.0
1001
ACAD
1000
RTLwPs
1070
   128
  0
LINE
  5
9BF
102
{ACAD_REACTORS
330
96B
102
}
100
AcDbEntity
  8
_AA_EJES
  6
DASHDOT
100
AcDbLine
 10
980.539298
 20
1915.934309
 30
0.0
 11
980.539298
 21
242.030396
 31
0.0
1001
ACAD
1000
RTLwPs
1070
   128
  0
LINE
  5
9C0
102
{ACAD_REACTORS
330
974
102
}
100
AcDbEntity
  8
BASE
100
AcDbLine
 10
2032.339705
 20
1481.766459
 30
0.0
 11
2032.339705
 21
1772.844814
 31
0.0
1001
ACAD
1000
RTLwPs
1070
   128
  0
LINE
  5
9C1
102
{ACAD_REACTORS
330
96B
102
}
100
AcDbEntity
  8
BASE
100
AcDbLine
 10
1211.11866
 20
396.842146
 30
0.0
 11
1220.33757
 21
1653.68887
 31
0.0
1001
ACAD
1000
RTLwPs
1070
   128
  0
LINE
  5
9C2
102
{ACAD_REACTORS
330
96B
102
}
100
AcDbEntity
  8
BASE
100
AcDbLine
 10
1231.119874
 20
397.007654
 30
0.0
 11
1240.347333
 21
1655.019868
 31
0.0
1001
ACAD
1000
RTLwPs
1070
   128
  0
LINE
  5
9C3
100
AcDbEntity
  8
BASE
100
AcDbLine
 10
2814.327465
 20
589.570329
 30
0.0
 11
3262.543998
 21
589.570329
 31
0.0
1001
ACAD
1000
RTLwPs
1070
   128
  0
LINE
  5
9C4
100
AcDbEntity
  8
BASE
100
AcDbLine
 10
2814.183386
 20
569.570329
 30
0.0
 11
3261.405957
 21
569.570329
 31
0.0
1001
ACAD
1000
RTLwPs
1070
   128
  0
LINE
  5
9C5
102
{ACAD_REACTORS
330
964
102
}
100
AcDbEntity
  8
BASE
100
AcDbLine
 10
480.745648
 20
989.570329
 30
0.0
 11
1432.330852
 21
989.570329
 31
0.0
1001
ACAD
1000
RTLwPs
1070
   128
  0
LINE
  5
9C6
102
{ACAD_REACTORS
330
964
102
}
100
AcDbEntity
  8
BASE
100
AcDbLine
 10
480.947702
 20
969.570329
 30
0.0
 11
1430.935763
 21
969.570329
 31
0.0
1001
ACAD
1000
RTLwPs
1070
   128
  0
LINE
  5
9C7
100
AcDbEntity
  8
BASE
100
AcDbLine
 10
2817.209054
 20
989.570329
 30
0.0
 11
3285.304807
 21
989.570329
 31
0.0
1001
ACAD
1000
RTLwPs
1070
   128
  0
LINE
  5
9C8
100
AcDbEntity
  8
BASE
100
AcDbLine
 10
2817.064974
 20
969.570329
 30
0.0
 11
3284.166767
 21
969.570329
 31
0.0
1001
ACAD
1000
RTLwPs
1070
   128
  0
LINE
  5
9C9
102
{ACAD_REACTORS
330
978
330
96B
102
}
100
AcDbEntity
  8
BASE
100
AcDbLine
 10
1416.107397
 20
1047.14093
 30
0.0
 11
1420.654131
 21
1667.013415
 31
0.0
1001
ACAD
1000
RTLwPs
1070
   128
  0
LINE
  5
9CA
102
{ACAD_REACTORS
330
978
330
96B
102
}
100
AcDbEntity
  8
BASE
100
AcDbLine
 10
1436.1074
 20
1047.141369
 30
0.0
 11
1440.663894
 21
1668.344413
 31
0.0
1001
ACAD
1000
RTLwPs
1070
   128
  0
LINE
  5
9CB
102
{ACAD_REACTORS
330
968
102
}
100
AcDbEntity
  8
BASE
100
AcDbLine
 10
2820.090642
 20
1389.570329
 30
0.0
 11
3308.065617
 21
1389.570329
 31
0.0
1001
ACAD
1000
RTLwPs
1070
   128
  0
LINE
  5
9CC
102
{ACAD_REACTORS
330
968
102
}
100
AcDbEntity
  8
BASE
100
AcDbLine
 10
2819.946563
 20
1369.570329
 30
0.0
 11
3306.927577
 21
1369.570329
 31
0.0
1001
ACAD
1000
RTLwPs
1070
   128
  0
LINE
  5
9CD
102
{ACAD_REACTORS
330
968
102
}
100
AcDbEntity
  8
BASE
100
AcDbLine
 10
3246.494785
 20
1788.463664
 30
0.0
 11
3236.607407
 21
440.482281
 31
0.0
1001
ACAD
1000
RTLwPs
1070
   128
  0
LINE
  5
9CE
102
{ACAD_REACTORS
330
968
102
}
100
AcDbEntity
  8
BASE
100
AcDbLine
 10
3226.485024
 20
1787.132666
 30
0.0
 11
3216.602506
 21
439.813773
 31
0.0
1001
ACAD
1000
RTLwPs
1070
   128
  0
LINE
  5
9CF
102
{ACAD_REACTORS
330
968
102
}
100
AcDbEntity
  8
BASE
100
AcDbLine
 10
3026.164616
 20
1773.807865
 30
0.0
 11
3016.330746
 21
433.121258
 31
0.0
1001
ACAD
1000
RTLwPs
1070
   128
  0
LINE
  5
9D0
102
{ACAD_REACTORS
330
968
102
}
100
AcDbEntity
  8
BASE
100
AcDbLine
 10
3046.174377
 20
1775.138863
 30
0.0
 11
3036.335647
 21
433.789765
 31
0.0
1001
ACAD
1000
RTLwPs
1070
   128
  0
LINE
  5
9D1
102
{ACAD_REACTORS
330
971
330
96A
102
}
100
AcDbEntity
  8
BASE
100
AcDbLine
 10
2642.563665
 20
1748.291711
 30
0.0
 11
2640.905677
 21
1522.252279
 31
0.0
1001
ACAD
1000
RTLwPs
1070
   128
  0
LINE
  5
9D2
102
{ACAD_REACTORS
330
971
330
96A
102
}
100
AcDbEntity
  8
BASE
100
AcDbLine
 10
2622.553902
 20
1746.960713
 30
0.0
 11
2620.895913
 21
1520.921097
 31
0.0
1001
ACAD
1000
RTLwPs
1070
   128
  0
LINE
  5
9D3
102
{ACAD_REACTORS
330
972
330
96A
102
}
100
AcDbEntity
  8
BASE
100
AcDbLine
 10
2422.237341
 20
1733.636167
 30
0.0
 11
2420.579338
 21
1507.594718
 31
0.0
1001
ACAD
1000
RTLwPs
1070
   128
  0
LINE
  5
9D4
102
{ACAD_REACTORS
330
972
330
96A
102
}
100
AcDbEntity
  8
BASE
100
AcDbLine
 10
2442.247104
 20
1734.967166
 30
0.0
 11
2440.589102
 21
1508.9259
 31
0.0
1001
ACAD
1000
RTLwPs
1070
   128
  0
LINE
  5
9D5
102
{ACAD_REACTORS
330
973
330
96A
102
}
100
AcDbEntity
  8
BASE
100
AcDbLine
 10
2221.920779
 20
1720.311622
 30
0.0
 11
2220.262763
 21
1494.268339
 31
0.0
1001
ACAD
1000
RTLwPs
1070
   128
  0
LINE
  5
9D6
102
{ACAD_REACTORS
330
973
330
96A
102
}
100
AcDbEntity
  8
BASE
100
AcDbLine
 10
2241.930542
 20
1721.64262
 30
0.0
 11
2240.272527
 21
1495.599521
 31
0.0
1001
ACAD
1000
RTLwPs
1070
   128
  0
LINE
  5
9D7
102
{ACAD_REACTORS
330
975
330
96A
102
}
100
AcDbEntity
  8
BASE
100
AcDbLine
 10
1821.287254
 20
1693.662505
 30
0.0
 11
1819.629211
 21
1467.615554
 31
0.0
1001
ACAD
1000
RTLwPs
1070
   128
  0
LINE
  5
9D8
102
{ACAD_REACTORS
330
975
330
96A
102
}
100
AcDbEntity
  8
BASE
100
AcDbLine
 10
1841.297017
 20
1694.993503
 30
0.0
 11
1839.638975
 21
1468.946736
 31
0.0
1001
ACAD
1000
RTLwPs
1070
   128
  0
LINE
  5
9D9
102
{ACAD_REACTORS
330
96B
102
}
100
AcDbEntity
  8
BASE
100
AcDbLine
 10
1620.970693
 20
1680.33796
 30
0.0
 11
1619.312636
 21
1454.289175
 31
0.0
1001
ACAD
1000
RTLwPs
1070
   128
  0
LINE
  5
9DA
102
{ACAD_REACTORS
330
96A
102
}
100
AcDbEntity
  8
BASE
100
AcDbLine
 10
1640.980456
 20
1681.668958
 30
0.0
 11
1639.3224
 21
1455.620357
 31
0.0
1001
ACAD
1000
RTLwPs
1070
   128
  0
LINE
  5
9DB
102
{ACAD_REACTORS
330
964
330
96B
102
}
100
AcDbEntity
  8
BASE
100
AcDbLine
 10
619.385472
 20
1613.715074
 30
0.0
 11
610.477776
 21
399.29718
 31
0.0
1001
ACAD
1000
RTLwPs
1070
   128
  0
LINE
  5
9DC
102
{ACAD_REACTORS
330
964
330
96B
102
}
100
AcDbEntity
  8
BASE
100
AcDbLine
 10
639.395234
 20
1615.046072
 30
0.0
 11
630.477776
 21
399.29718
 31
0.0
1001
ACAD
1000
RTLwPs
1070
   128
  0
LINE
  5
9DD
102
{ACAD_REACTORS
330
964
330
96B
102
}
100
AcDbEntity
  8
BASE
100
AcDbLine
 10
819.702033
 20
1627.039619
 30
0.0
 11
810.696602
 21
399.29718
 31
0.0
1001
ACAD
1000
RTLwPs
1070
   128
  0
LINE
  5
9DE
102
{ACAD_REACTORS
330
964
330
96B
102
}
100
AcDbEntity
  8
BASE
100
AcDbLine
 10
839.711796
 20
1628.370617
 30
0.0
 11
830.696602
 21
399.29718
 31
0.0
1001
ACAD
1000
RTLwPs
1070
   128
  0
LINE
  5
9DF
102
{ACAD_REACTORS
330
96B
102
}
100
AcDbEntity
  8
BASE
100
AcDbLine
 10
1020.018997
 20
1640.364191
 30
0.0
 11
1010.88567
 21
395.18523
 31
0.0
1001
ACAD
1000
RTLwPs
1070
   128
  0
LINE
  5
9E0
102
{ACAD_REACTORS
330
96B
102
}
100
AcDbEntity
  8
BASE
100
AcDbLine
 10
1040.02876
 20
1641.695189
 30
0.0
 11
1030.886884
 21
395.350739
 31
0.0
1001
ACAD
1000
RTLwPs
1070
   128
  0
LINE
  5
9E1
100
AcDbEntity
  8
BASE
100
AcDbLine
 10
2009.887214
 20
399.488762
 30
0.0
 11
2017.454075
 21
1440.68775
 31
0.0
1001
ACAD
1000
RTLwPs
1070
   128
  0
LINE
  5
9E2
100
AcDbEntity
  8
BASE
100
AcDbLine
 10
2040.018336
 20
400.495659
 30
0.0
 11
2047.589619
 21
1442.692565
 31
0.0
1001
ACAD
1000
RTLwPs
1070
   128
  0
LINE
  5
9E3
102
{ACAD_REACTORS
330
978
330
975
330
974
330
973
330
972
330
971
330
970
102
}
100
AcDbEntity
  8
BASE
100
AcDbLine
 10
1418.996061
 20
1440.962796
 30
0.0
 11
2841.142396
 21
1535.573345
 31
0.0
1001
ACAD
1000
RTLwPs
1070
   128
  0
LINE
  5
9E4
102
{ACAD_REACTORS
330
978
330
970
102
}
100
AcDbEntity
  8
BASE
100
AcDbLine
 10
1418.701871
 20
1400.854807
 30
0.0
 11
2840.853461
 21
1495.465705
 31
0.0
1001
ACAD
1000
RTLwPs
1070
   128
  0
LINE
  5
9E5
100
AcDbEntity
  8
BASE
100
AcDbLine
 10
1483.636377
 20
1380.119417
 30
0.0
 11
2800.684973
 21
1467.738171
 31
0.0
  0
LINE
  5
9E6
100
AcDbEntity
  8
BASE
100
AcDbLine
 10
1416.213128
 20
413.539804
 30
0.0
 11
1483.636377
 21
1380.119417
 31
0.0
  0
LINE
  5
9E7
100
AcDbEntity
  8
_AA_EJES
  6
DASHDOT
100
AcDbLine
 10
152.406376
 20
1779.570329
 30
0.0
 11
3619.00211
 21
1779.570329
 31
0.0
  0
LINE
  5
9E8
102
{ACAD_REACTORS
330
964
102
}
100
AcDbEntity
  8
JIH-4X2EH
  6
CONTINUOUS
100
AcDbLine
 10
490.846651
 20
979.570329
 30
0.0
 11
1421.394031
 21
979.570329
 31
0.0
210
0.0000000000000004
220
-0.9896155428092512
230
-0.1437396167740514
  0
LINE
  5
9E9
100
AcDbEntity
  8
BASE
100
AcDbLine
 10
2855.719395
 20
1827.667274
 30
0.0
 11
2852.594234
 21
1827.459174
 31
0.0
  0
LINE
  5
9EA
100
AcDbEntity
  8
BASE
100
AcDbLine
 10
2733.145304
 20
1819.480588
 30
0.0
 11
2733.073804
 21
1809.570329
 31
0.0
  0
LINE
  5
9EB
100
AcDbEntity
  8
BASE
100
AcDbLine
 10
2927.099916
 20
949.570329
 30
0.0
 11
2924.295123
 21
559.570329
 31
0.0
  0
LINE
  5
9EC
100
AcDbEntity
  8
BASE
100
AcDbLine
 10
1162.007852
 20
422.958014
 30
0.0
 11
941.58894
 21
420.640821
 31
0.0
  0
LINE
  5
9ED
100
AcDbEntity
  8
BASE
100
AcDbLine
 10
2800.684972
 20
1467.738078
 30
0.0
 11
2793.286047
 21
440.676108
 31
0.0
  0
LINE
  5
9EE
102
{ACAD_REACTORS
330
968
102
}
100
AcDbEntity
  8
BASE
100
AcDbLine
 10
3316.635936
 20
1858.272913
 30
0.0
 11
3236.815182
 21
455.497597
 31
0.0
  0
POLYLINE
  5
9EF
100
AcDbEntity
  8
BASE
100
AcDb2dPolyline
 66
     1
 10
0.0
 20
0.0
 30
0.0
  0
VERTEX
  5
9F0
100
AcDbEntity
  8
BASE
100
AcDbVertex
100
AcDb2dVertex
 10
458.844917
 20
1668.179967
 30
0.0
  0
VERTEX
  5
9F1
100
AcDbEntity
  8
BASE
100
AcDbVertex
100
AcDb2dVertex
 10
3316.635709
 20
1858.272898
 30
0.0
  0
SEQEND
  5
9F2
100
AcDbEntity
  8
BASE
  0
LINE
  5
9F3
100
AcDbEntity
  8
BASE
100
AcDbLine
 10
471.495267
 20
416.002907
 30
0.0
 11
458.844917
 21
1668.179967
 31
0.0
  0
POLYLINE
  5
9F4
100
AcDbEntity
  8
BASE
100
AcDb2dPolyline
 66
     1
 10
0.0
 20
0.0
 30
0.0
  0
VERTEX
  5
9F5
100
AcDbEntity
  8
BASE
100
AcDbVertex
100
AcDb2dVertex
 10
852.648795
 20
419.71837
 30
0.0
  0
VERTEX
  5
9F6
100
AcDbEntity
  8
BASE
100
AcDbVertex
100
AcDb2dVertex
 10
471.495267
 20
416.002907
 30
0.0
  0
SEQEND
  5
9F7
100
AcDbEntity
  8
BASE
  0
POLYLINE
  5
9F8
102
{ACAD_REACTORS
330
964
102
}
100
AcDbEntity
  8
BASE
100
AcDb2dPolyline
 66
     1
 10
0.0
 20
0.0
 30
0.0
  0
VERTEX
  5
9F9
100
AcDbEntity
  8
BASE
100
AcDbVertex
100
AcDb2dVertex
 10
852.650311
 20
419.718385
 30
0.0
  0
VERTEX
  5
9FA
100
AcDbEntity
  8
BASE
100
AcDbVertex
100
AcDb2dVertex
 10
902.958697
 20
1341.484369
 30
0.0
  0
SEQEND
  5
9FB
100
AcDbEntity
  8
BASE
  0
LINE
  5
9FC
100
AcDbEntity
  8
BASE
100
AcDbLine
 10
902.958697
 20
1341.484369
 30
0.0
 11
979.923045
 21
1346.604724
 31
0.0
  0
LINE
  5
9FD
100
AcDbEntity
  8
BASE
100
AcDbLine
 10
979.923045
 20
1346.604724
 30
0.0
 11
941.13299
 21
409.608544
 31
0.0
  0
LINE
  5
9FE
100
AcDbEntity
  8
BASE
100
AcDbLine
 10
3313.864563
 20
1809.570329
 30
0.0
 11
2584.167574
 21
1809.570329
 31
0.0
  0
LINE
  5
9FF
102
{ACAD_REACTORS
330
96A
102
}
100
AcDbEntity
  8
BASE
100
AcDbLine
 10
3310.450601
 20
1749.570329
 30
0.0
 11
1682.286351
 21
1749.570329
 31
0.0
  0
LINE
  5
A00
100
AcDbEntity
  8
BASE
100
AcDbLine
 10
1252.486103
 20
579.570329
 30
0.0
 11
1866.521022
 21
555.944307
 31
0.0
  0
LINE
  5
A01
100
AcDbEntity
  8
BASE
100
AcDbLine
 10
2651.439737
 20
1457.812235
 30
0.0
 11
2651.45969
 21
1457.751603
 31
0.0
  0
LINE
  5
A02
100
AcDbEntity
  8
BASE
100
AcDbLine
 10
2661.145201
 20
1458.399778
 30
0.0
 11
2661.126394
 21
1458.45662
 31
0.0
  0
LINE
  5
A03
100
AcDbEntity
  8
BASE
100
AcDbLine
 10
452.905144
 20
769.37402
 30
0.0
 11
452.88852
 21
769.372569
 31
0.0
  0
LINE
  5
A04
100
AcDbEntity
  8
BASE
100
AcDbLine
 10
448.653886
 20
1187.761222
 30
0.0
 11
448.66967
 21
1187.762636
 31
0.0
  0
LINE
  5
A05
100
AcDbEntity
  8
BASE
100
AcDbLine
 10
448.366246
 20
1217.735459
 30
0.0
 11
448.350597
 21
1217.734057
 31
0.0
  0
LINE
  5
A06
100
AcDbEntity
  8
BASE
100
AcDbLine
 10
2550.916886
 20
1451.124839
 30
0.0
 11
2550.949653
 21
1451.025257
 31
0.0
  0
LINE
  5
A07
100
AcDbEntity
  8
BASE
100
AcDbLine
 10
452.710429
 20
788.608364
 30
0.0
 11
452.6938
 21
788.606912
 31
0.0
  0
LINE
  5
A08
100
AcDbEntity
  8
BASE
100
AcDbLine
 10
452.39037
 20
818.580411
 30
0.0
 11
452.406998
 21
818.581863
 31
0.0
  0
LINE
  5
A09
100
AcDbEntity
  8
BASE
100
AcDbLine
 10
448.863862
 20
1167.010599
 30
0.0
 11
448.879734
 21
1167.012019
 31
0.0
  0
LINE
  5
A0A
100
AcDbEntity
  8
_AA_PIEDRA
100
AcDbLine
 10
1883.167872
 20
559.570329
 30
0.0
 11
3756.123443
 21
559.570329
 31
0.0
  0
LINE
  5
A0B
100
AcDbEntity
  8
BASE
100
AcDbLine
 10
1251.531596
 20
425.588238
 30
0.0
 11
1269.442958
 21
425.888591
 31
0.0
  0
ARC
  5
A0C
100
AcDbEntity
  8
BASE
100
AcDbCircle
 10
16628.210838
 20
-524468.400726
 30
0.0
 40
525119.16925
100
AcDbArc
 50
91.67799
 51
91.697478
  0
LINE
  5
A0D
100
AcDbEntity
  8
_AA_PIEDRA
100
AcDbLine
 10
1073.005319
 20
420.327955
 30
0.0
 11
131.847875
 21
404.570329
 31
0.0
  0
LINE
  5
A0E
100
AcDbEntity
  8
BASE
100
AcDbLine
 10
1883.167872
 20
559.570329
 30
0.0
 11
1269.442958
 21
425.888591
 31
0.0
  0
LINE
  5
A0F
100
AcDbEntity
  8
_AA_EJES
  6
DASHDOT
100
AcDbLine
 10
152.406376
 20
579.570329
 30
0.0
 11
3619.00211
 21
579.570329
 31
0.0
  0
LINE
  5
A10
100
AcDbEntity
  8
TEXTOS
  6
CONTINUOUS
100
AcDbLine
 10
518.274009
 20
448.752799
 30
0.0
 11
515.721648
 21
450.452902
 31
0.0
  0
LWPOLYLINE
  5
A11
100
AcDbEntity
  8
TEXTOS
  6
CONTINUOUS
100
AcDbPolyline
 90
        4
 70
     1
 43
0.0
 10
516.004954
 20
450.663304
 10
515.990284
 20
448.663358
 10
517.990231
 20
448.648689
 10
518.0049
 20
450.648635
  0
TEXT
  5
A12
100
AcDbEntity
  8
TEXTOS
  6
CONTINUOUS
100
AcDbText
 10
518.01241
 20
451.051289
 30
0.0
 40
2.0
  1
200.200.8
 50
89.579746
 41
0.7
  7
ROMANS8
 11
517.012437
 21
451.058624
 31
0.0
100
AcDbText
 73
     2
  0
LINE
  5
A13
100
AcDbEntity
  8
TEXTOS
  6
CONTINUOUS
100
AcDbLine
 10
498.346926
 20
448.752799
 30
0.0
 11
495.794565
 21
450.452902
 31
0.0
  0
LWPOLYLINE
  5
A14
100
AcDbEntity
  8
TEXTOS
  6
CONTINUOUS
100
AcDbPolyline
 90
        4
 70
     1
 43
0.0
 10
496.077871
 20
450.663304
 10
496.063201
 20
448.663358
 10
498.063148
 20
448.648689
 10
498.077817
 20
450.648635
  0
TEXT
  5
A15
100
AcDbEntity
  8
TEXTOS
  6
CONTINUOUS
100
AcDbText
 10
498.085327
 20
451.051289
 30
0.0
 40
2.0
  1
200.200.8
 50
89.579746
 41
0.7
  7
ROMANS8
 11
497.085354
 21
451.058624
 31
0.0
100
AcDbText
 73
     2
  0
LWPOLYLINE
  5
A16
100
AcDbEntity
  8
TEXTOS
  6
CONTINUOUS
100
AcDbPolyline
 90
        4
 70
     1
 43
0.0
 10
495.905434
 20
427.154352
 10
495.890764
 20
425.154406
 10
497.890711
 20
425.139736
 10
497.90538
 20
427.139682
  0
TEXT
  5
A17
100
AcDbEntity
  8
TEXTOS
  6
CONTINUOUS
100
AcDbText
 10
497.91289
 20
427.542337
 30
0.0
 40
2.0
  1
200.200.8
 50
89.579746
 41
0.7
  7
ROMANS8
 11
496.912917
 21
427.549672
 31
0.0
100
AcDbText
 73
     2
  0
LINE
  5
A18
100
AcDbEntity
  8
TEXTOS
  6
CONTINUOUS
100
AcDbLine
 10
498.174489
 20
425.243847
 30
0.0
 11
495.622128
 21
426.94395
 31
0.0
  0
LWPOLYLINE
  5
A19
100
AcDbEntity
  8
TEXTOS
  6
CONTINUOUS
100
AcDbPolyline
 90
        4
 70
     1
 43
0.0
 10
514.620252
 20
427.351417
 10
514.460253
 20
425.357827
 10
516.453843
 20
425.197828
 10
516.613842
 20
427.191418
  0
TEXT
  5
A1A
100
AcDbEntity
  8
TEXTOS
  6
CONTINUOUS
100
AcDbText
 10
516.650599
 20
427.592461
 30
0.0
 40
2.0
  1
200.200.8
 50
85.411474
 41
0.7
  7
ROMANS8
 11
515.653804
 21
427.672461
 31
0.0
100
AcDbText
 73
     2
  0
LINE
  5
A1B
100
AcDbEntity
  8
TEXTOS
  6
CONTINUOUS
100
AcDbLine
 10
516.744439
 20
425.281036
 30
0.0
 11
514.322402
 21
427.162163
 31
0.0
  0
LINE
  5
A1C
100
AcDbEntity
  8
JIH-4X2EV
100
AcDbLine
 10
496.803435
 20
1064.322626
 30
-583.500868
 11
484.631892
 21
891.147583
 31
608.771089
210
0.0000000000000004
220
-0.9896155428092512
230
-0.1437396167740514
1001
ACAD
1000
RTLwPs
1070
   128
  0
LINE
  5
A1D
100
AcDbEntity
  8
JIH-4X2EV
100
AcDbLine
 10
629.316806
 20
889.764223
 30
618.295219
 11
620.399347
 21
1064.515503
 31
-584.828781
210
0.0000000000000004
220
-0.9896155428092512
230
-0.1437396167740514
1001
ACAD
1000
RTLwPs
1070
   128
  0
LINE
  5
A1E
100
AcDbEntity
  8
JIH-4X2EV
100
AcDbLine
 10
829.633367
 20
887.848958
 30
631.481396
 11
820.618173
 21
1064.515503
 31
-584.828781
210
0.0000000000000004
220
-0.9896155428092512
230
-0.1437396167740514
1001
ACAD
1000
RTLwPs
1070
   128
  0
LINE
  5
A1F
100
AcDbEntity
  8
JIH-4X2EV
100
AcDbLine
 10
1029.950331
 20
885.933689
 30
644.667599
 11
1020.808455
 21
1065.082763
 31
-588.734241
210
0.0000000000000004
220
-0.9896155428092512
230
-0.1437396167740514
1001
ACAD
1000
RTLwPs
1070
   128
  0
LINE
  5
A20
100
AcDbEntity
  8
JIH-4X2EV
100
AcDbLine
 10
1221.041445
 20
1064.844599
 30
-587.094531
 11
1230.268904
 21
884.018405
 31
657.853908
210
0.0000000000000004
220
-0.9896155428092512
230
-0.1437396167740514
1001
ACAD
1000
RTLwPs
1070
   128
  0
LINE
  5
A21
100
AcDbEntity
  8
JIH-4X2EV
100
AcDbLine
 10
1630.902027
 20
880.187875
 30
684.226262
 11
1628.931393
 21
918.805455
 31
418.352748
210
0.0000000000000004
220
-0.9896155428092512
230
-0.1437396167740514
1001
ACAD
1000
RTLwPs
1070
   128
  0
LINE
  5
A22
100
AcDbEntity
  8
JIH-4X2EV
100
AcDbLine
 10
1831.218588
 20
878.27261
 30
697.412439
 11
1829.247968
 21
916.889926
 31
431.540739
210
0.0000000000000004
220
-0.9896155428092512
230
-0.1437396167740514
1001
ACAD
1000
RTLwPs
1070
   128
  0
LINE
  5
A23
100
AcDbEntity
  8
JIH-4X2EV
100
AcDbLine
 10
2030.998659
 20
876.362475
 30
710.563301
 11
2029.574115
 21
904.278611
 31
518.366864
210
0.0000000000000004
220
-0.9896155428092512
230
-0.1437396167740514
1001
ACAD
1000
RTLwPs
1070
   128
  0
LINE
  5
A24
100
AcDbEntity
  8
JIH-4X2EV
100
AcDbLine
 10
2231.852113
 20
874.442076
 30
723.78482
 11
2229.88152
 21
913.058865
 31
457.91675
210
0.0000000000000004
220
-0.9896155428092512
230
-0.1437396167740514
1001
ACAD
1000
RTLwPs
1070
   128
  0
LINE
  5
A25
100
AcDbEntity
  8
JIH-4X2EV
100
AcDbLine
 10
2432.168675
 20
872.526811
 30
736.970997
 11
2430.198095
 21
911.143336
 31
471.104741
210
0.0000000000000004
220
-0.9896155428092512
230
-0.1437396167740514
1001
ACAD
1000
RTLwPs
1070
   128
  0
LINE
  5
A26
100
AcDbEntity
  8
JIH-4X2EV
100
AcDbLine
 10
2632.485236
 20
870.611546
 30
750.157174
 11
2630.51467
 21
909.227808
 31
484.292733
210
0.0000000000000004
220
-0.9896155428092512
230
-0.1437396167740514
1001
ACAD
1000
RTLwPs
1070
   128
  0
LINE
  5
A27
100
AcDbEntity
  8
JIH-4X2EV
100
AcDbLine
 10
2832.693746
 20
868.697314
 30
763.336238
 11
2823.084034
 21
1060.43826
 31
-556.757861
210
0.0000000000000004
220
-0.9896155428092512
230
-0.1437396167740514
1001
ACAD
1000
RTLwPs
1070
   128
  0
LINE
  5
A28
100
AcDbEntity
  8
JIH-4X2EV
100
AcDbLine
 10
3036.095949
 20
866.752547
 30
776.725533
 11
3026.257219
 21
1059.557552
 31
-550.694383
210
0.0000000000000004
220
-0.9896155428092512
230
-0.1437396167740514
1001
ACAD
1000
RTLwPs
1070
   128
  0
LINE
  5
A29
100
AcDbEntity
  8
JIH-4X2EV
100
AcDbLine
 10
3236.416357
 20
864.837245
 30
789.911963
 11
3226.52898
 21
1058.595572
 31
-544.071365
210
0.0000000000000004
220
-0.9896155428092512
230
-0.1437396167740514
1001
ACAD
1000
RTLwPs
1070
   128
  0
LINE
  5
A2A
100
AcDbEntity
  8
JIH-4X2EV
100
AcDbLine
 10
1430.585465
 20
882.10314
 30
671.040085
 11
1426.107398
 21
969.857725
 31
66.869135
210
0.0000000000000004
220
-0.9896155428092512
230
-0.1437396167740514
1001
ACAD
1000
RTLwPs
1070
   128
  0
LINE
  5
A2B
100
AcDbEntity
  8
_AA_EJES
  6
DASHDOT
100
AcDbLine
 10
152.406376
 20
179.570329
 30
0.0
 11
3619.00211
 21
179.570329
 31
0.0
  0
LINE
  5
A2C
100
AcDbEntity
  8
_AA_EJES
  6
DASHDOT
100
AcDbLine
 10
152.406376
 20
129.570329
 30
0.0
 11
3619.00211
 21
129.570329
 31
0.0
  0
LINE
  5
A2D
100
AcDbEntity
  8
JIH-250VE
100
AcDbLine
 10
2021.45677
 20
1064.784512
 30
-586.680847
 11
2025.763574
 21
979.570329
 31
0.0
210
0.0000000000000004
220
-0.9896155428092512
230
-0.1437396167740514
1001
ACAD
1000
RTLwPs
1070
   128
  0
LINE
  5
A2E
100
AcDbEntity
  8
JIH-PILARES
100
AcDbLine
 10
499.67191
 20
1126.746728
 30
-841.157546
 11
497.041411
 21
1089.320351
 31
-583.485203
210
0.0000000000000004
220
-0.9896155428092512
230
-0.1437396167740514
1001
ACAD
1000
RTLwPs
1070
   128
  0
LINE
  5
A2F
100
AcDbEntity
  8
JIH-PILARES
  6
CONTINUOUS
100
AcDbLine
 10
970.375579
 20
1087.976293
 30
-574.231662
 11
959.209344
 21
1126.746728
 31
-841.157546
210
0.0000000000000004
220
-0.9896155428092512
230
-0.1437396167740514
1001
ACAD
1000
RTLwPs
1070
   128
  0
LINE
  5
A30
100
AcDbEntity
  8
JIH-4X2EH
100
AcDbLine
 10
1450.052131
 20
920.515989
 30
406.576097
 11
2029.028053
 21
914.979528
 31
444.693411
210
0.0000000000000004
220
-0.9896155428092512
230
-0.1437396167740514
  0
LINE
  5
A31
100
AcDbEntity
  8
JIH-4X2EH
  6
CONTINUOUS
100
AcDbLine
 10
2830.018578
 20
922.074482
 30
395.846217
 11
3233.495573
 21
922.074482
 31
395.846217
210
0.0000000000000004
220
-0.9896155428092512
230
-0.1437396167740514
  0
LINE
  5
A32
100
AcDbEntity
  8
JIH-4X2EH
  6
CONTINUOUS
100
AcDbLine
 10
2824.255401
 20
1037.066175
 30
-395.846217
 11
3227.627612
 21
1037.066175
 31
-395.846217
210
0.0000000000000004
220
-0.9896155428092512
230
-0.1437396167740514
  0
LINE
  5
A33
100
AcDbEntity
  8
JIH-VB-AUX
  6
CONTINUOUS
100
AcDbLine
 10
486.591692
 20
919.031361
 30
416.797432
 11
486.829669
 21
944.029086
 31
416.813098
  0
LINE
  5
A34
100
AcDbEntity
  8
JIH-VB-AUX
  6
CONTINUOUS
100
AcDbLine
 10
627.892261
 20
917.680359
 30
426.098782
 11
628.130238
 21
942.678084
 31
426.114447
  0
LINE
  5
A35
100
AcDbEntity
  8
JIH-VB-AUX
  6
CONTINUOUS
100
AcDbLine
 10
828.208822
 20
915.765094
 30
439.284959
 11
828.446799
 21
940.762819
 31
439.300624
  0
LINE
  5
A36
100
AcDbEntity
  8
JIH-VB-AUX
  6
CONTINUOUS
100
AcDbLine
 10
1028.525786
 20
913.849825
 30
452.471162
 11
1028.763763
 21
938.84755
 31
452.486827
  0
LINE
  5
A37
100
AcDbEntity
  8
JIH-PILARES
100
AcDbLine
 10
497.041411
 20
1089.320351
 30
-583.485203
 11
486.829669
 21
944.029086
 31
416.813098
210
0.0000000000000004
220
-0.9896155428092512
230
-0.1437396167740514
1001
ACAD
1000
RTLwPs
1070
   128
  0
LINE
  5
A38
100
AcDbEntity
  8
JIH-PILARES
  6
CONTINUOUS
100
AcDbLine
 10
1013.283374
 20
938.995561
 30
451.467805
 11
970.375579
 21
1087.976293
 31
-574.231662
210
0.0000000000000004
220
-0.9896155428092512
230
-0.1437396167740514
1001
ACAD
1000
RTLwPs
1070
   128
  0
LINE
  5
A39
100
AcDbEntity
  8
JIH-VB-AUX
  6
CONTINUOUS
100
AcDbLine
 10
1228.844359
 20
911.934541
 30
465.657472
 11
1229.082336
 21
936.932266
 31
465.673137
  0
LINE
  5
A3A
100
AcDbEntity
  8
JIH-VB-AUX
  6
CONTINUOUS
100
AcDbLine
 10
1429.16092
 20
910.019276
 30
478.843649
 11
1429.398897
 21
935.017001
 31
478.859314
  0
LINE
  5
A3B
100
AcDbEntity
  8
JIH-VB-AUX
  6
CONTINUOUS
100
AcDbLine
 10
1455.267143
 20
909.76967
 30
480.562135
 11
1455.50512
 21
934.767394
 31
480.5778
  0
LINE
  5
A3C
100
AcDbEntity
  8
JIH-VB-AUX
  6
CONTINUOUS
100
AcDbLine
 10
1629.477482
 20
908.104011
 30
492.029826
 11
1629.715459
 21
933.101736
 31
492.045491
  0
LINE
  5
A3D
100
AcDbEntity
  8
JIH-VB-AUX
  6
CONTINUOUS
100
AcDbLine
 10
1829.794043
 20
906.188746
 30
505.216003
 11
1830.03202
 21
931.186471
 31
505.231668
  0
LINE
  5
A3E
100
AcDbEntity
  8
JIH-VB-AUX
  6
CONTINUOUS
100
AcDbLine
 10
2029.574115
 20
904.278611
 30
518.366864
 11
2029.812092
 21
929.276335
 31
518.382529
  0
LINE
  5
A3F
100
AcDbEntity
  8
JIH-VB-AUX
  6
CONTINUOUS
100
AcDbLine
 10
2230.427569
 20
902.358212
 30
531.588383
 11
2230.665545
 21
927.355937
 31
531.604048
  0
LINE
  5
A40
100
AcDbEntity
  8
JIH-VB-AUX
  6
CONTINUOUS
100
AcDbLine
 10
2430.74413
 20
900.442947
 30
544.77456
 11
2430.982107
 21
925.440672
 31
544.790225
  0
LINE
  5
A41
100
AcDbEntity
  8
JIH-VB-AUX
  6
CONTINUOUS
100
AcDbLine
 10
2631.060692
 20
898.527682
 30
557.960737
 11
2631.298668
 21
923.525407
 31
557.976402
  0
LINE
  5
A42
100
AcDbEntity
  8
JIH-VB-AUX
  6
CONTINUOUS
100
AcDbLine
 10
2831.294652
 20
896.613207
 30
571.141477
 11
2831.532629
 21
921.610932
 31
571.157142
  0
LINE
  5
A43
100
AcDbEntity
  8
JIH-PILARES
100
AcDbLine
 10
2830.996375
 20
932.310701
 30
497.491594
 11
2823.322011
 21
1085.435984
 31
-556.742196
210
0.0000000000000004
220
-0.9896155428092512
230
-0.1437396167740514
1001
ACAD
1000
RTLwPs
1070
   128
  0
LINE
  5
A44
100
AcDbEntity
  8
JIH-PILARES
100
AcDbLine
 10
2823.322011
 20
1085.435984
 30
-556.742196
 11
2821.251591
 21
1126.746728
 31
-841.157546
210
0.0000000000000004
220
-0.9896155428092512
230
-0.1437396167740514
1001
ACAD
1000
RTLwPs
1070
   128
  0
LINE
  5
A45
100
AcDbEntity
  8
JIH-VB-AUX
  6
CONTINUOUS
100
AcDbLine
 10
3034.671405
 20
894.668683
 30
584.529096
 11
3034.909382
 21
919.666408
 31
584.544761
  0
LINE
  5
A46
100
AcDbEntity
  8
JIH-VB-AUX
  6
CONTINUOUS
100
AcDbLine
 10
3234.991813
 20
892.753381
 30
597.715526
 11
3234.991813
 21
919.666408
 31
597.715526
  0
LINE
  5
A47
100
AcDbEntity
  8
JIH-PRE
  6
CONTINUOUS
100
AcDbLine
 10
2830.018578
 20
922.074482
 30
395.846217
 11
2830.256555
 21
947.072207
 31
395.861882
  0
LINE
  5
A48
100
AcDbEntity
  8
JIH-PRE
  6
CONTINUOUS
100
AcDbLine
 10
2827.13699
 20
979.570329
 30
0.0
 11
2827.374967
 21
1004.568053
 31
0.015665
  0
LINE
  5
A49
100
AcDbEntity
  8
JIH-PRE
  6
CONTINUOUS
100
AcDbLine
 10
2824.255401
 20
1037.066175
 30
-395.846217
 11
2824.493378
 21
1062.0639
 31
-395.830552
  0
LINE
  5
A4A
100
AcDbEntity
  8
JIH-PRE
  6
CONTINUOUS
100
AcDbLine
 10
1421.394031
 20
979.570329
 30
0.0
 11
1421.632008
 21
1004.568053
 31
0.015665
  0
LINE
  5
A4B
100
AcDbEntity
  8
JIH-PRE
  6
CONTINUOUS
100
AcDbLine
 10
1380.100919
 20
1064.661021
 30
-585.830639
 11
1380.344816
 21
1090.280597
 31
-585.814584
  0
LINE
  5
A4C
100
AcDbEntity
  8
JIH-PRE
  6
CONTINUOUS
100
AcDbLine
 10
490.846651
 20
979.570329
 30
0.0
 11
491.084628
 21
1004.568053
 31
0.015665
  0
LINE
  5
A4D
100
AcDbEntity
  8
JIH-PRE
  6
CONTINUOUS
100
AcDbLine
 10
496.803435
 20
1064.322626
 30
-583.500868
 11
497.041411
 21
1089.320351
 31
-583.485203
  0
LINE
  5
A4E
100
AcDbEntity
  8
JIH-PRE
  6
CONTINUOUS
100
AcDbLine
 10
806.707682
 20
1087.976293
 30
-574.231662
 11
820.618173
 21
1064.515503
 31
-584.828781
  0
LINE
  5
A4F
100
AcDbEntity
  8
JIH-PRE
  6
CONTINUOUS
100
AcDbLine
 10
824.952877
 20
979.570329
 30
0.0
 11
838.532793
 21
1004.160337
 31
2.822702
  0
LINE
  5
A50
100
AcDbEntity
  8
JIH-250V
  6
CONTINUOUS
100
AcDbLine
 10
2025.880314
 20
1089.782236
 30
1.994331
 11
2021.694747
 21
1089.782236
 31
-586.665181
210
-1.0
220
0.0
230
0.0
  0
LINE
  5
A51
100
AcDbEntity
  8
JIH-250V
  6
CONTINUOUS
100
AcDbLine
 10
1421.638434
 20
1089.520295
 30
0.125444
 11
1380.344816
 21
1090.280597
 31
-585.814584
210
0.0
220
-1.0
230
0.0
  0
LINE
  5
A52
100
AcDbEntity
  8
JIH-250V
  6
CONTINUOUS
100
AcDbLine
 10
2827.249235
 20
1085.435984
 30
0.0
 11
2823.322011
 21
1085.435984
 31
-556.742196
210
-1.0
220
0.0
230
0.0
  0
LINE
  5
A53
100
AcDbEntity
  8
JIH-250T
  6
CONTINUOUS
100
AcDbLine
 10
2830.758399
 20
1085.435984
 30
497.475929
 11
2830.996375
 21
932.310701
 31
497.491594
210
0.0
220
-1.0
230
0.0
  0
LINE
  5
A54
100
AcDbEntity
  8
JIH-PILARES
  6
CONTINUOUS
100
AcDbLine
 10
2830.996375
 20
932.310701
 30
497.491594
 11
2831.532629
 21
921.610932
 31
571.157142
210
0.0
220
-1.0
230
0.0
  0
LINE
  5
A55
100
AcDbEntity
  8
JIH-250T
  6
CONTINUOUS
100
AcDbLine
 10
1421.632008
 20
1004.568053
 30
0.015665
 11
1421.638434
 21
1089.520295
 31
0.125444
210
0.0
220
-1.0
230
0.0
  0
LINE
  5
A56
100
AcDbEntity
  8
JIH-250V
  6
CONTINUOUS
100
AcDbLine
 10
1421.638434
 20
1089.520295
 30
0.125444
 11
1450.283769
 21
1088.992875
 31
406.591345
210
0.0
220
-1.0
230
0.0
  0
LINE
  5
A57
100
AcDbEntity
  8
JIH-250T
  6
CONTINUOUS
100
AcDbLine
 10
2827.374967
 20
1004.568053
 30
0.015665
 11
2827.249415
 21
1085.435984
 31
0.025552
210
0.0
220
-1.0
230
0.0
  0
LINE
  5
A58
100
AcDbEntity
  8
JIH-250V
  6
CONTINUOUS
100
AcDbLine
 10
2827.249415
 20
1085.435984
 30
0.025552
 11
2830.758399
 21
1085.435984
 31
497.475929
210
0.0
220
-1.0
230
0.0
  0
LINE
  5
A59
100
AcDbEntity
  8
JIH-250VE
  6
CONTINUOUS
100
AcDbLine
 10
2029.028053
 20
914.979528
 30
444.693411
 11
2029.574115
 21
904.278611
 31
518.366864
210
0.0
220
-1.0
230
0.0
  0
LINE
  5
A5A
100
AcDbEntity
  8
JIH-250T
  6
CONTINUOUS
100
AcDbLine
 10
2029.028053
 20
1089.782236
 30
444.693411
 11
2029.26603
 21
939.977252
 31
444.709076
210
0.0
220
-1.0
230
0.0
  0
LINE
  5
A5B
100
AcDbEntity
  8
JIH-250T
  6
CONTINUOUS
100
AcDbLine
 10
2029.26603
 20
939.977252
 30
444.709076
 11
2029.02802
 21
914.979528
 31
444.693409
210
0.0
220
-1.0
230
0.0
  0
LINE
  5
A5C
100
AcDbEntity
  8
JIH-250H
  6
CONTINUOUS
100
AcDbLine
 10
1421.638434
 20
1089.520295
 30
0.125444
 11
2025.880314
 21
1089.782236
 31
1.994331
210
0.0
220
-1.0
230
0.0
  0
LINE
  5
A5D
100
AcDbEntity
  8
JIH-250H
  6
CONTINUOUS
100
AcDbLine
 10
2025.880314
 20
1089.782236
 30
1.994331
 11
2827.249415
 21
1085.435984
 31
0.025552
210
0.0
220
-1.0
230
0.0
  0
LINE
  5
A5E
100
AcDbEntity
  8
JIH-250V
  6
CONTINUOUS
100
AcDbLine
 10
2025.880314
 20
1089.782236
 30
1.994331
 11
2029.028053
 21
1089.782236
 31
444.693411
210
0.0
220
-1.0
230
0.0
  0
LINE
  5
A5F
100
AcDbEntity
  8
JIH-250T
  6
CONTINUOUS
100
AcDbLine
 10
1450.283769
 20
1088.992875
 30
406.591345
 11
1450.290108
 21
945.513714
 31
406.591763
210
0.0
220
-1.0
230
0.0
  0
LINE
  5
A60
100
AcDbEntity
  8
JIH-PRE
  6
CONTINUOUS
100
AcDbLine
 10
1450.290108
 20
945.513714
 30
406.591763
 11
1450.052131
 21
920.515989
 31
406.576097
210
0.0
220
-1.0
230
0.0
  0
LINE
  5
A61
100
AcDbEntity
  8
JIH-PILARES
  6
CONTINUOUS
100
AcDbLine
 10
1450.290108
 20
945.513714
 30
406.591763
 11
1455.50512
 21
934.767394
 31
480.5778
210
0.0
220
-1.0
230
0.0
  0
LINE
  5
A62
100
AcDbEntity
  8
JIH-PRE
  6
CONTINUOUS
100
AcDbLine
 10
2830.996375
 20
932.310701
 30
497.491594
 11
2830.758399
 21
907.312976
 31
497.475929
210
0.0
220
-1.0
230
0.0
  0
LINE
  5
A63
100
AcDbEntity
  8
JIH-250T
  6
CONTINUOUS
100
AcDbLine
 10
2025.880314
 20
1089.782236
 30
1.994331
 11
2025.763574
 21
979.570329
 31
0.0
210
0.0
220
-1.0
230
0.0
  0
LINE
  5
A64
100
AcDbEntity
  8
JIH-4X2EH
  6
CONTINUOUS
100
AcDbLine
 10
2827.13699
 20
979.570329
 30
0.0
 11
3230.561593
 21
979.570329
 31
0.0
210
0.0000000000000004
220
-0.9896155428092512
230
-0.1437396167740514
  0
LINE
  5
A65
100
AcDbEntity
  8
JIH-250HE
  6
CONTINUOUS
100
AcDbLine
 10
1421.394031
 20
979.570329
 30
0.0
 11
2025.763574
 21
979.570329
 31
0.0
210
0.0
220
-1.0
230
0.0
  0
LINE
  5
A66
100
AcDbEntity
  8
JIH-250HE
  6
CONTINUOUS
100
AcDbLine
 10
2025.763574
 20
979.570329
 30
0.0
 11
2827.13699
 21
979.570329
 31
0.0
210
0.0
220
-1.0
230
0.0
  0
LINE
  5
A67
100
AcDbEntity
  8
JIH-250H
  6
CONTINUOUS
100
AcDbLine
 10
1450.283769
 20
1088.992875
 30
406.591345
 11
2029.028053
 21
1089.782236
 31
444.693411
210
0.0
220
-1.0
230
0.0
  0
LINE
  5
A68
100
AcDbEntity
  8
JIH-250H
  6
CONTINUOUS
100
AcDbLine
 10
2029.028053
 20
1089.782236
 30
444.693411
 11
2830.758399
 21
1085.435984
 31
497.475929
210
0.0
220
-1.0
230
0.0
  0
LINE
  5
A69
100
AcDbEntity
  8
JIH-PILARES
  6
CONTINUOUS
100
AcDbLine
 10
791.986459
 20
1126.746728
 30
-841.157546
 11
806.707682
 21
1087.976293
 31
-574.231662
210
0.0
220
-1.0
230
0.0
  0
LINE
  5
A6A
100
AcDbEntity
  8
JIH-PILARES
  6
CONTINUOUS
100
AcDbLine
 10
862.729436
 20
940.435036
 30
441.557337
 11
838.532793
 21
1004.160337
 31
2.822702
210
0.0
220
-1.0
230
0.0
  0
LINE
  5
A6B
100
AcDbEntity
  8
JIH-PILARES
  6
CONTINUOUS
100
AcDbLine
 10
838.532793
 20
1004.160337
 30
2.822702
 11
806.707682
 21
1087.976293
 31
-574.231662
210
0.0
220
-1.0
230
0.0
  0
LINE
  5
A6C
100
AcDbEntity
  8
JIH-PILARES
  6
CONTINUOUS
100
AcDbLine
 10
1362.340708
 20
1126.746728
 30
-841.157546
 11
1380.344816
 21
1090.280597
 31
-585.814584
210
0.0
220
-1.0
230
0.0
  0
LINE
  5
A6D
100
AcDbEntity
  8
JIH-PILARES
  6
CONTINUOUS
100
AcDbLine
 10
1380.344816
 20
1090.280597
 30
-585.814584
 11
1421.632008
 21
1004.568053
 31
0.015665
210
0.0
220
-1.0
230
0.0
  0
LINE
  5
A6E
100
AcDbEntity
  8
JIH-PILARES
  6
CONTINUOUS
100
AcDbLine
 10
1421.632008
 20
1004.568053
 30
0.015665
 11
1450.290108
 21
945.513714
 31
406.591763
210
0.0
220
-1.0
230
0.0
  0
LINE
  5
A6F
100
AcDbEntity
  8
JIH-4X2EV
  6
CONTINUOUS
100
AcDbLine
 10
1380.100919
 20
1064.661021
 30
-585.830639
 11
1421.394031
 21
979.570329
 31
0.0
210
0.0
220
-1.0
230
0.0
  0
LINE
  5
A70
100
AcDbEntity
  8
JIH-4X2EV
  6
CONTINUOUS
100
AcDbLine
 10
1421.394031
 20
979.570329
 30
0.0
 11
1450.052131
 21
920.515989
 31
406.576097
210
0.0
220
-1.0
230
0.0
  0
LINE
  5
A71
100
AcDbEntity
  8
JIH-4X2EV
  6
CONTINUOUS
100
AcDbLine
 10
1450.052131
 20
920.515989
 30
406.576097
 11
1455.267143
 21
909.76967
 31
480.562135
210
0.0
220
-1.0
230
0.0
  0
LINE
  5
A72
100
AcDbEntity
  8
JIH-4X2EV
  6
CONTINUOUS
100
AcDbLine
 10
1455.267143
 20
909.76967
 30
480.562135
 11
1468.870894
 21
881.737086
 31
673.560289
210
0.0
220
-1.0
230
0.0
  0
LINE
  5
A73
100
AcDbEntity
  8
JIH-VB
  6
CONTINUOUS
100
AcDbLine
 10
486.829669
 20
944.029086
 30
416.813098
 11
628.130238
 21
942.678084
 31
426.114447
210
0.0
220
-1.0
230
0.0
  0
LINE
  5
A74
100
AcDbEntity
  8
JIH-VB
  6
CONTINUOUS
100
AcDbLine
 10
628.130238
 20
942.678084
 30
426.114447
 11
828.446799
 21
940.762819
 31
439.300624
210
0.0
220
-1.0
230
0.0
  0
LINE
  5
A75
100
AcDbEntity
  8
JIH-VB
  6
CONTINUOUS
100
AcDbLine
 10
828.446799
 20
940.762819
 30
439.300624
 11
862.729436
 21
940.435036
 31
441.557337
210
0.0
220
-1.0
230
0.0
  0
LINE
  5
A76
100
AcDbEntity
  8
JIH-VB
  6
CONTINUOUS
100
AcDbLine
 10
862.729436
 20
940.435036
 30
441.557337
 11
1013.283374
 21
938.995561
 31
451.467805
210
0.0
220
-1.0
230
0.0
  0
LINE
  5
A77
100
AcDbEntity
  8
JIH-VB
  6
CONTINUOUS
100
AcDbLine
 10
1013.283374
 20
938.995561
 30
451.467805
 11
1028.763763
 21
938.84755
 31
452.486827
210
0.0
220
-1.0
230
0.0
  0
LINE
  5
A78
100
AcDbEntity
  8
JIH-VB
  6
CONTINUOUS
100
AcDbLine
 10
1028.763763
 20
938.84755
 30
452.486827
 11
1229.082336
 21
936.932266
 31
465.673137
210
0.0
220
-1.0
230
0.0
  0
LINE
  5
A79
100
AcDbEntity
  8
JIH-VB
  6
CONTINUOUS
100
AcDbLine
 10
1229.082336
 20
936.932266
 30
465.673137
 11
1429.398897
 21
935.017001
 31
478.859314
210
0.0
220
-1.0
230
0.0
  0
LINE
  5
A7A
100
AcDbEntity
  8
JIH-VB
  6
CONTINUOUS
100
AcDbLine
 10
1429.398897
 20
935.017001
 30
478.859314
 11
1455.50512
 21
934.767394
 31
480.5778
210
0.0
220
-1.0
230
0.0
  0
LINE
  5
A7B
100
AcDbEntity
  8
JIH-VB
  6
CONTINUOUS
100
AcDbLine
 10
1455.50512
 20
934.767394
 30
480.5778
 11
1629.715459
 21
933.101736
 31
492.045491
210
0.0
220
-1.0
230
0.0
  0
LINE
  5
A7C
100
AcDbEntity
  8
JIH-VB
  6
CONTINUOUS
100
AcDbLine
 10
1629.715459
 20
933.101736
 30
492.045491
 11
1830.03202
 21
931.186471
 31
505.231668
210
0.0
220
-1.0
230
0.0
  0
LINE
  5
A7D
100
AcDbEntity
  8
JIH-VB
  6
CONTINUOUS
100
AcDbLine
 10
1830.03202
 20
931.186471
 30
505.231668
 11
2029.812092
 21
929.276335
 31
518.382529
210
0.0
220
-1.0
230
0.0
  0
LINE
  5
A7E
100
AcDbEntity
  8
JIH-VB
  6
CONTINUOUS
100
AcDbLine
 10
2029.812092
 20
929.276335
 30
518.382529
 11
2230.665545
 21
927.355937
 31
531.604048
210
0.0
220
-1.0
230
0.0
  0
LINE
  5
A7F
100
AcDbEntity
  8
JIH-VB
  6
CONTINUOUS
100
AcDbLine
 10
2230.665545
 20
927.355937
 30
531.604048
 11
2430.982107
 21
925.440672
 31
544.790225
210
0.0
220
-1.0
230
0.0
  0
LINE
  5
A80
100
AcDbEntity
  8
JIH-VB
  6
CONTINUOUS
100
AcDbLine
 10
2430.982107
 20
925.440672
 30
544.790225
 11
2631.298668
 21
923.525407
 31
557.976402
210
0.0
220
-1.0
230
0.0
  0
LINE
  5
A81
100
AcDbEntity
  8
JIH-VB
  6
CONTINUOUS
100
AcDbLine
 10
2631.298668
 20
923.525407
 30
557.976402
 11
2831.532629
 21
921.610932
 31
571.157142
210
0.0
220
-1.0
230
0.0
  0
LINE
  5
A82
100
AcDbEntity
  8
JIH-VB
  6
CONTINUOUS
100
AcDbLine
 10
2831.532629
 20
921.610932
 30
571.157142
 11
3034.909382
 21
919.666408
 31
584.544761
210
0.0
220
-1.0
230
0.0
  0
LINE
  5
A83
100
AcDbEntity
  8
JIH-VB
  6
CONTINUOUS
100
AcDbLine
 10
3034.909382
 20
919.666408
 30
584.544761
 11
3234.991813
 21
919.666408
 31
597.715526
210
0.0
220
-1.0
230
0.0
  0
LINE
  5
A84
100
AcDbEntity
  8
JIH-4X2EH
  6
CONTINUOUS
100
AcDbLine
 10
484.631892
 20
891.147583
 30
608.771089
 11
629.316806
 21
889.764223
 31
618.295219
210
0.0
220
-1.0
230
0.0
  0
LINE
  5
A85
100
AcDbEntity
  8
JIH-4X2EH
  6
CONTINUOUS
100
AcDbLine
 10
629.316806
 20
889.764223
 30
618.295219
 11
829.633367
 21
887.848958
 31
631.481396
210
0.0
220
-1.0
230
0.0
  0
LINE
  5
A86
100
AcDbEntity
  8
JIH-4X2EH
  6
CONTINUOUS
100
AcDbLine
 10
829.633367
 20
887.848958
 30
631.481396
 11
1029.950331
 21
885.933689
 31
644.667599
210
0.0
220
-1.0
230
0.0
  0
LINE
  5
A87
100
AcDbEntity
  8
JIH-4X2EH
  6
CONTINUOUS
100
AcDbLine
 10
1029.950331
 20
885.933689
 30
644.667599
 11
1230.268904
 21
884.018405
 31
657.853908
210
0.0
220
-1.0
230
0.0
  0
LINE
  5
A88
100
AcDbEntity
  8
JIH-4X2EH
  6
CONTINUOUS
100
AcDbLine
 10
1230.268904
 20
884.018405
 30
657.853908
 11
1430.585465
 21
882.10314
 31
671.040085
210
0.0
220
-1.0
230
0.0
  0
LINE
  5
A89
100
AcDbEntity
  8
JIH-4X2EH
  6
CONTINUOUS
100
AcDbLine
 10
1430.585465
 20
882.10314
 30
671.040085
 11
1468.870894
 21
881.737086
 31
673.560289
210
0.0
220
-1.0
230
0.0
  0
LINE
  5
A8A
100
AcDbEntity
  8
JIH-4X2EH
  6
CONTINUOUS
100
AcDbLine
 10
1468.870894
 20
881.737086
 30
673.560289
 11
1630.902027
 21
880.187875
 31
684.226262
210
0.0
220
-1.0
230
0.0
  0
LINE
  5
A8B
100
AcDbEntity
  8
JIH-4X2EH
  6
CONTINUOUS
100
AcDbLine
 10
1630.902027
 20
880.187875
 30
684.226262
 11
1831.218588
 21
878.27261
 31
697.412439
210
0.0
220
-1.0
230
0.0
  0
LINE
  5
A8C
100
AcDbEntity
  8
JIH-4X2EH
  6
CONTINUOUS
100
AcDbLine
 10
1831.218588
 20
878.27261
 30
697.412439
 11
2030.998659
 21
876.362475
 31
710.563301
210
0.0
220
-1.0
230
0.0
  0
LINE
  5
A8D
100
AcDbEntity
  8
JIH-4X2EH
  6
CONTINUOUS
100
AcDbLine
 10
2030.998659
 20
876.362475
 30
710.563301
 11
2231.852113
 21
874.442076
 31
723.78482
210
0.0
220
-1.0
230
0.0
  0
LINE
  5
A8E
100
AcDbEntity
  8
JIH-4X2EH
  6
CONTINUOUS
100
AcDbLine
 10
2231.852113
 20
874.442076
 30
723.78482
 11
2432.168675
 21
872.526811
 31
736.970997
210
0.0
220
-1.0
230
0.0
  0
LINE
  5
A8F
100
AcDbEntity
  8
JIH-4X2EH
  6
CONTINUOUS
100
AcDbLine
 10
2432.168675
 20
872.526811
 30
736.970997
 11
2632.485236
 21
870.611546
 31
750.157174
210
0.0
220
-1.0
230
0.0
  0
LINE
  5
A90
100
AcDbEntity
  8
JIH-4X2EH
  6
CONTINUOUS
100
AcDbLine
 10
2632.485236
 20
870.611546
 30
750.157174
 11
2832.693746
 21
868.697314
 31
763.336238
210
0.0
220
-1.0
230
0.0
  0
LINE
  5
A91
100
AcDbEntity
  8
JIH-4X2EH
  6
CONTINUOUS
100
AcDbLine
 10
2832.693746
 20
868.697314
 30
763.336238
 11
3036.095949
 21
866.752547
 31
776.725533
210
0.0
220
-1.0
230
0.0
  0
LINE
  5
A92
100
AcDbEntity
  8
JIH-4X2EH
  6
CONTINUOUS
100
AcDbLine
 10
3036.095949
 20
866.752547
 30
776.725533
 11
3236.416357
 21
864.837245
 31
789.911963
210
0.0
220
-1.0
230
0.0
  0
LINE
  5
A93
100
AcDbEntity
  8
JIH-PRE
  6
CONTINUOUS
100
AcDbLine
 10
2823.084034
 20
1060.43826
 30
-556.757861
 11
2823.322011
 21
1085.435984
 31
-556.742196
  0
INSERT
  5
A94
100
AcDbEntity
  8
JIH-4X2EH
  6
CONTINUOUS
100
AcDbBlockReference
  2
111111
 10
499.67191
 20
1126.746728
 30
-841.157546
  0
INSERT
  5
A95
100
AcDbEntity
  8
JIH-4X2EH
  6
CONTINUOUS
100
AcDbBlockReference
  2
111111
 10
791.986459
 20
1126.746728
 30
-841.157546
  0
INSERT
  5
A96
100
AcDbEntity
  8
JIH-4X2EH
  6
CONTINUOUS
100
AcDbBlockReference
  2
111111
 10
959.209344
 20
1126.746728
 30
-841.157546
  0
INSERT
  5
A97
100
AcDbEntity
  8
JIH-4X2EH
  6
CONTINUOUS
100
AcDbBlockReference
  2
111111
 10
1362.340708
 20
1126.746728
 30
-841.157546
  0
INSERT
  5
A98
100
AcDbEntity
  8
JIH-4X2EH
  6
CONTINUOUS
100
AcDbBlockReference
  2
111111
 10
2821.251591
 20
1126.746728
 30
-841.157546
  0
INSERT
  5
A99
100
AcDbEntity
  8
JIH-4X2EH
  6
CONTINUOUS
100
AcDbBlockReference
  2
110000
 10
620.399347
 20
1064.515503
 30
-584.828781
  0
INSERT
  5
A9A
100
AcDbEntity
  8
JIH-4X2EH
  6
CONTINUOUS
100
AcDbBlockReference
  2
110000
 10
1020.808455
 20
1065.082763
 30
-588.734241
  0
INSERT
  5
A9B
100
AcDbEntity
  8
JIH-4X2EH
  6
CONTINUOUS
100
AcDbBlockReference
  2
110000
 10
1221.041445
 20
1064.844599
 30
-587.094531
  0
INSERT
  5
A9C
100
AcDbEntity
  8
JIH-4X2EH
  6
CONTINUOUS
100
AcDbBlockReference
  2
110000
 10
2021.45677
 20
1064.784512
 30
-586.680847
  0
INSERT
  5
A9D
100
AcDbEntity
  8
JIH-4X2EH
  6
CONTINUOUS
100
AcDbBlockReference
  2
110000
 10
2021.694747
 20
1089.782236
 30
-586.665181
  0
INSERT
  5
A9E
100
AcDbEntity
  8
JIH-4X2EH
  6
CONTINUOUS
100
AcDbBlockReference
  2
110000
 10
3026.257219
 20
1059.557552
 30
-550.694383
  0
INSERT
  5
A9F
100
AcDbEntity
  8
JIH-4X2EH
  6
CONTINUOUS
100
AcDbBlockReference
  2
110000
 10
3226.52898
 20
1058.595572
 30
-544.071365
  0
LINE
  5
AA0
100
AcDbEntity
  8
CC
100
AcDbLine
 10
1362.340708
 20
734.200033
 30
-841.157546
 11
1423.909875
 21
734.200033
 31
-841.157546
  0
LINE
  5
AA1
100
AcDbEntity
  8
CC
100
AcDbLine
 10
1362.340708
 20
793.625247
 30
-841.157546
 11
1362.340708
 21
745.707398
 31
-841.157546
  0
LINE
  5
AA2
100
AcDbEntity
  8
CC
100
AcDbLine
 10
1300.771542
 20
734.200033
 30
-841.157546
 11
1362.340708
 21
734.200033
 31
-841.157546
  0
LINE
  5
AA3
100
AcDbEntity
  8
CC
100
AcDbLine
 10
1300.771542
 20
782.117883
 30
-841.157546
 11
1300.771542
 21
734.200033
 31
-841.157546
  0
LINE
  5
AA4
100
AcDbEntity
  8
CC
100
AcDbLine
 10
1423.909875
 20
782.117883
 30
-841.157546
 11
1423.909875
 21
734.200033
 31
-841.157546
  0
LINE
  5
AA5
100
AcDbEntity
  8
CC
100
AcDbLine
 10
2215.466318
 20
3.135402
 30
0.0
 11
2338.604651
 21
3.135402
 31
0.0
  0
LINE
  5
AA6
100
AcDbEntity
  8
CC
100
AcDbLine
 10
2215.466318
 20
98.971101
 30
0.0
 11
2215.466318
 21
3.135402
 31
0.0
  0
LINE
  5
AA7
100
AcDbEntity
  8
CC
100
AcDbLine
 10
1362.340708
 20
734.200033
 30
-841.157546
 11
1362.340708
 21
686.282184
 31
-841.157546
  0
INSERT
  5
AA8
100
AcDbEntity
  8
JIH-4X2EH
  6
CONTINUOUS
100
AcDbBlockReference
  2
110X00
 10
486.829669
 20
944.029086
 30
416.813098
  0
INSERT
  5
AA9
100
AcDbEntity
  8
JIH-4X2EH
  6
CONTINUOUS
100
AcDbBlockReference
  2
110X00
 10
2029.812092
 20
929.276335
 30
518.382529
  0
INSERT
  5
AAA
100
AcDbEntity
  8
JIH-4X2EH
  6
CONTINUOUS
100
AcDbBlockReference
  2
110X00
 10
3234.991813
 20
919.666408
 30
597.715526
  0
LINE
  5
AAB
100
AcDbEntity
  8
JIH-4X2EH
100
AcDbLine
 10
2229.88152
 20
913.058865
 30
457.91675
 11
2830.758399
 21
907.312976
 31
497.475929
210
0.0000000000000004
220
-0.9896155428092512
230
-0.1437396167740514
  0
LINE
  5
AAC
100
AcDbEntity
  8
JIH-4X2EH
  6
CONTINUOUS
100
AcDbLine
 10
2029.028053
 20
914.979528
 30
444.693411
 11
2229.88152
 21
913.058865
 31
457.91675
  0
LINE
  5
AAD
100
AcDbEntity
  8
JIH-250VE
  6
CONTINUOUS
100
AcDbLine
 10
2029.02802
 20
914.979528
 30
444.693409
 11
2025.763574
 21
979.570329
 31
0.0
  0
ENDBLK
  5
AAF
100
AcDbEntity
  8
0
100
AcDbBlockEnd
  0
ENDSEC
  0
SECTION
  2
ENTITIES
  0
LINE
  5
5F
100
AcDbEntity
  8
BASE
100
AcDbLine
 10
6082.504079
 20
870.562777
 30
0.0
 11
6074.304647
 21
853.64054
 31
0.0
  0
LINE
  5
61
100
AcDbEntity
  8
BASE
100
AcDbLine
 10
6082.504079
 20
292.901308
 30
0.0
 11
6082.504079
 21
870.562777
 31
0.0
  0
LINE
  5
62
100
AcDbEntity
  8
TEXTOS
  6
CONTINUOUS
100
AcDbLine
 10
5232.214398
 20
234.449162
 30
0.0
 11
5265.841126
 21
285.744407
 31
0.0
  0
LWPOLYLINE
  5
64
100
AcDbEntity
  8
TEXTOS
  6
CONTINUOUS
100
AcDbPolyline
 90
        4
 70
     1
 43
0.0
 10
5270.090616
 20
280.109311
 10
5230.090616
 20
280.109311
 10
5230.090616
 20
240.109311
 10
5270.090616
 20
240.109311
  0
TEXT
  5
65
100
AcDbEntity
  8
TEXTOS
  6
CONTINUOUS
100
AcDbText
 10
5278.14459
 20
240.018185
 30
0.0
 40
40.0
  1
200.200.5 (EST. SECUNDARIA)
 50
360.0
 41
0.8
  7
ROMANS8
 11
5278.14459
 21
260.018185
 31
0.0
100
AcDbText
 73
     2
  0
LINE
  5
66
100
AcDbEntity
  8
BASE
100
AcDbLine
 10
6082.504079
 20
292.901308
 30
0.0
 11
5230.090616
 21
292.901308
 31
0.0
1001
ACAD
1000
RTLwPs
1070
   128
  0
TEXT
  5
67
100
AcDbEntity
  8
TEXTOS
  6
CONTINUOUS
100
AcDbText
 10
5278.14459
 20
305.784431
 30
0.0
 40
40.0
  1
300.300.8 (EST. PRINCIPAL) +
 50
0.0
 41
0.8
  7
ROMANS8
 11
5278.14459
 21
325.784431
 31
0.0
100
AcDbText
 73
     2
  0
LWPOLYLINE
  5
68
100
AcDbEntity
  8
TEXTOS
  6
CONTINUOUS
100
AcDbPolyline
 90
        4
 70
     1
 43
0.0
 10
5270.090616
 20
345.875557
 10
5230.090616
 20
345.875557
 10
5230.090616
 20
305.875557
 10
5270.090616
 20
305.875557
  0
LINE
  5
69
100
AcDbEntity
  8
TEXTOS
  6
CONTINUOUS
100
AcDbLine
 10
5232.214398
 20
300.215408
 30
0.0
 11
5265.841126
 21
351.510653
 31
0.0
  0
LINE
  5
6A
100
AcDbEntity
  8
BASE
100
AcDbLine
 10
6082.504079
 20
1290.562777
 30
0.0
 11
6074.304647
 21
1307.485013
 31
0.0
  0
LINE
  5
6B
100
AcDbEntity
  8
BASE
100
AcDbLine
 10
6082.504079
 20
1476.631109
 30
0.0
 11
6074.304647
 21
1493.553345
 31
0.0
  0
LINE
  5
6C
100
AcDbEntity
  8
BASE
100
AcDbLine
 10
6082.687081
 20
1597.85256
 30
0.0
 11
6074.487649
 21
1614.774796
 31
0.0
  0
LINE
  5
6D
100
AcDbEntity
  8
BASE
100
AcDbLine
 10
6082.504079
 20
1290.562777
 30
0.0
 11
6082.504079
 21
1765.601952
 31
0.0
  0
LINE
  5
6E
100
AcDbEntity
  8
TEXTOS
  6
CONTINUOUS
100
AcDbLine
 10
6099.355906
 20
1772.916052
 30
0.0
 11
6132.982634
 21
1824.211297
 31
0.0
  0
LWPOLYLINE
  5
6F
100
AcDbEntity
  8
TEXTOS
  6
CONTINUOUS
100
AcDbPolyline
 90
        4
 70
     1
 43
0.0
 10
6137.232124
 20
1818.576201
 10
6097.232124
 20
1818.576201
 10
6097.232124
 20
1778.576201
 10
6137.232124
 20
1778.576201
  0
TEXT
  5
70
100
AcDbEntity
  8
TEXTOS
  6
CONTINUOUS
100
AcDbText
 10
6145.286098
 20
1778.485075
 30
0.0
 40
40.0
  1
200.200.5
 50
0.0
 41
0.8
  7
ROMANS8
 11
6145.286098
 21
1798.485075
 31
0.0
100
AcDbText
 73
     2
  0
LINE
  5
71
100
AcDbEntity
  8
BASE
100
AcDbLine
 10
6394.945061
 20
1765.601952
 30
0.0
 11
6082.504079
 21
1765.601952
 31
0.0
1001
ACAD
1000
RTLwPs
1070
   128
  0
LINE
  5
72
100
AcDbEntity
  8
TEXTOS
  6
CONTINUOUS
100
AcDbLine
 10
5484.421004
 20
1573.563743
 30
0.0
 11
5515.294156
 21
1626.561926
 31
0.0
  0
LWPOLYLINE
  5
73
100
AcDbEntity
  8
TEXTOS
  6
CONTINUOUS
100
AcDbPolyline
 90
        4
 70
     1
 43
0.0
 10
5519.835076
 20
1621.158916
 10
5479.890803
 20
1619.048211
 10
5482.001508
 20
1579.103939
 10
5521.945781
 20
1581.214644
  0
TEXT
  5
74
100
AcDbEntity
  8
TEXTOS
  6
CONTINUOUS
100
AcDbText
 10
5529.993343
 20
1581.548634
 30
0.0
 40
40.0
  1
200.200.5
 50
3.024767
 41
0.8
  7
ROMANS8
 11
5528.93799
 21
1601.52077
 31
0.0
100
AcDbText
 73
     2
  0
LINE
  5
75
100
AcDbEntity
  8
TEXTOS
  6
CONTINUOUS
100
AcDbLine
 10
6993.376608
 20
574.544585
 30
0.0
 11
6942.250449
 21
608.427839
 31
0.0
  0
LWPOLYLINE
  5
76
100
AcDbEntity
  8
TEXTOS
  6
CONTINUOUS
100
AcDbPolyline
 90
        4
 70
     1
 43
0.0
 10
6947.906761
 20
612.649048
 10
6947.706394
 20
572.64955
 10
6987.705892
 20
572.449183
 10
6987.906259
 20
612.448681
  0
TEXT
  5
77
100
AcDbEntity
  8
TEXTOS
  6
CONTINUOUS
100
AcDbText
 10
6988.037728
 20
620.502097
 30
0.0
 40
40.0
  1
200.200.5
 50
89.712994
 41
0.8
  7
ROMANS8
 11
6968.037979
 21
620.602281
 31
0.0
100
AcDbText
 73
     2
  0
LINE
  5
78
100
AcDbEntity
  8
TEXTOS
  6
CONTINUOUS
100
AcDbLine
 10
7193.887055
 20
573.54018
 30
0.0
 11
7142.760896
 21
607.423434
 31
0.0
  0
LWPOLYLINE
  5
79
100
AcDbEntity
  8
TEXTOS
  6
CONTINUOUS
100
AcDbPolyline
 90
        4
 70
     1
 43
0.0
 10
7148.417208
 20
611.644643
 10
7148.216841
 20
571.645145
 10
7188.216339
 20
571.444777
 10
7188.416706
 20
611.444276
  0
TEXT
  5
7A
100
AcDbEntity
  8
TEXTOS
  6
CONTINUOUS
100
AcDbText
 10
7188.548175
 20
619.497692
 30
0.0
 40
40.0
  1
200.200.5
 50
89.712994
 41
0.8
  7
ROMANS8
 11
7168.548426
 21
619.597876
 31
0.0
100
AcDbText
 73
     2
  0
LINE
  5
7B
100
AcDbEntity
  8
TEXTOS
  6
CONTINUOUS
100
AcDbLine
 10
6792.866214
 20
575.54899
 30
0.0
 11
6741.740055
 21
609.432244
 31
0.0
  0
LWPOLYLINE
  5
7C
100
AcDbEntity
  8
TEXTOS
  6
CONTINUOUS
100
AcDbPolyline
 90
        4
 70
     1
 43
0.0
 10
6747.396367
 20
613.653453
 10
6747.196
 20
573.653955
 10
6787.195498
 20
573.453588
 10
6787.395865
 20
613.453086
  0
TEXT
  5
7D
100
AcDbEntity
  8
TEXTOS
  6
CONTINUOUS
100
AcDbText
 10
6787.527334
 20
621.506502
 30
0.0
 40
40.0
  1
200.200.5
 50
89.712994
 41
0.8
  7
ROMANS8
 11
6767.527585
 21
621.606686
 31
0.0
100
AcDbText
 73
     2
  0
LINE
  5
7E
100
AcDbEntity
  8
TEXTOS
  6
CONTINUOUS
100
AcDbLine
 10
6191.33487
 20
578.562206
 30
0.0
 11
6140.208712
 21
612.44546
 31
0.0
  0
LWPOLYLINE
  5
7F
100
AcDbEntity
  8
TEXTOS
  6
CONTINUOUS
100
AcDbPolyline
 90
        4
 70
     1
 43
0.0
 10
6145.865023
 20
616.666669
 10
6145.664656
 20
576.667171
 10
6185.664154
 20
576.466804
 10
6185.864522
 20
616.466302
  0
TEXT
  5
80
100
AcDbEntity
  8
TEXTOS
  6
CONTINUOUS
100
AcDbText
 10
6185.99599
 20
624.519719
 30
0.0
 40
40.0
  1
200.200.5
 50
89.712994
 41
0.8
  7
ROMANS8
 11
6165.996241
 21
624.619902
 31
0.0
100
AcDbText
 73
     2
  0
LINE
  5
81
100
AcDbEntity
  8
TEXTOS
  6
CONTINUOUS
100
AcDbLine
 10
6391.845318
 20
577.557801
 30
0.0
 11
6340.719159
 21
611.441055
 31
0.0
  0
LWPOLYLINE
  5
82
100
AcDbEntity
  8
TEXTOS
  6
CONTINUOUS
100
AcDbPolyline
 90
        4
 70
     1
 43
0.0
 10
6346.375471
 20
615.662264
 10
6346.175104
 20
575.662766
 10
6386.174602
 20
575.462399
 10
6386.37497
 20
615.461897
  0
TEXT
  5
83
100
AcDbEntity
  8
TEXTOS
  6
CONTINUOUS
100
AcDbText
 10
6386.506438
 20
623.515313
 30
0.0
 40
40.0
  1
200.200.5
 50
89.712994
 41
0.8
  7
ROMANS8
 11
6366.506689
 21
623.615497
 31
0.0
100
AcDbText
 73
     2
  0
LINE
  5
84
100
AcDbEntity
  8
TEXTOS
  6
CONTINUOUS
100
AcDbLine
 10
6592.355766
 20
576.553396
 30
0.0
 11
6541.229607
 21
610.43665
 31
0.0
  0
LWPOLYLINE
  5
85
100
AcDbEntity
  8
TEXTOS
  6
CONTINUOUS
100
AcDbPolyline
 90
        4
 70
     1
 43
0.0
 10
6546.885919
 20
614.657859
 10
6546.685552
 20
574.65836
 10
6586.68505
 20
574.457993
 10
6586.885417
 20
614.457491
  0
TEXT
  5
86
100
AcDbEntity
  8
TEXTOS
  6
CONTINUOUS
100
AcDbText
 10
6587.016886
 20
622.510908
 30
0.0
 40
40.0
  1
200.200.5
 50
89.712994
 41
0.8
  7
ROMANS8
 11
6567.017137
 21
622.611091
 31
0.0
100
AcDbText
 73
     2
  0
LINE
  5
87
100
AcDbEntity
  8
TEXTOS
  6
CONTINUOUS
100
AcDbLine
 10
5990.80001
 20
574.693172
 30
0.0
 11
5939.673851
 21
608.576426
 31
0.0
  0
LWPOLYLINE
  5
88
100
AcDbEntity
  8
TEXTOS
  6
CONTINUOUS
100
AcDbPolyline
 90
        4
 70
     1
 43
0.0
 10
5945.330163
 20
612.797635
 10
5945.129796
 20
572.798137
 10
5985.129294
 20
572.597769
 10
5985.329661
 20
612.597268
  0
TEXT
  5
89
100
AcDbEntity
  8
TEXTOS
  6
CONTINUOUS
100
AcDbText
 10
5985.46113
 20
620.650684
 30
0.0
 40
40.0
  1
200.200.5
 50
89.712994
 41
0.8
  7
ROMANS8
 11
5965.461381
 21
620.750868
 31
0.0
100
AcDbText
 73
     2
  0
LINE
  5
8A
100
AcDbEntity
  8
TEXTOS
  6
CONTINUOUS
100
AcDbLine
 10
5790.281062
 20
574.000629
 30
0.0
 11
5739.154903
 21
607.883883
 31
0.0
  0
LWPOLYLINE
  5
8B
100
AcDbEntity
  8
TEXTOS
  6
CONTINUOUS
100
AcDbPolyline
 90
        4
 70
     1
 43
0.0
 10
5744.811215
 20
612.105092
 10
5744.610848
 20
572.105594
 10
5784.610346
 20
571.905227
 10
5784.810713
 20
611.904725
  0
TEXT
  5
8C
100
AcDbEntity
  8
TEXTOS
  6
CONTINUOUS
100
AcDbText
 10
5784.942182
 20
619.958141
 30
0.0
 40
40.0
  1
200.200.5
 50
89.712994
 41
0.8
  7
ROMANS8
 11
5764.942433
 21
620.058325
 31
0.0
100
AcDbText
 73
     2
  0
LINE
  5
8D
100
AcDbEntity
  8
TEXTOS
  6
CONTINUOUS
100
AcDbLine
 10
5589.770122
 20
574.906759
 30
0.0
 11
5538.643963
 21
608.790013
 31
0.0
  0
LWPOLYLINE
  5
8E
100
AcDbEntity
  8
TEXTOS
  6
CONTINUOUS
100
AcDbPolyline
 90
        4
 70
     1
 43
0.0
 10
5544.300275
 20
613.011222
 10
5544.099908
 20
573.011724
 10
5584.099406
 20
572.811357
 10
5584.299773
 20
612.810855
  0
TEXT
  5
8F
100
AcDbEntity
  8
TEXTOS
  6
CONTINUOUS
100
AcDbText
 10
5584.431242
 20
620.864271
 30
0.0
 40
40.0
  1
200.200.5
 50
89.712994
 41
0.8
  7
ROMANS8
 11
5564.431493
 21
620.964455
 31
0.0
100
AcDbText
 73
     2
  0
LINE
  5
90
100
AcDbEntity
  8
TEXTOS
  6
CONTINUOUS
100
AcDbLine
 10
5454.870017
 20
573.423495
 30
0.0
 11
5403.743858
 21
607.306749
 31
0.0
  0
LWPOLYLINE
  5
91
100
AcDbEntity
  8
TEXTOS
  6
CONTINUOUS
100
AcDbPolyline
 90
        4
 70
     1
 43
0.0
 10
5409.40017
 20
611.527958
 10
5409.199803
 20
571.528459
 10
5449.199301
 20
571.328092
 10
5449.399668
 20
611.32759
  0
TEXT
  5
92
100
AcDbEntity
  8
TEXTOS
  6
CONTINUOUS
100
AcDbText
 10
5449.531137
 20
619.381007
 30
0.0
 40
40.0
  1
200.200.5
 50
89.712994
 41
0.8
  7
ROMANS8
 11
5429.531388
 21
619.48119
 31
0.0
100
AcDbText
 73
     2
  0
LINE
  5
93
100
AcDbEntity
  8
TEXTOS
  6
CONTINUOUS
100
AcDbLine
 10
5347.582988
 20
574.163994
 30
0.0
 11
5296.456829
 21
608.047248
 31
0.0
  0
LWPOLYLINE
  5
94
100
AcDbEntity
  8
TEXTOS
  6
CONTINUOUS
100
AcDbPolyline
 90
        4
 70
     1
 43
0.0
 10
5302.113141
 20
612.268457
 10
5301.912774
 20
572.268959
 10
5341.912272
 20
572.068592
 10
5342.112639
 20
612.06809
  0
TEXT
  5
95
100
AcDbEntity
  8
TEXTOS
  6
CONTINUOUS
100
AcDbText
 10
5342.244108
 20
620.121506
 30
0.0
 40
40.0
  1
200.200.5
 50
89.712994
 41
0.8
  7
ROMANS8
 11
5322.244359
 21
620.22169
 31
0.0
100
AcDbText
 73
     2
  0
TEXT
  5
96
100
AcDbEntity
  8
TEXTOS
  6
CONTINUOUS
100
AcDbText
 10
5183.400673
 20
620.943565
 30
0.0
 40
40.0
  1
200.200.5
 50
89.712994
 41
0.8
  7
ROMANS8
 11
5163.400924
 21
621.043748
 31
0.0
100
AcDbText
 73
     2
  0
LWPOLYLINE
  5
97
100
AcDbEntity
  8
TEXTOS
  6
CONTINUOUS
100
AcDbPolyline
 90
        4
 70
     1
 43
0.0
 10
5143.269706
 20
613.090515
 10
5143.069339
 20
573.091017
 10
5183.068837
 20
572.89065
 10
5183.269204
 20
612.890148
  0
LINE
  5
98
100
AcDbEntity
  8
TEXTOS
  6
CONTINUOUS
100
AcDbLine
 10
5188.739553
 20
574.986053
 30
0.0
 11
5137.613394
 21
608.869306
 31
0.0
  0
TEXT
  5
99
100
AcDbEntity
  8
TEXTOS
  6
CONTINUOUS
100
AcDbText
 10
7190.404942
 20
990.165915
 30
0.0
 40
40.0
  1
200.200.5
 50
89.712994
 41
0.8
  7
ROMANS8
 11
7170.405193
 21
990.266098
 31
0.0
100
AcDbText
 73
     2
  0
LWPOLYLINE
  5
9A
100
AcDbEntity
  8
TEXTOS
  6
CONTINUOUS
100
AcDbPolyline
 90
        4
 70
     1
 43
0.0
 10
7150.273975
 20
982.312865
 10
7150.073608
 20
942.313367
 10
7190.073106
 20
942.113
 10
7190.273473
 20
982.112498
  0
LINE
  5
9B
100
AcDbEntity
  8
TEXTOS
  6
CONTINUOUS
100
AcDbLine
 10
7195.743822
 20
944.208403
 30
0.0
 11
7144.617663
 21
978.091656
 31
0.0
  0
TEXT
  5
9C
100
AcDbEntity
  8
TEXTOS
  6
CONTINUOUS
100
AcDbText
 10
6989.889463
 20
990.165915
 30
0.0
 40
40.0
  1
200.200.5
 50
89.712994
 41
0.8
  7
ROMANS8
 11
6969.889714
 21
990.266098
 31
0.0
100
AcDbText
 73
     2
  0
LWPOLYLINE
  5
9D
100
AcDbEntity
  8
TEXTOS
  6
CONTINUOUS
100
AcDbPolyline
 90
        4
 70
     1
 43
0.0
 10
6949.758496
 20
982.312865
 10
6949.558129
 20
942.313367
 10
6989.557627
 20
942.113
 10
6989.757994
 20
982.112498
  0
LINE
  5
9E
100
AcDbEntity
  8
TEXTOS
  6
CONTINUOUS
100
AcDbLine
 10
6995.228343
 20
944.208403
 30
0.0
 11
6944.102184
 21
978.091656
 31
0.0
  0
TEXT
  5
9F
100
AcDbEntity
  8
TEXTOS
  6
CONTINUOUS
100
AcDbText
 10
6789.374038
 20
990.165915
 30
0.0
 40
40.0
  1
200.200.5
 50
89.712994
 41
0.8
  7
ROMANS8
 11
6769.374289
 21
990.266098
 31
0.0
100
AcDbText
 73
     2
  0
LWPOLYLINE
  5
A0
100
AcDbEntity
  8
TEXTOS
  6
CONTINUOUS
100
AcDbPolyline
 90
        4
 70
     1
 43
0.0
 10
6749.243071
 20
982.312865
 10
6749.042704
 20
942.313367
 10
6789.042202
 20
942.113
 10
6789.24257
 20
982.112498
  0
LINE
  5
A1
100
AcDbEntity
  8
TEXTOS
  6
CONTINUOUS
100
AcDbLine
 10
6794.712918
 20
944.208403
 30
0.0
 11
6743.586759
 21
978.091656
 31
0.0
  0
TEXT
  5
A2
100
AcDbEntity
  8
TEXTOS
  6
CONTINUOUS
100
AcDbText
 10
6588.858559
 20
990.165915
 30
0.0
 40
40.0
  1
200.200.5
 50
89.712994
 41
0.8
  7
ROMANS8
 11
6568.85881
 21
990.266098
 31
0.0
100
AcDbText
 73
     2
  0
LWPOLYLINE
  5
A3
100
AcDbEntity
  8
TEXTOS
  6
CONTINUOUS
100
AcDbPolyline
 90
        4
 70
     1
 43
0.0
 10
6548.727592
 20
982.312865
 10
6548.527225
 20
942.313367
 10
6588.526723
 20
942.113
 10
6588.72709
 20
982.112498
  0
LINE
  5
A4
100
AcDbEntity
  8
TEXTOS
  6
CONTINUOUS
100
AcDbLine
 10
6594.197439
 20
944.208403
 30
0.0
 11
6543.07128
 21
978.091656
 31
0.0
  0
TEXT
  5
A5
100
AcDbEntity
  8
TEXTOS
  6
CONTINUOUS
100
AcDbText
 10
6388.348171
 20
990.165915
 30
0.0
 40
40.0
  1
200.200.5
 50
89.712994
 41
0.8
  7
ROMANS8
 11
6368.348422
 21
990.266098
 31
0.0
100
AcDbText
 73
     2
  0
LWPOLYLINE
  5
A6
100
AcDbEntity
  8
TEXTOS
  6
CONTINUOUS
100
AcDbPolyline
 90
        4
 70
     1
 43
0.0
 10
6348.217205
 20
982.312865
 10
6348.016837
 20
942.313367
 10
6388.016336
 20
942.113
 10
6388.216703
 20
982.112498
  0
LINE
  5
A7
100
AcDbEntity
  8
TEXTOS
  6
CONTINUOUS
100
AcDbLine
 10
6393.687052
 20
944.208403
 30
0.0
 11
6342.560893
 21
978.091656
 31
0.0
  0
TEXT
  5
A8
100
AcDbEntity
  8
TEXTOS
  6
CONTINUOUS
100
AcDbText
 10
6187.827601
 20
990.165915
 30
0.0
 40
40.0
  1
200.200.5
 50
89.712994
 41
0.8
  7
ROMANS8
 11
6167.827852
 21
990.266098
 31
0.0
100
AcDbText
 73
     2
  0
LWPOLYLINE
  5
A9
100
AcDbEntity
  8
TEXTOS
  6
CONTINUOUS
100
AcDbPolyline
 90
        4
 70
     1
 43
0.0
 10
6147.696634
 20
982.312865
 10
6147.496267
 20
942.313367
 10
6187.495765
 20
942.113
 10
6187.696132
 20
982.112498
  0
LINE
  5
AA
100
AcDbEntity
  8
TEXTOS
  6
CONTINUOUS
100
AcDbLine
 10
6193.166481
 20
944.208403
 30
0.0
 11
6142.040322
 21
978.091656
 31
0.0
  0
TEXT
  5
AB
100
AcDbEntity
  8
TEXTOS
  6
CONTINUOUS
100
AcDbText
 10
5987.312121
 20
990.165915
 30
0.0
 40
40.0
  1
200.200.5
 50
89.712994
 41
0.8
  7
ROMANS8
 11
5967.312372
 21
990.266098
 31
0.0
100
AcDbText
 73
     2
  0
LWPOLYLINE
  5
AC
100
AcDbEntity
  8
TEXTOS
  6
CONTINUOUS
100
AcDbPolyline
 90
        4
 70
     1
 43
0.0
 10
5947.181155
 20
982.312865
 10
5946.980787
 20
942.313367
 10
5986.980286
 20
942.113
 10
5987.180653
 20
982.112498
  0
LINE
  5
AD
100
AcDbEntity
  8
TEXTOS
  6
CONTINUOUS
100
AcDbLine
 10
5992.651002
 20
944.208403
 30
0.0
 11
5941.524843
 21
978.091656
 31
0.0
  0
TEXT
  5
AE
100
AcDbEntity
  8
TEXTOS
  6
CONTINUOUS
100
AcDbText
 10
5786.834787
 20
990.165915
 30
0.0
 40
40.0
  1
200.200.5
 50
89.712994
 41
0.8
  7
ROMANS8
 11
5766.835038
 21
990.266098
 31
0.0
100
AcDbText
 73
     2
  0
LWPOLYLINE
  5
AF
100
AcDbEntity
  8
TEXTOS
  6
CONTINUOUS
100
AcDbPolyline
 90
        4
 70
     1
 43
0.0
 10
5746.70382
 20
982.312865
 10
5746.503453
 20
942.313367
 10
5786.502951
 20
942.113
 10
5786.703318
 20
982.112498
  0
LINE
  5
B0
100
AcDbEntity
  8
TEXTOS
  6
CONTINUOUS
100
AcDbLine
 10
5792.173667
 20
944.208403
 30
0.0
 11
5741.047508
 21
978.091656
 31
0.0
  0
TEXT
  5
B1
100
AcDbEntity
  8
TEXTOS
  6
CONTINUOUS
100
AcDbText
 10
5586.306593
 20
990.165915
 30
0.0
 40
40.0
  1
200.200.5
 50
89.712994
 41
0.8
  7
ROMANS8
 11
5566.306844
 21
990.266098
 31
0.0
100
AcDbText
 73
     2
  0
LWPOLYLINE
  5
B2
100
AcDbEntity
  8
TEXTOS
  6
CONTINUOUS
100
AcDbPolyline
 90
        4
 70
     1
 43
0.0
 10
5546.175626
 20
982.312865
 10
5545.975259
 20
942.313367
 10
5585.974757
 20
942.113
 10
5586.175124
 20
982.112498
  0
LINE
  5
B3
100
AcDbEntity
  8
TEXTOS
  6
CONTINUOUS
100
AcDbLine
 10
5591.645473
 20
944.208403
 30
0.0
 11
5540.519314
 21
978.091656
 31
0.0
  0
TEXT
  5
B4
100
AcDbEntity
  8
TEXTOS
  6
CONTINUOUS
100
AcDbText
 10
5451.389492
 20
990.366282
 30
0.0
 40
40.0
  1
200.200.5
 50
89.712994
 41
0.8
  7
ROMANS8
 11
5431.389743
 21
990.466465
 31
0.0
100
AcDbText
 73
     2
  0
LWPOLYLINE
  5
B5
100
AcDbEntity
  8
TEXTOS
  6
CONTINUOUS
100
AcDbPolyline
 90
        4
 70
     1
 43
0.0
 10
5411.258525
 20
982.513233
 10
5411.058158
 20
942.513734
 10
5451.057656
 20
942.313367
 10
5451.258023
 20
982.312865
  0
LINE
  5
B6
100
AcDbEntity
  8
TEXTOS
  6
CONTINUOUS
100
AcDbLine
 10
5456.728372
 20
944.40877
 30
0.0
 11
5405.602213
 21
978.292024
 31
0.0
  0
TEXT
  5
B7
100
AcDbEntity
  8
TEXTOS
  6
CONTINUOUS
100
AcDbText
 10
5344.114284
 20
990.165915
 30
0.0
 40
40.0
  1
200.200.5
 50
89.712994
 41
0.8
  7
ROMANS8
 11
5324.114535
 21
990.266098
 31
0.0
100
AcDbText
 73
     2
  0
LWPOLYLINE
  5
B8
100
AcDbEntity
  8
TEXTOS
  6
CONTINUOUS
100
AcDbPolyline
 90
        4
 70
     1
 43
0.0
 10
5303.983317
 20
982.312865
 10
5303.78295
 20
942.313367
 10
5343.782448
 20
942.113
 10
5343.982815
 20
982.112498
  0
LINE
  5
B9
100
AcDbEntity
  8
TEXTOS
  6
CONTINUOUS
100
AcDbLine
 10
5349.453164
 20
944.208403
 30
0.0
 11
5298.327005
 21
978.091656
 31
0.0
  0
LINE
  5
BA
100
AcDbEntity
  8
TEXTOS
  6
CONTINUOUS
100
AcDbLine
 10
5190.589077
 20
944.208403
 30
0.0
 11
5139.462918
 21
978.091656
 31
0.0
  0
LWPOLYLINE
  5
BB
100
AcDbEntity
  8
TEXTOS
  6
CONTINUOUS
100
AcDbPolyline
 90
        4
 70
     1
 43
0.0
 10
5145.11923
 20
982.312865
 10
5144.918863
 20
942.313367
 10
5184.918361
 20
942.113
 10
5185.118729
 20
982.112498
  0
TEXT
  5
BC
100
AcDbEntity
  8
TEXTOS
  6
CONTINUOUS
100
AcDbText
 10
5185.250197
 20
990.165915
 30
0.0
 40
40.0
  1
200.200.5
 50
89.712994
 41
0.8
  7
ROMANS8
 11
5165.250448
 21
990.266098
 31
0.0
100
AcDbText
 73
     2
  0
TEXT
  5
BD
100
AcDbEntity
  8
TEXTOS
  6
CONTINUOUS
100
AcDbText
 10
6892.641303
 20
1428.37749
 30
0.0
 40
40.0
  1
VB
 50
3.024767
  7
ROMANS8
 11
6891.58595
 21
1448.349626
 31
0.0
100
AcDbText
 73
     2
  0
TEXT
  5
BE
100
AcDbEntity
  8
TEXTOS
  6
CONTINUOUS
100
AcDbText
 10
5692.55676
 20
1364.963534
 30
0.0
 40
40.0
  1
VB
 50
3.024767
  7
ROMANS8
 11
5691.501407
 21
1384.93567
 31
0.0
100
AcDbText
 73
     2
  0
LINE
  5
BF
100
AcDbEntity
  8
BASE
100
AcDbLine
 10
7191.518098
 20
614.756377
 30
0.0
 11
7174.595862
 21
622.955809
 31
0.0
  0
LINE
  5
C0
100
AcDbEntity
  8
BASE
100
AcDbLine
 10
6424.330619
 20
618.299078
 30
0.0
 11
6441.252855
 21
626.498509
 31
0.0
  0
LINE
  5
C1
100
AcDbEntity
  8
BASE
100
AcDbLine
 10
5484.962765
 20
618.299078
 30
0.0
 11
5501.885002
 21
626.498509
 31
0.0
  0
LINE
  5
C2
100
AcDbEntity
  8
BASE
100
AcDbLine
 10
5377.749688
 20
618.299078
 30
0.0
 11
5394.671925
 21
626.498509
 31
0.0
  0
LINE
  5
C3
100
AcDbEntity
  8
BASE
100
AcDbLine
 10
5204.678189
 20
618.299078
 30
0.0
 11
5221.600425
 21
626.498509
 31
0.0
  0
LINE
  5
C4
100
AcDbEntity
  8
BASE
  6
CONTINUOUS
100
AcDbLine
 10
5204.678189
 20
618.299078
 30
0.0
 11
7191.535845
 21
618.299078
 31
0.0
  0
CIRCLE
  5
D0
100
AcDbEntity
  8
TEXTOS
  6
RAYITAS2
100
AcDbCircle
 10
5801.670503
 20
1387.54666
 30
0.0
 40
139.917074
  0
HATCH
  5
10F
100
AcDbEntity
  8
TRAMAS
  6
CONTINUOUS
100
AcDbHatch
 10
0.0
 20
0.0
 30
0.0
210
0.0
220
0.0
230
1.0
  2
U
 70
     0
 71
     1
 91
        3
 92
        7
 72
     0
 73
     1
 93
        4
 10
7415.676683929451
 20
1527.04970076571
 10
7415.676683929451
 20
1547.077603269012
 10
7241.326298410378
 20
1537.864712605259
 10
7240.75910525384
 20
1517.806838911926
 97
        4
330
146
330
132
330
18F
330
184
 92
        7
 72
     0
 73
     1
 93
        4
 10
7415.676683929449
 20
1547.077603269011
 10
7415.676683929449
 20
1527.04970076571
 10
7709.011776767917
 20
1542.54989097244
 10
7710.632020552234
 20
1562.663409167323
 97
        4
330
132
330
146
330
184
330
1A5
 92
        7
 72
     0
 73
     1
 93
        4
 10
7734.900171564074
 20
1543.917865869697
 10
7736.520471162434
 20
1564.031387013862
 10
7710.632020552234
 20
1562.663409167322
 10
7709.011776767917
 20
1542.54989097244
 97
        4
330
166
330
1A5
330
184
330
16A
 75
     0
 76
     0
 52
45.0
 41
10.0
 77
     0
 78
     1
 53
45.0
 43
-81104.891516
 44
2826.905882
 45
-7.071067811865474
 46
7.071067811865475
 79
     0
 47
0.04583
 98
        3
 10
7298.528824
 20
1524.781482
 10
7492.045739
 20
1545.863466
 10
7726.833883
 20
1551.363128
  0
HATCH
  5
110
100
AcDbEntity
  8
TRAMAS
  6
CONTINUOUS
100
AcDbHatch
 10
0.0
 20
0.0
 30
0.0
210
0.0
220
0.0
230
1.0
  2
U
 70
     0
 71
     1
 91
        5
 92
        7
 72
     0
 73
     1
 93
        4
 10
7415.676683929449
 20
1648.261481584874
 10
7415.676683929449
 20
1668.289384088177
 10
7244.759033943278
 20
1659.257883428513
 10
7244.191840786739
 20
1639.20000973518
 97
        4
330
146
330
186
330
18F
330
185
 92
        7
 72
     0
 73
     1
 93
        5
 10
7718.817727961544
 20
1664.279830417593
 10
7720.129400149327
 20
1680.562776644575
 10
7647.945881723592
 20
1680.562776644574
 10
7415.676683929449
 20
1668.289384088176
 10
7415.676683929449
 20
1648.261481584875
 97
        5
330
1A5
330
13F
330
186
330
146
330
185
 92
        7
 72
     0
 73
     1
 93
        4
 10
7744.706460552476
 20
1665.647823164344
 10
7745.907975342472
 20
1680.562776644575
 10
7720.129400149327
 20
1680.562776644575
 10
7718.817727961547
 20
1664.279830417593
 97
        4
330
13F
330
1A5
330
185
330
169
 92
        7
 72
     0
 73
     1
 93
        4
 10
7720.437971745862
 20
1684.393348612476
 10
7720.129400149327
 20
1680.562776644574
 10
7745.907975342472
 20
1680.562776644574
 10
7746.326760150836
 20
1685.76134430851
 97
        4
330
186
330
1A5
330
13F
330
169
 92
        7
 72
     0
 73
     1
 93
        3
 10
7647.945881723593
 20
1680.562776644574
 10
7720.129400149325
 20
1680.562776644574
 10
7720.437971745865
 20
1684.393348612476
 97
        3
330
186
330
13F
330
1A5
 75
     0
 76
     0
 52
45.0
 41
10.0
 77
     0
 78
     1
 53
45.0
 43
-81104.891516
 44
2826.905882
 45
-7.071067811865474
 46
7.071067811865475
 79
     0
 47
0.04583
 98
        5
 10
7285.688881
 20
1645.773882
 10
7504.885682
 20
1659.523036
 10
7731.419628
 20
1671.439022
 10
7734.171027
 20
1683.354851
 10
7704.82245
 20
1682.438345
  0
HATCH
  5
111
100
AcDbEntity
  8
TRAMAS
  6
CONTINUOUS
100
AcDbHatch
 10
0.0
 20
0.0
 30
0.0
210
0.0
220
0.0
230
1.0
  2
U
 70
     0
 71
     1
 91
        6
 92
       23
 72
     0
 73
     1
 93
        3
 10
7203.554482717793
 20
1043.318883631478
 10
7209.980447052443
 20
1270.562776644573
 10
7204.692802382126
 20
1270.562776644573
 97
        3
330
171
330
16F
330
12C
 92
        7
 72
     0
 73
     1
 93
        5
 10
7213.767606646377
 20
1270.562776644573
 10
7209.980447052442
 20
1270.562776644573
 10
7203.554482717795
 20
1043.318883631495
 10
7202.814336613631
 20
895.5627766445713
 10
7203.163420133193
 20
895.5627766445712
 97
        5
330
171
330
12C
330
16F
330
130
330
18E
 92
        7
 72
     0
 73
     1
 93
        4
 10
7224.692829509557
 20
1270.562776644573
 10
7213.767606646378
 20
1270.562776644573
 10
7203.163420133193
 20
895.5627766445713
 10
7222.814363741062
 20
895.5627766445713
 97
        4
330
171
330
18E
330
130
330
16E
 92
        7
 72
     0
 73
     1
 93
        4
 10
7222.315058084763
 20
865.5627766445714
 10
7202.315085212138
 20
865.5627766445714
 10
7193.831736001604
 20
565.5627766451742
 10
7213.831708874228
 20
565.5627766451742
 97
        4
330
131
330
18E
330
18B
330
18F
 92
        7
 72
     0
 73
     1
 93
        4
 10
7191.428120391933
 20
480.5627766445755
 10
7211.428093264554
 20
480.5627766445754
 10
7213.831708874227
 20
565.5627766451742
 10
7193.831736001604
 20
565.5627766451743
 97
        4
330
18B
330
18E
330
13B
330
18F
 92
        7
 72
     0
 73
     1
 93
        4
 10
7211.416851718974
 20
480.1652374663494
 10
7191.416878846354
 20
480.1652374663493
 10
7190.642051357277
 20
452.7647095670565
 10
7210.650626469082
 20
453.0689139198133
 97
        4
330
1B1
330
18E
330
15A
330
18F
 75
     0
 76
     0
 52
45.0
 41
10.0
 77
     0
 78
     1
 53
45.0
 43
-81104.891516
 44
2826.905882
 45
-7.071067811865474
 46
7.071067811865475
 79
     0
 47
0.074334
 98
        6
 10
7206.769612
 20
1258.060189
 10
7211.232296
 20
1217.919757
 10
7218.670104
 20
1217.919757
 10
7214.20742
 20
810.568886
 10
7197.844478
 20
531.072694
 10
7206.769612
 20
471.605463
  0
HATCH
  5
112
100
AcDbEntity
  8
TRAMAS
  6
CONTINUOUS
100
AcDbHatch
 10
0.0
 20
0.0
 30
0.0
210
0.0
220
0.0
230
1.0
  2
U
 70
     0
 71
     1
 91
        7
 92
        7
 72
     0
 73
     1
 93
        4
 10
7206.022437739591
 20
1535.999212810693
 10
7221.296396143618
 20
1536.806307721095
 10
7224.161938519978
 20
1638.141604851015
 10
7206.529426474727
 20
1637.209881040273
 97
        4
330
185
330
16F
330
132
330
18E
 92
        7
 72
     0
 73
     1
 93
        4
 10
7226.53474890226
 20
1638.26698709524
 10
7224.161938519976
 20
1638.141604851016
 10
7221.296396143618
 20
1536.806307721095
 10
7226.027760167126
 20
1537.05631886566
 97
        4
330
185
330
18E
330
132
330
16E
 92
        7
 72
     0
 73
     1
 93
        4
 10
7225.927408993335
 20
1517.023113681843
 10
7220.729202987079
 20
1516.748434027761
 10
7217.444856059649
 20
1400.602787564931
 10
7225.34632287567
 20
1401.02031087377
 97
        4
330
184
330
18E
330
138
330
16E
 92
        7
 72
     0
 73
     1
 93
        4
 10
7220.729202987079
 20
1516.748434027761
 10
7205.922086565803
 20
1515.966007626876
 10
7205.341000448136
 20
1399.963204818803
 10
7217.444856059649
 20
1400.602787564931
 97
        4
330
184
330
16F
330
138
330
18E
 92
        7
 72
     0
 73
     1
 93
        4
 10
7214.333163260417
 20
1290.562776644572
 10
7224.793014350545
 20
1290.562776644572
 10
7225.346322875672
 20
1401.02031087377
 10
7217.444856059649
 20
1400.602787564931
 97
        4
330
138
330
18E
330
170
330
16E
 92
        7
 72
     0
 73
     1
 93
        4
 10
7210.546003666479
 20
1290.562776644572
 10
7214.333163260414
 20
1290.562776644572
 10
7217.444856059649
 20
1400.602787564931
 10
7213.652029088421
 20
1400.402369882524
 97
        4
330
138
330
12C
330
170
330
18E
 92
        7
 72
     0
 73
     1
 93
        4
 10
7213.652029088421
 20
1400.402369882525
 10
7205.341000448138
 20
1399.963204818804
 10
7204.792987223112
 20
1290.562776644572
 10
7210.546003666479
 20
1290.562776644572
 97
        4
330
138
330
16F
330
170
330
12C
 75
     0
 76
     0
 52
45.0
 41
10.0
 77
     0
 78
     1
 53
45.0
 43
-81104.891516
 44
2826.905882
 45
-7.071067811865474
 46
7.071067811865475
 79
     0
 47
0.040293
 98
        7
 10
7213.818438
 20
1597.146581
 10
7224.300914
 20
1572.970609
 10
7224.300914
 20
1479.490215
 10
7213.012184
 20
1478.68438
 10
7219.462921
 20
1368.280836
 10
7214.624927
 20
1373.92199
 10
7209.786933
 20
1375.533659
  0
HATCH
  5
113
100
AcDbEntity
  8
TRAMAS
  6
CONTINUOUS
100
AcDbHatch
 10
0.0
 20
0.0
 30
0.0
210
0.0
220
0.0
230
1.0
  2
U
 70
     0
 71
     1
 91
        9
 92
        7
 72
     0
 73
     1
 93
        4
 10
7005.453869555805
 20
1525.400920849587
 10
7025.459191983334
 20
1526.458026904553
 10
7025.966180718469
 20
1627.668695134133
 10
7005.960858290939
 20
1626.611589079166
 97
        4
330
185
330
173
330
132
330
172
 92
        7
 72
     0
 73
     1
 93
        4
 10
7025.358840809541
 20
1506.424821720736
 10
7005.353518382015
 20
1505.367715665769
 10
7004.77243226435
 20
1389.364912857697
 10
7024.777754691875
 20
1390.422018912663
 97
        4
330
184
330
173
330
138
330
172
 92
        7
 72
     0
 73
     1
 93
        4
 10
7004.27750844907
 20
1290.562776644573
 10
7024.277535576491
 20
1290.562776644572
 10
7024.777754691875
 20
1390.422018912663
 10
7004.77243226435
 20
1389.364912857697
 97
        4
330
138
330
173
330
170
330
172
 92
        7
 72
     0
 73
     1
 93
        4
 10
7024.177350735505
 20
1270.562776644573
 10
7004.177323608082
 20
1270.562776644573
 10
7002.29885783959
 20
895.5627766445713
 10
7022.298884967
 20
895.5627766445713
 97
        4
330
171
330
173
330
130
330
172
 92
        7
 72
     0
 73
     1
 93
        4
 10
7000.06626107946
 20
449.8672526212887
 10
7020.0678115051
 20
450.171350172832
 10
7020.220049516521
 20
480.5627766445755
 10
7000.220022389123
 20
480.5627766445756
 97
        4
330
13B
330
173
330
159
330
172
 92
        7
 72
     0
 73
     1
 93
        4
 10
7000.220022389123
 20
480.5627766445755
 10
7020.220049516521
 20
480.5627766445755
 10
7020.64583509072
 20
565.5627766451742
 10
7000.645807963318
 20
565.5627766451742
 97
        4
330
18B
330
173
330
13B
330
172
 92
        7
 72
     0
 73
     1
 93
        4
 10
7000.645807963319
 20
565.5627766451742
 10
7020.645835090721
 20
565.5627766451742
 10
7022.148607705521
 20
865.5627766445714
 10
7002.14858057811
 20
865.5627766445714
 97
        4
330
131
330
173
330
18B
330
172
 92
        7
 72
     0
 73
     1
 93
        4
 10
7002.298857839588
 20
895.5627766445715
 10
7002.273811629343
 20
890.5627766445725
 10
7022.273838756753
 20
890.5627766445725
 10
7022.298884967
 20
895.5627766445715
 97
        4
330
130
330
173
330
191
330
172
 92
        7
 72
     0
 73
     1
 93
        4
 10
7002.173626788357
 20
870.5627766445736
 10
7002.14858057811
 20
865.5627766445714
 10
7022.148607705521
 20
865.5627766445714
 10
7022.173653915768
 20
870.5627766445736
 97
        4
330
192
330
173
330
131
330
172
 75
     0
 76
     0
 52
45.0
 41
10.0
 77
     0
 78
     1
 53
45.0
 43
-81104.891516
 44
2826.905882
 45
-7.071067811865474
 46
7.071067811865475
 79
     0
 47
0.101775
 98
        9
 10
7013.305505
 20
1578.867351
 10
7015.34212
 20
1450.630689
 10
7009.232037
 20
1373.281463
 10
7015.34212
 20
1151.411552
 10
7009.232037
 20
463.411384
 10
7007.195422
 20
502.085997
 10
7009.232037
 20
603.86118
 10
7016.283928
 20
893.533115
 10
7013.833577
 20
869.207712
  0
HATCH
  5
114
100
AcDbEntity
  8
TRAMAS
  6
CONTINUOUS
100
AcDbHatch
 10
0.0
 20
0.0
 30
0.0
210
0.0
220
0.0
230
1.0
  2
U
 70
     0
 71
     1
 91
        9
 92
        7
 72
     0
 73
     1
 93
        4
 10
6804.885355206173
 20
1514.802631733144
 10
6824.89007927348
 20
1515.859706170014
 10
6825.397068008616
 20
1617.070374399594
 10
6805.392343941305
 20
1616.013299962723
 97
        4
330
185
330
175
330
132
330
174
 92
        7
 72
     0
 73
     1
 93
        4
 10
6824.789728099692
 20
1495.826500986196
 10
6804.785004032381
 20
1494.769426549326
 10
6804.203917914716
 20
1378.766623741254
 10
6824.208641982025
 20
1379.823698178124
 97
        4
330
184
330
175
330
138
330
174
 92
        7
 72
     0
 73
     1
 93
        4
 10
6824.208641982027
 20
1379.823698178124
 10
6804.203917914718
 20
1378.766623741254
 10
6803.762083494929
 20
1290.562776644573
 10
6823.761512420519
 20
1290.562776644573
 97
        4
330
138
330
175
330
170
330
174
 92
        7
 72
     0
 73
     1
 93
        4
 10
6823.661327579532
 20
1270.562776644573
 10
6803.661898653942
 20
1270.562776644573
 10
6801.78343288545
 20
895.5627766445713
 10
6821.782861811034
 20
895.5627766445713
 97
        4
330
171
330
175
330
130
330
174
 92
        7
 72
     0
 73
     1
 93
        4
 10
6800.13038300918
 20
565.5627766451742
 10
6820.129811934762
 20
565.5627766451742
 10
6821.632584549554
 20
865.5627766445714
 10
6801.633155623972
 20
865.5627766445714
 97
        4
330
131
330
175
330
18B
330
174
 92
        7
 72
     0
 73
     1
 93
        4
 10
6820.129811934759
 20
565.5627766451742
 10
6800.13038300918
 20
565.5627766451742
 10
6799.704597434986
 20
480.5627766445757
 10
6819.704026360565
 20
480.5627766445757
 97
        4
330
18B
330
175
330
13B
330
174
 92
        7
 72
     0
 73
     1
 93
        4
 10
6819.704026360565
 20
480.5627766445756
 10
6799.704597434987
 20
480.5627766445756
 10
6799.527436560797
 20
445.1959741534956
 10
6819.529127873152
 20
445.6476166878061
 97
        4
330
13B
330
175
330
158
330
174
 92
        7
 72
     0
 73
     1
 93
        4
 10
6821.757815600789
 20
890.5627766445725
 10
6821.782861811036
 20
895.5627766445713
 10
6801.78343288545
 20
895.5627766445713
 10
6801.758386675203
 20
890.5627766445725
 97
        4
330
130
330
175
330
191
330
174
 92
        7
 72
     0
 73
     1
 93
        4
 10
6821.632584549556
 20
865.5627766445714
 10
6821.657630759803
 20
870.5627766445735
 10
6801.658201834219
 20
870.5627766445735
 10
6801.633155623972
 20
865.5627766445714
 97
        4
330
192
330
175
330
131
330
174
 75
     0
 76
     0
 52
45.0
 41
10.0
 77
     0
 78
     1
 53
45.0
 43
-81104.891516
 44
2826.905882
 45
-7.071067811865474
 46
7.071067811865475
 79
     0
 47
0.101775
 98
        9
 10
6809.637102
 20
1566.654373
 10
6815.746949
 20
1454.701578
 10
6815.746949
 20
1350.891028
 10
6815.746949
 20
1238.938234
 10
6809.637102
 20
785.020956
 10
6811.673718
 20
538.725088
 10
6809.637102
 20
459.340495
 10
6819.479762
 20
891.954445
 10
6808.997521
 20
867.979893
  0
HATCH
  5
115
100
AcDbEntity
  8
TRAMAS
  6
CONTINUOUS
100
AcDbHatch
 10
0.0
 20
0.0
 30
0.0
210
0.0
220
0.0
230
1.0
  2
U
 70
     0
 71
     1
 91
        9
 92
        7
 72
     0
 73
     1
 93
        4
 10
6604.316786587332
 20
1504.204339749048
 10
6624.3220547457
 20
1505.261442936365
 10
6624.829043480834
 20
1606.472111165945
 10
6604.823775322469
 20
1605.415007978629
 97
        4
330
185
330
177
330
132
330
176
 92
        7
 72
     0
 73
     1
 93
        4
 10
6624.221703571911
 20
1485.228237752548
 10
6604.216435413545
 20
1484.171134565231
 10
6603.635349295882
 20
1368.168331757159
 10
6623.640617454245
 20
1369.225434944475
 97
        4
330
184
330
177
330
138
330
176
 92
        7
 72
     0
 73
     1
 93
        4
 10
6623.640617454245
 20
1369.225434944475
 10
6603.635349295881
 20
1368.168331757158
 10
6603.246604285951
 20
1290.562776644573
 10
6623.246577158581
 20
1290.562776644573
 97
        4
330
138
330
177
330
170
330
176
 92
        7
 72
     0
 73
     1
 93
        4
 10
6623.146392317593
 20
1270.562776644573
 10
6603.146419444964
 20
1270.562776644573
 10
6601.267953676473
 20
895.5627766445715
 10
6621.267926549101
 20
895.5627766445715
 97
        4
330
171
330
177
330
130
330
176
 92
        7
 72
     0
 73
     1
 93
        4
 10
6598.989274525732
 20
440.667778896754
 10
6618.991509846667
 20
441.1194337148955
 10
6619.189091098637
 20
480.5627766445758
 10
6599.189118226011
 20
480.5627766445758
 97
        4
330
13B
330
177
330
157
330
176
 92
        7
 72
     0
 73
     1
 93
        4
 10
6599.189118226009
 20
480.5627766445758
 10
6619.189091098637
 20
480.5627766445758
 10
6619.614876672833
 20
565.5627766451743
 10
6599.614903800203
 20
565.5627766451743
 97
        4
330
18B
330
177
330
13B
330
176
 92
        7
 72
     0
 73
     1
 93
        4
 10
6599.614903800205
 20
565.5627766451743
 10
6619.614876672833
 20
565.5627766451744
 10
6621.11764928762
 20
865.5627766445714
 10
6601.117676414993
 20
865.5627766445713
 97
        4
330
131
330
177
330
18B
330
176
 92
        7
 72
     0
 73
     1
 93
        4
 10
6601.267953676473
 20
895.5627766445713
 10
6601.242907466226
 20
890.5627766445725
 10
6621.242880338854
 20
890.5627766445725
 10
6621.267926549101
 20
895.5627766445715
 97
        4
330
130
330
177
330
191
330
176
 92
        7
 72
     0
 73
     1
 93
        4
 10
6621.117649287622
 20
865.5627766445716
 10
6621.142695497869
 20
870.5627766445735
 10
6601.142722625239
 20
870.5627766445735
 10
6601.117676414992
 20
865.5627766445714
 97
        4
330
192
330
177
330
131
330
176
 75
     0
 76
     0
 52
45.0
 41
10.0
 77
     0
 78
     1
 53
45.0
 43
-81104.891516
 44
2826.905882
 45
-7.071067811865474
 46
7.071067811865475
 79
     0
 47
0.008858
 98
        9
 10
6613.95014
 20
1546.271598
 10
6613.95014
 20
1422.105825
 10
6613.95014
 20
1340.68571
 10
6613.95014
 20
1096.425364
 10
6607.840057
 20
455.241743
 10
6605.803205
 20
506.129335
 10
6605.803205
 20
599.762428
 10
6615.097047
 20
894.248824
 10
6613.856312
 20
867.498913
  0
HATCH
  5
116
100
AcDbEntity
  8
TRAMAS
  6
CONTINUOUS
100
AcDbHatch
 10
0.0
 20
0.0
 30
0.0
210
0.0
220
0.0
230
1.0
  2
U
 70
     0
 71
     1
 91
        9
 92
        7
 72
     0
 73
     1
 93
        4
 10
6424.260474861997
 20
1595.87381918185
 10
6404.255206703648
 20
1594.816715994534
 10
6403.748217968514
 20
1493.606047764954
 10
6423.75348612686
 20
1494.66315095227
 97
        4
330
185
330
179
330
132
330
178
 92
        7
 72
     0
 73
     1
 93
        4
 10
6423.653134953072
 20
1474.629945768453
 10
6403.647866794724
 20
1473.572842581137
 10
6403.066780677058
 20
1357.570039773064
 10
6423.072048835407
 20
1358.62714296038
 97
        4
330
184
330
179
330
138
330
178
 92
        7
 72
     0
 73
     1
 93
        4
 10
6423.072048835407
 20
1358.62714296038
 10
6403.066780677058
 20
1357.570039773064
 10
6402.731125076984
 20
1290.562776644573
 10
6422.731097949597
 20
1290.562776644573
 97
        4
330
138
330
179
330
170
330
178
 92
        7
 72
     0
 73
     1
 93
        4
 10
6400.752474467502
 20
895.5627766445715
 10
6420.752447340113
 20
895.5627766445715
 10
6422.630913108609
 20
1270.562776644573
 10
6402.630940235998
 20
1270.562776644573
 97
        4
330
171
330
179
330
130
330
178
 92
        7
 72
     0
 73
     1
 93
        4
 10
6399.09942459123
 20
565.5627766451743
 10
6419.09939746384
 20
565.5627766451743
 10
6420.602170078634
 20
865.5627766445714
 10
6400.602197206023
 20
865.5627766445714
 97
        4
330
131
330
179
330
18B
330
178
 92
        7
 72
     0
 73
     1
 93
        4
 10
6419.099397463838
 20
565.5627766451743
 10
6399.099424591231
 20
565.5627766451744
 10
6398.673639017033
 20
480.5627766445759
 10
6418.673611889643
 20
480.5627766445759
 97
        4
330
18B
330
179
330
13B
330
178
 92
        7
 72
     0
 73
     1
 93
        4
 10
6398.451112490671
 20
436.1395836400126
 10
6418.453347811587
 20
436.5912384581545
 10
6418.673611889643
 20
480.5627766445759
 10
6398.673639017033
 20
480.5627766445758
 97
        4
330
13B
330
179
330
156
330
178
 92
        7
 72
     0
 73
     1
 93
        4
 10
6400.752474467504
 20
895.5627766445715
 10
6400.727428257257
 20
890.5627766445725
 10
6420.727401129866
 20
890.5627766445725
 10
6420.752447340112
 20
895.5627766445713
 97
        4
330
130
330
179
330
191
330
178
 92
        7
 72
     0
 73
     1
 93
        4
 10
6400.62724341627
 20
870.5627766445733
 10
6400.602197206024
 20
865.5627766445714
 10
6420.602170078632
 20
865.5627766445714
 10
6420.627216288879
 20
870.5627766445733
 97
        4
330
192
330
179
330
131
330
178
 75
     0
 76
     0
 52
45.0
 41
10.0
 77
     0
 78
     1
 53
45.0
 43
-81104.891516
 44
2826.905882
 45
-7.071067811865474
 46
7.071067811865475
 79
     0
 47
0.101775
 98
        9
 10
6416.391584
 20
1532.023097
 10
6418.428435
 20
1430.247914
 10
6414.354968
 20
1332.543776
 10
6408.244886
 20
1122.886843
 10
6408.244886
 20
740.212224
 10
6410.281737
 20
514.271268
 10
6408.244886
 20
449.135176
 10
6407.476823
 20
894.01425
 10
6408.310895
 20
868.448886
  0
HATCH
  5
117
100
AcDbEntity
  8
TRAMAS
  6
CONTINUOUS
100
AcDbHatch
 10
0.0
 20
0.0
 30
0.0
210
0.0
220
0.0
230
1.0
  2
U
 70
     0
 71
     1
 91
        9
 92
        7
 72
     0
 73
     1
 93
        4
 10
6223.691906243178
 20
1585.275527197756
 10
6203.686638084812
 20
1584.218424010439
 10
6203.179649349676
 20
1483.007755780859
 10
6223.184917508043
 20
1484.064858968175
 97
        4
330
185
330
17B
330
132
330
17A
 92
        7
 72
     0
 73
     1
 93
        4
 10
6223.084566334251
 20
1464.031653784358
 10
6203.079298175887
 20
1462.974550597042
 10
6202.498212058221
 20
1346.971747788969
 10
6222.503480216587
 20
1348.028850976286
 97
        4
330
184
330
17B
330
138
330
17A
 92
        7
 72
     0
 73
     1
 93
        4
 10
6222.503480216588
 20
1348.028850976286
 10
6202.498212058221
 20
1346.971747788969
 10
6202.215645868007
 20
1290.562776644573
 10
6222.215618740635
 20
1290.562776644573
 97
        4
330
138
330
17B
330
170
330
17A
 92
        7
 72
     0
 73
     1
 93
        4
 10
6200.236995258527
 20
895.5627766445715
 10
6220.236968131153
 20
895.5627766445715
 10
6222.11543389965
 20
1270.562776644573
 10
6202.115461027021
 20
1270.562776644573
 97
        4
330
171
330
17B
330
130
330
17A
 92
        7
 72
     0
 73
     1
 93
        4
 10
6220.086690869675
 20
865.5627766445714
 10
6200.086717997045
 20
865.5627766445714
 10
6198.583945382253
 20
565.5627766451743
 10
6218.583918254882
 20
565.5627766451743
 97
        4
330
131
330
17B
330
18B
330
17A
 92
        7
 72
     0
 73
     1
 93
        4
 10
6218.583918254881
 20
565.5627766451743
 10
6198.583945382253
 20
565.5627766451742
 10
6198.158159808059
 20
480.5627766445761
 10
6218.158132680685
 20
480.5627766445761
 97
        4
330
18B
330
17B
330
13B
330
17A
 92
        7
 72
     0
 73
     1
 93
        4
 10
6218.158132680686
 20
480.5627766445761
 10
6198.158159808057
 20
480.5627766445761
 10
6197.912950455606
 20
431.6113883832715
 10
6217.915185776542
 20
432.0630432014134
 97
        4
330
13B
330
17B
330
155
330
17A
 92
        7
 72
     0
 73
     1
 93
        4
 10
6200.236995258524
 20
895.5627766445715
 10
6200.211949048279
 20
890.5627766445727
 10
6220.211921920907
 20
890.5627766445727
 10
6220.236968131153
 20
895.5627766445713
 97
        4
330
130
330
17B
330
191
330
17A
 92
        7
 72
     0
 73
     1
 93
        4
 10
6220.086690869674
 20
865.5627766445716
 10
6220.11173707992
 20
870.5627766445731
 10
6200.111764207291
 20
870.5627766445731
 10
6200.086717997044
 20
865.5627766445714
 97
        4
330
192
330
17B
330
131
330
17A
 75
     0
 76
     0
 52
45.0
 41
10.0
 77
     0
 78
     1
 53
45.0
 43
-81104.891516
 44
2826.905882
 45
-7.071067811865474
 46
7.071067811865475
 79
     0
 47
0.101775
 98
        9
 10
6216.796649
 20
1550.342643
 10
6212.723182
 20
1381.395845
 10
6216.796649
 20
1332.543776
 10
6206.613099
 20
1210.413526
 10
6212.723182
 20
752.425203
 10
6214.760033
 20
534.626336
 10
6212.723182
 20
457.277266
 10
6207.968642
 20
893.649702
 10
6209.025259
 20
866.722498
  0
HATCH
  5
118
100
AcDbEntity
  8
TRAMAS
  6
CONTINUOUS
100
AcDbHatch
 10
0.0
 20
0.0
 30
0.0
210
0.0
220
0.0
230
1.0
  2
U
 70
     0
 71
     1
 91
        9
 92
        7
 72
     0
 73
     1
 93
        4
 10
6023.12333762434
 20
1574.67723521366
 10
6003.118069465976
 20
1573.620132026344
 10
6002.611080730843
 20
1472.409463796764
 10
6022.616348889208
 20
1473.466566984081
 97
        4
330
185
330
17D
330
132
330
17C
 92
        7
 72
     0
 73
     1
 93
        4
 10
6001.929643439391
 20
1336.373455804874
 10
6021.934911597753
 20
1337.43055899219
 10
6022.515997715417
 20
1453.433361800263
 10
6002.510729557053
 20
1452.376258612947
 97
        4
330
184
330
17D
330
138
330
17C
 92
        7
 72
     0
 73
     1
 93
        4
 10
6001.700166659032
 20
1290.562776644574
 10
6021.700139531663
 20
1290.562776644574
 10
6021.934911597755
 20
1337.43055899219
 10
6001.929643439389
 20
1336.373455804874
 97
        4
330
138
330
17D
330
170
330
17C
 92
        7
 72
     0
 73
     1
 93
        4
 10
6021.599954690677
 20
1270.562776644572
 10
6001.599981818046
 20
1270.562776644572
 10
5999.721516049559
 20
895.5627766445715
 10
6019.721488922187
 20
895.5627766445715
 97
        4
330
171
330
17D
330
130
330
17C
 92
        7
 72
     0
 73
     1
 93
        4
 10
6019.571211660709
 20
865.5627766445714
 10
5999.571238788082
 20
865.5627766445714
 10
5998.068466173293
 20
565.5627766451743
 10
6018.068439045921
 20
565.5627766451744
 97
        4
330
131
330
17D
330
18B
330
17C
 92
        7
 72
     0
 73
     1
 93
        4
 10
6018.068439045921
 20
565.5627766451743
 10
5998.068466173293
 20
565.5627766451744
 10
5997.642680599099
 20
480.5627766445763
 10
6017.642653471728
 20
480.5627766445763
 97
        4
330
18B
330
17D
330
13B
330
17C
 92
        7
 72
     0
 73
     1
 93
        4
 10
6017.642653471728
 20
480.5627766445763
 10
5997.642680599099
 20
480.5627766445763
 10
5997.374788420561
 20
427.0831931265305
 10
6017.377023741495
 20
427.5348479446724
 97
        4
330
13B
330
17D
330
154
330
17C
 92
        7
 72
     0
 73
     1
 93
        4
 10
5999.721516049559
 20
895.5627766445713
 10
5999.696469839312
 20
890.5627766445727
 10
6019.696442711942
 20
890.5627766445727
 10
6019.721488922189
 20
895.5627766445713
 97
        4
330
130
330
17D
330
191
330
17C
 92
        7
 72
     0
 73
     1
 93
        4
 10
6019.571211660709
 20
865.5627766445714
 10
6019.596257870955
 20
870.5627766445731
 10
5999.596284998326
 20
870.5627766445729
 10
5999.571238788079
 20
865.5627766445714
 97
        4
330
192
330
17D
330
131
330
17C
 75
     0
 76
     0
 52
45.0
 41
10.0
 77
     0
 78
     1
 53
45.0
 43
-81104.891516
 44
2826.905882
 45
-7.071067811865474
 46
7.071067811865475
 79
     0
 47
0.009379
 98
        9
 10
6014.162938
 20
1529.959868
 10
6008.052856
 20
1379.332616
 10
6010.089471
 20
1310.125479
 10
6012.126323
 20
1183.92434
 10
6010.089471
 20
805.320609
 10
6010.089471
 20
534.598629
 10
6010.089471
 20
445.03658
 10
6013.061294
 20
894.656956
 10
6008.932191
 20
867.083933
  0
HATCH
  5
119
100
AcDbEntity
  8
TRAMAS
  6
CONTINUOUS
100
AcDbHatch
 10
0.0
 20
0.0
 30
0.0
210
0.0
220
0.0
230
1.0
  2
U
 70
     0
 71
     1
 91
        9
 92
        7
 72
     0
 73
     1
 93
        4
 10
5802.042512112023
 20
1461.81117181267
 10
5822.047780270388
 20
1462.868274999986
 10
5822.554769005523
 20
1564.078943229566
 10
5802.549500847155
 20
1563.02184004225
 97
        4
330
185
330
17F
330
132
330
17E
 92
        7
 72
     0
 73
     1
 93
        4
 10
5801.361074820569
 20
1325.775163820779
 10
5821.366342978933
 20
1326.832267008096
 10
5821.947429096598
 20
1442.835069816169
 10
5801.942160938232
 20
1441.777966628852
 97
        4
330
184
330
17F
330
138
330
17E
 92
        7
 72
     0
 73
     1
 93
        4
 10
5801.184687450067
 20
1290.562776644574
 10
5821.184660322698
 20
1290.562776644574
 10
5821.366342978934
 20
1326.832267008096
 10
5801.361074820569
 20
1325.775163820779
 97
        4
330
138
330
17F
330
170
330
17E
 92
        7
 72
     0
 73
     1
 93
        4
 10
5799.206036840588
 20
895.5627766445713
 10
5819.206009713218
 20
895.5627766445713
 10
5821.084475481711
 20
1270.562776644573
 10
5801.084502609081
 20
1270.562776644573
 97
        4
330
171
330
17F
330
130
330
17E
 92
        7
 72
     0
 73
     1
 93
        4
 10
5797.552986964319
 20
565.5627766451746
 10
5817.552959836948
 20
565.5627766451746
 10
5819.055732451738
 20
865.5627766445716
 10
5799.055759579111
 20
865.5627766445714
 97
        4
330
131
330
17F
330
18B
330
17E
 92
        7
 72
     0
 73
     1
 93
        4
 10
5797.127201390123
 20
480.5627766445764
 10
5817.127174262753
 20
480.5627766445764
 10
5817.552959836948
 20
565.5627766451744
 10
5797.552986964319
 20
565.5627766451746
 97
        4
330
18B
330
17F
330
13B
330
17E
 92
        7
 72
     0
 73
     1
 93
        4
 10
5796.836626385497
 20
422.5549978697895
 10
5816.838861706435
 20
423.0066526879315
 10
5817.127174262753
 20
480.5627766445764
 10
5797.127201390124
 20
480.5627766445764
 97
        4
330
13B
330
17F
330
153
330
17E
 92
        7
 72
     0
 73
     1
 93
        4
 10
5799.206036840589
 20
895.5627766445715
 10
5799.180990630342
 20
890.5627766445727
 10
5819.180963502972
 20
890.5627766445727
 10
5819.206009713219
 20
895.5627766445715
 97
        4
330
130
330
17F
330
191
330
17E
 92
        7
 72
     0
 73
     1
 93
        4
 10
5819.055732451738
 20
865.5627766445714
 10
5819.080778661986
 20
870.5627766445727
 10
5799.080805789357
 20
870.5627766445729
 10
5799.055759579109
 20
865.5627766445716
 97
        4
330
192
330
17F
330
131
330
17E
 75
     0
 76
     0
 52
45.0
 41
10.0
 77
     0
 78
     1
 53
45.0
 43
-81104.891516
 44
2826.905882
 45
-7.071067811865474
 46
7.071067811865475
 79
     0
 47
0.101775
 98
        9
 10
5810.494536
 20
1513.675845
 10
5810.494536
 20
1354.906504
 10
5810.494536
 20
1299.948023
 10
5810.494536
 20
1185.959706
 10
5808.45792
 20
797.178676
 10
5804.384453
 20
524.421173
 10
5806.421069
 20
436.894491
 10
5811.526635
 20
893.244994
 10
5808.815784
 20
866.828656
  0
HATCH
  5
11A
100
AcDbEntity
  8
TRAMAS
  6
CONTINUOUS
100
AcDbHatch
 10
0.0
 20
0.0
 30
0.0
210
0.0
220
0.0
230
1.0
  2
U
 70
     0
 71
     1
 91
       10
 92
        7
 72
     0
 73
     1
 93
        4
 10
5210.819025427319
 20
890.5627766445725
 10
5210.931799118763
 20
895.5627766445713
 10
5197.659591830273
 20
895.5627766445713
 10
5197.634545618933
 20
890.5627766445727
 97
        4
330
130
330
189
330
191
330
13A
 92
        7
 72
     0
 73
     1
 93
        4
 10
5217.634518499324
 20
890.5627766445727
 10
5217.659564710665
 20
895.5627766445715
 10
5210.931799118761
 20
895.5627766445715
 10
5210.819025427317
 20
890.5627766445727
 97
        4
330
130
330
13A
330
191
330
18A
 92
        7
 72
     0
 73
     1
 93
        4
 10
5217.534333653965
 20
870.5627766445726
 10
5210.367930661547
 20
870.5627766445726
 10
5210.255156970106
 20
865.5627766445714
 10
5217.509287442626
 20
865.5627766445714
 97
        4
330
192
330
13A
330
131
330
18A
 92
        7
 72
     0
 73
     1
 93
        4
 10
5210.255156970106
 20
865.5627766445714
 10
5210.367930661547
 20
870.5627766445726
 10
5197.534360773575
 20
870.5627766445726
 10
5197.509314562235
 20
865.5627766445714
 97
        4
330
192
330
189
330
131
330
13A
 92
        7
 72
     0
 73
     1
 93
        4
 10
5355.660626517586
 20
895.5627766445713
 10
5355.611390786111
 20
890.5627766445727
 10
5375.61136365874
 20
890.5627766445727
 10
5375.660599390215
 20
895.5627766445713
 97
        4
330
130
330
187
330
191
330
188
 92
        7
 72
     0
 73
     1
 93
        4
 10
5375.365185001364
 20
865.5627766445714
 10
5375.41442073284
 20
870.5627766445729
 10
5355.414447860211
 20
870.5627766445727
 10
5355.365212128736
 20
865.5627766445714
 97
        4
330
192
330
187
330
131
330
188
 92
        7
 72
     0
 73
     1
 93
        4
 10
5462.883643539435
 20
895.5627766445713
 10
5462.831564893454
 20
890.5627766445725
 10
5482.831537766067
 20
890.5627766445727
 10
5482.883616412049
 20
895.5627766445713
 97
        4
330
130
330
183
330
191
330
182
 92
        7
 72
     0
 73
     1
 93
        4
 10
5482.571144536161
 20
865.5627766445714
 10
5482.623223182144
 20
870.5627766445727
 10
5462.623250309529
 20
870.5627766445727
 10
5462.571171663547
 20
865.5627766445714
 97
        4
330
192
330
183
330
131
330
182
 92
        7
 72
     0
 73
     1
 93
        4
 10
5598.690557631611
 20
895.5627766445713
 10
5598.665511421364
 20
890.5627766445727
 10
5618.665484293995
 20
890.5627766445727
 10
5618.69053050424
 20
895.5627766445713
 97
        4
330
130
330
181
330
191
330
180
 92
        7
 72
     0
 73
     1
 93
        4
 10
5598.565326580378
 20
870.5627766445727
 10
5598.540280370131
 20
865.5627766445714
 10
5618.540253242762
 20
865.5627766445714
 10
5618.565299453007
 20
870.5627766445727
 97
        4
330
192
330
181
330
131
330
180
 75
     0
 76
     0
 52
45.0
 41
10.0
 77
     0
 78
     1
 53
45.0
 43
-81104.891516
 44
2826.905882
 45
-7.071067811865474
 46
7.071067811865475
 79
     0
 47
0.036029
 98
       10
 10
5204.490223
 20
892.649919
 10
5213.86304
 20
892.649919
 10
5216.026016
 20
867.429958
 10
5202.327247
 20
867.429958
 10
5366.713178
 20
893.370609
 10
5367.434092
 20
866.709267
 10
5472.698761
 20
894.091144
 10
5477.745862
 20
866.709267
 10
5603.919141
 20
893.370609
 10
5612.571044
 20
868.150492
  0
HATCH
  5
11B
100
AcDbEntity
  8
TRAMAS
  6
CONTINUOUS
100
AcDbHatch
 10
0.0
 20
0.0
 30
0.0
210
0.0
220
0.0
230
1.0
  2
U
 70
     0
 71
     1
 91
        7
 92
        7
 72
     0
 73
     1
 93
        4
 10
5621.986200386685
 20
1553.480651245471
 10
5601.98093222832
 20
1552.423548058155
 10
5601.473943493186
 20
1451.212879828575
 10
5621.47921165155
 20
1452.269983015891
 97
        4
330
185
330
181
330
132
330
180
 92
        7
 72
     0
 73
     1
 93
        4
 10
5600.792506201731
 20
1315.176871836684
 10
5620.797774360097
 20
1316.233975024001
 10
5621.378860477761
 20
1432.236777832074
 10
5601.373592319396
 20
1431.179674644758
 97
        4
330
184
330
181
330
138
330
180
 92
        7
 72
     0
 73
     1
 93
        4
 10
5600.792506201731
 20
1315.176871836684
 10
5600.66920824109
 20
1290.562776644574
 10
5620.669181113719
 20
1290.562776644574
 10
5620.797774360098
 20
1316.233975024001
 97
        4
330
138
330
181
330
170
330
180
 92
        7
 72
     0
 73
     1
 93
        4
 10
5620.568996272732
 20
1270.562776644573
 10
5600.569023400105
 20
1270.562776644573
 10
5598.690557631613
 20
895.5627766445713
 10
5618.69053050424
 20
895.5627766445713
 97
        4
330
171
330
181
330
130
330
180
 92
        7
 72
     0
 73
     1
 93
        4
 10
5618.540253242761
 20
865.5627766445714
 10
5598.540280370132
 20
865.5627766445714
 10
5597.037507755342
 20
565.5627766451744
 10
5617.037480627971
 20
565.5627766451744
 97
        4
330
131
330
181
330
18B
330
180
 92
        7
 72
     0
 73
     1
 93
        4
 10
5596.611722181147
 20
480.5627766445765
 10
5616.611695053776
 20
480.5627766445765
 10
5617.037480627971
 20
565.5627766451744
 10
5597.037507755342
 20
565.5627766451744
 97
        4
330
18B
330
181
330
13B
330
180
 92
        7
 72
     0
 73
     1
 93
        4
 10
5616.611695053776
 20
480.5627766445764
 10
5596.611722181148
 20
480.5627766445765
 10
5596.298464350434
 20
418.0268026130473
 10
5616.300699671368
 20
418.4784574311892
 97
        4
330
13B
330
181
330
152
330
180
 75
     0
 76
     0
 52
45.0
 41
10.0
 77
     0
 78
     1
 53
45.0
 43
-81104.891516
 44
2826.905882
 45
-7.071067811865474
 46
7.071067811865475
 79
     0
 47
0.101775
 98
        7
 10
5617.009447
 20
1523.853301
 10
5610.899365
 20
1379.332616
 10
5608.862749
 20
1308.089957
 10
5610.899365
 20
1179.853295
 10
5610.899365
 20
854.172679
 10
5606.826133
 20
524.421173
 10
5606.826133
 20
453.178514
  0
HATCH
  5
11C
100
AcDbEntity
  8
TRAMAS
  6
CONTINUOUS
100
AcDbHatch
 10
0.0
 20
0.0
 30
0.0
210
0.0
220
0.0
230
1.0
  2
U
 70
     0
 71
     1
 91
        7
 92
        7
 72
     0
 73
     1
 93
        4
 10
5489.663483043216
 20
1546.488554706157
 10
5469.652496522787
 20
1545.431149353495
 10
5468.598012280128
 20
1444.191550782094
 10
5488.608998800556
 20
1445.248956134756
 97
        4
330
185
330
183
330
132
330
182
 92
        7
 72
     0
 73
     1
 93
        4
 10
5488.400278716341
 20
1425.210024603273
 10
5468.389292195913
 20
1424.152619250611
 10
5467.180693045203
 20
1308.116657875402
 10
5487.191679565626
 20
1309.174063228064
 97
        4
330
184
330
183
330
138
330
182
 92
        7
 72
     0
 73
     1
 93
        4
 10
5467.180693045202
 20
1308.116657875401
 10
5466.99785657196
 20
1290.562776644574
 10
5486.997829444579
 20
1290.562776644574
 10
5487.191679565627
 20
1309.174063228063
 97
        4
330
138
330
183
330
170
330
182
 92
        7
 72
     0
 73
     1
 93
        4
 10
5462.883643539436
 20
895.5627766445713
 10
5482.883616412049
 20
895.5627766445713
 10
5486.789514860654
 20
1270.562776644572
 10
5466.789541988033
 20
1270.562776644572
 97
        4
330
171
330
183
330
130
330
182
 92
        7
 72
     0
 73
     1
 93
        4
 10
5459.446452904675
 20
565.5627766451746
 10
5479.446425777284
 20
565.5627766451744
 10
5482.57114453616
 20
865.5627766445714
 10
5462.571171663547
 20
865.5627766445714
 97
        4
330
131
330
183
330
18B
330
182
 92
        7
 72
     0
 73
     1
 93
        4
 10
5479.446425777284
 20
565.5627766451744
 10
5459.446452904677
 20
565.5627766451744
 10
5458.561115922988
 20
480.5627766445765
 10
5478.561088795594
 20
480.5627766445765
 97
        4
330
18B
330
183
330
13B
330
182
 92
        7
 72
     0
 73
     1
 93
        4
 10
5478.561088795593
 20
480.5627766445765
 10
5458.561115922988
 20
480.5627766445765
 10
5457.877202935211
 20
414.9012204644335
 10
5477.881880696529
 20
415.3529304334099
 97
        4
330
13B
330
183
330
151
330
182
 75
     0
 76
     0
 52
45.0
 41
10.0
 77
     0
 78
     1
 53
45.0
 43
-81104.891516
 44
2826.905882
 45
-7.071067811865474
 46
7.071067811865475
 79
     0
 47
0.101775
 98
        7
 10
5480.142463
 20
1513.641134
 10
5480.142463
 20
1389.475361
 10
5478.105847
 20
1301.948678
 10
5476.069231
 20
1226.63513
 10
5469.959149
 20
809.356943
 10
5471.995764
 20
520.315417
 10
5469.959149
 20
449.072758
  0
HATCH
  5
11D
100
AcDbEntity
  8
TRAMAS
  6
CONTINUOUS
100
AcDbHatch
 10
0.0
 20
0.0
 30
0.0
210
0.0
220
0.0
230
1.0
  2
U
 70
     0
 71
     1
 91
        7
 92
        7
 72
     0
 73
     1
 93
        4
 10
5371.574033677787
 20
480.5627766445766
 10
5351.574060805153
 20
480.5627766445767
 10
5350.903696221152
 20
412.4857354475974
 10
5370.908117090817
 20
412.9374396159048
 97
        4
330
13B
330
187
330
150
330
188
 92
        7
 72
     0
 73
     1
 93
        4
 10
5372.411041112869
 20
565.5627766451744
 10
5352.411068240234
 20
565.5627766451744
 10
5351.574060805152
 20
480.5627766445766
 10
5371.574033677787
 20
480.5627766445765
 97
        4
330
18B
330
187
330
13B
330
188
 92
        7
 72
     0
 73
     1
 93
        4
 10
5375.365185001364
 20
865.5627766445714
 10
5355.365212128736
 20
865.5627766445714
 10
5352.411068240234
 20
565.5627766451744
 10
5372.411041112869
 20
565.5627766451743
 97
        4
330
131
330
187
330
18B
330
188
 92
        7
 72
     0
 73
     1
 93
        4
 10
5355.660626517586
 20
895.5627766445715
 10
5375.660599390215
 20
895.5627766445715
 10
5379.353279250842
 20
1270.562776644573
 10
5359.353306378221
 20
1270.562776644573
 97
        4
330
171
330
187
330
130
330
188
 92
        7
 72
     0
 73
     1
 93
        4
 10
5359.66716184156
 20
1302.435509509115
 10
5359.550249304121
 20
1290.562776644574
 10
5379.550222176742
 20
1290.562776644574
 10
5379.677546826382
 20
1303.492883075889
 97
        4
330
138
330
187
330
170
330
188
 92
        7
 72
     0
 73
     1
 93
        4
 10
5359.667161841561
 20
1302.435509509115
 10
5379.677546826382
 20
1303.492883075889
 10
5380.82013556597
 20
1419.525356379085
 10
5360.80975058115
 20
1418.467982812311
 97
        4
330
184
330
187
330
138
330
188
 92
        7
 72
     0
 73
     1
 93
        4
 10
5382.01434709494
 20
1540.800240816938
 10
5362.003962110122
 20
1539.742867250164
 10
5361.007070939856
 20
1438.506311968156
 10
5381.017455924675
 20
1439.563685534929
 97
        4
330
185
330
187
330
132
330
188
 75
     0
 76
     0
 52
45.0
 41
10.0
 77
     0
 78
     1
 53
45.0
 43
-81104.891516
 44
2826.905882
 45
-7.071067811865474
 46
7.071067811865475
 79
     0
 47
0.101775
 98
        7
 10
5364.051598
 20
445.001713
 10
5364.051598
 20
501.995872
 10
5368.12483
 20
585.451509
 10
5366.088214
 20
939.629127
 10
5368.12483
 20
1297.877789
 10
5368.12483
 20
1326.374791
 10
5378.308379
 20
1466.824431
  0
HATCH
  5
11E
100
AcDbEntity
  8
TRAMAS
  6
CONTINUOUS
100
AcDbHatch
 10
0.0
 20
0.0
 30
0.0
210
0.0
220
0.0
230
1.0
  2
U
 70
     0
 71
     1
 91
        8
 92
        7
 72
     0
 73
     1
 93
        4
 10
5220.84905591069
 20
1532.284066894799
 10
5200.843787744322
 20
1531.22696370706
 10
5200.336798987054
 20
1430.01629547631
 10
5220.342067153421
 20
1431.073398664049
 97
        4
330
185
330
189
330
132
330
18A
 92
        7
 72
     0
 73
     1
 93
        4
 10
5220.241715975251
 20
1411.040193480001
 10
5200.236447808882
 20
1409.983090292261
 10
5199.65536166585
 20
1293.980287482848
 10
5219.660629832216
 20
1295.037390670587
 97
        4
330
184
330
189
330
138
330
18A
 92
        7
 72
     0
 73
     1
 93
        4
 10
5219.389825976977
 20
1270.562776644572
 10
5199.538057680751
 20
1270.562776644573
 10
5197.659591830273
 20
895.5627766445715
 10
5210.931799118761
 20
895.5627766445715
 97
        4
330
171
330
189
330
130
330
13A
 92
        7
 72
     0
 73
     1
 93
        4
 10
5210.931799118763
 20
895.5627766445713
 10
5217.659564710665
 20
895.5627766445715
 10
5219.538030561146
 20
1270.562776644572
 10
5219.389825976976
 20
1270.562776644572
 97
        4
330
171
330
13A
330
130
330
18A
 92
        7
 72
     0
 73
     1
 93
        4
 10
5210.255156970106
 20
865.5627766445714
 10
5197.509314562235
 20
865.5627766445716
 10
5196.006541881856
 20
565.5627766451746
 10
5203.488735483547
 20
565.5627766451746
 97
        4
330
131
330
189
330
18B
330
13A
 92
        7
 72
     0
 73
     1
 93
        4
 10
5203.488735483547
 20
565.5627766451746
 10
5216.006514762245
 20
565.5627766451746
 10
5217.509287442627
 20
865.5627766445714
 10
5210.255156970106
 20
865.5627766445714
 97
        4
330
131
330
13A
330
18B
330
18A
 92
        7
 72
     0
 73
     1
 93
        4
 10
5216.006514762245
 20
565.5627766451744
 10
5196.006541881857
 20
565.5627766451744
 10
5195.580756289079
 20
480.5627766445767
 10
5215.580729169466
 20
480.5627766445767
 97
        4
330
18B
330
189
330
13B
330
18A
 92
        7
 72
     0
 73
     1
 93
        4
 10
5215.580729169465
 20
480.5627766445767
 10
5195.580756289079
 20
480.5627766445767
 10
5195.222132789689
 20
408.9704119304254
 10
5215.224368118484
 20
409.4220667487447
 97
        4
330
13B
330
189
330
14F
330
18A
 75
     0
 76
     0
 52
45.0
 41
10.0
 77
     0
 78
     1
 53
45.0
 43
-81104.891516
 44
2826.905882
 45
-7.071067811865474
 46
7.071067811865475
 79
     0
 47
0.101775
 98
        8
 10
5211.300238
 20
1503.463522
 10
5211.300238
 20
1377.262382
 10
5211.300238
 20
1216.457519
 10
5215.373705
 20
988.481196
 10
5203.153539
 20
789.001875
 10
5211.300238
 20
776.788897
 10
5213.336853
 20
532.528395
 10
5209.263622
 20
457.214847
  0
HATCH
  5
11F
100
AcDbEntity
  8
TRAMAS
  6
CONTINUOUS
100
AcDbHatch
 10
0.0
 20
0.0
 30
0.0
210
0.0
220
0.0
230
1.0
  2
U
 70
     0
 71
     0
 91
       34
 92
        7
 72
     0
 73
     1
 93
        4
 10
5487.694432922353
 20
880.5627766445789
 10
5487.59027563039
 20
870.5627766445727
 10
5598.565326580378
 20
870.5627766445727
 10
5598.615419000871
 20
880.5627766445789
 97
        0
 92
        7
 72
     0
 73
     1
 93
        4
 10
5487.798590214316
 20
890.5627766445725
 10
5487.694432922353
 20
880.5627766445789
 10
5598.615419000873
 20
880.5627766445789
 10
5598.665511421366
 20
890.5627766445727
 97
        0
 92
        7
 72
     0
 73
     1
 93
        4
 10
5487.798590214316
 20
890.5627766445725
 10
5482.831537766067
 20
890.5627766445725
 10
5482.727380474106
 20
880.5627766445789
 10
5487.694432922353
 20
880.5627766445788
 97
        0
 92
        7
 72
     0
 73
     1
 93
        4
 10
5487.694432922353
 20
880.5627766445789
 10
5482.727380474105
 20
880.5627766445789
 10
5482.623223182141
 20
870.5627766445727
 10
5487.59027563039
 20
870.5627766445726
 97
        0
 92
        7
 72
     0
 73
     1
 93
        4
 10
5482.727380474103
 20
880.5627766445789
 10
5462.727407601492
 20
880.5627766445789
 10
5462.62325030953
 20
870.5627766445727
 10
5482.623223182141
 20
870.5627766445727
 97
        0
 92
        7
 72
     0
 73
     1
 93
        4
 10
5462.831564893454
 20
890.5627766445727
 10
5462.727407601491
 20
880.5627766445789
 10
5482.727380474106
 20
880.5627766445789
 10
5482.831537766067
 20
890.5627766445725
 97
        0
 92
        7
 72
     0
 73
     1
 93
        4
 10
5462.831564893456
 20
890.5627766445727
 10
5457.798630905379
 20
890.5627766445727
 10
5457.694473613416
 20
880.5627766445789
 10
5462.727407601492
 20
880.5627766445789
 97
        0
 92
        7
 72
     0
 73
     1
 93
        4
 10
5462.727407601492
 20
880.5627766445789
 10
5457.694473613418
 20
880.5627766445789
 10
5457.590316321456
 20
870.5627766445727
 10
5462.623250309529
 20
870.5627766445727
 97
        0
 92
        7
 72
     0
 73
     1
 93
        4
 10
5444.771005275016
 20
870.5627766445727
 10
5457.590316321455
 20
870.5627766445727
 10
5457.694473613417
 20
880.5627766445789
 10
5444.87516256698
 20
880.5627766445789
 97
        0
 92
        7
 72
     0
 73
     1
 93
        4
 10
5444.979319858942
 20
890.5627766445727
 10
5444.875162566979
 20
880.5627766445789
 10
5457.694473613417
 20
880.5627766445788
 10
5457.79863090538
 20
890.5627766445727
 97
        0
 92
        7
 72
     0
 73
     1
 93
        4
 10
5411.935969406891
 20
890.5627766445725
 10
5411.837497943939
 20
880.5627766445789
 10
5444.87516256698
 20
880.5627766445789
 10
5444.979319858942
 20
890.5627766445727
 97
        0
 92
        7
 72
     0
 73
     1
 93
        4
 10
5411.837497943942
 20
880.5627766445788
 10
5411.739026480991
 20
870.5627766445727
 10
5444.771005275016
 20
870.5627766445727
 10
5444.87516256698
 20
880.5627766445789
 97
        0
 92
        7
 72
     0
 73
     1
 93
        4
 10
5380.332237461253
 20
880.5627766445791
 10
5380.233765998303
 20
870.5627766445727
 10
5411.739026480991
 20
870.5627766445727
 10
5411.837497943942
 20
880.5627766445789
 97
        0
 92
        7
 72
     0
 73
     1
 93
        4
 10
5411.837497943942
 20
880.5627766445789
 10
5411.935969406891
 20
890.5627766445727
 10
5380.430708924203
 20
890.5627766445727
 10
5380.332237461255
 20
880.5627766445789
 97
        0
 92
        7
 72
     0
 73
     1
 93
        4
 10
5380.430708924202
 20
890.5627766445725
 10
5375.61136365874
 20
890.5627766445723
 10
5375.512892195791
 20
880.5627766445789
 10
5380.332237461253
 20
880.5627766445789
 97
        0
 92
        7
 72
     0
 73
     1
 93
        4
 10
5380.332237461252
 20
880.5627766445789
 10
5375.51289219579
 20
880.5627766445789
 10
5375.414420732841
 20
870.5627766445727
 10
5380.233765998303
 20
870.5627766445727
 97
        0
 92
        7
 72
     0
 73
     1
 93
        4
 10
5375.41442073284
 20
870.5627766445726
 10
5375.51289219579
 20
880.5627766445789
 10
5355.512919323161
 20
880.5627766445791
 10
5355.414447860211
 20
870.5627766445727
 97
        0
 92
        7
 72
     0
 73
     1
 93
        4
 10
5375.51289219579
 20
880.5627766445789
 10
5375.61136365874
 20
890.5627766445725
 10
5355.611390786112
 20
890.5627766445727
 10
5355.512919323162
 20
880.5627766445789
 97
        0
 92
        7
 72
     0
 73
     1
 93
        4
 10
5355.611390786112
 20
890.5627766445727
 10
5350.578456786381
 20
890.5627766445725
 10
5350.479985323431
 20
880.5627766445789
 10
5355.512919323161
 20
880.5627766445791
 97
        0
 92
        7
 72
     0
 73
     1
 93
        4
 10
5355.512919323162
 20
880.5627766445789
 10
5350.479985323431
 20
880.5627766445789
 10
5350.38151386048
 20
870.5627766445727
 10
5355.414447860211
 20
870.5627766445727
 97
        0
 92
        7
 72
     0
 73
     1
 93
        4
 10
5350.381513860481
 20
870.5627766445727
 10
5350.479985323431
 20
880.5627766445789
 10
5217.584426076646
 20
880.5627766445791
 10
5217.534333653966
 20
870.5627766445727
 97
        0
 92
        7
 72
     0
 73
     1
 93
        4
 10
5217.634518499324
 20
890.5627766445727
 10
5217.584426076645
 20
880.5627766445791
 10
5350.479985323431
 20
880.5627766445789
 10
5350.578456786381
 20
890.5627766445725
 97
        0
 92
        7
 72
     0
 73
     1
 93
        4
 10
5210.819025427319
 20
890.5627766445727
 10
5210.593478044434
 20
880.5627766445791
 10
5217.584426076645
 20
880.5627766445793
 10
5217.634518499325
 20
890.5627766445725
 97
        0
 92
        7
 72
     0
 73
     1
 93
        4
 10
5210.367930661549
 20
870.5627766445726
 10
5217.534333653966
 20
870.5627766445726
 10
5217.584426076646
 20
880.5627766445789
 10
5210.593478044434
 20
880.5627766445788
 97
        0
 92
        7
 72
     0
 73
     1
 93
        4
 10
5197.584453196255
 20
880.5627766445791
 10
5197.534360773575
 20
870.5627766445726
 10
5210.367930661547
 20
870.5627766445727
 10
5210.593478044433
 20
880.5627766445791
 97
        0
 92
        7
 72
     0
 73
     1
 93
        4
 10
5197.634545618933
 20
890.5627766445727
 10
5197.584453196252
 20
880.5627766445791
 10
5210.593478044434
 20
880.5627766445791
 10
5210.819025427319
 20
890.5627766445727
 97
        0
 92
        7
 72
     0
 73
     1
 93
        4
 10
5197.634545618933
 20
890.5627766445727
 10
5180.819066097452
 20
890.5627766445727
 10
5180.593518714566
 20
880.5627766445791
 10
5197.584453196255
 20
880.5627766445793
 97
        0
 92
        7
 72
     0
 73
     1
 93
        4
 10
5180.593518714568
 20
880.5627766445791
 10
5180.367971331682
 20
870.5627766445727
 10
5197.534360773575
 20
870.5627766445727
 10
5197.584453196255
 20
880.5627766445791
 97
        0
 92
        7
 72
     0
 73
     1
 93
        4
 10
5180.593518714567
 20
880.5627766445789
 10
5175.826897456713
 20
880.5627766445789
 10
5175.601350073826
 20
870.5627766445726
 10
5180.36797133168
 20
870.5627766445726
 97
        0
 92
        7
 72
     0
 73
     1
 93
        4
 10
5180.819066097452
 20
890.5627766445727
 10
5176.052444839598
 20
890.5627766445725
 10
5175.826897456713
 20
880.5627766445791
 10
5180.593518714565
 20
880.5627766445791
 97
        0
 92
        7
 72
     0
 73
     1
 93
        4
 10
5176.052444839598
 20
890.5627766445727
 10
5140.607343698898
 20
890.5627766445727
 10
5140.607343698898
 20
880.5627766445791
 10
5175.826897456713
 20
880.5627766445789
 97
        0
 92
        7
 72
     0
 73
     1
 93
        4
 10
5140.607343698899
 20
880.5627766445791
 10
5140.6073436989
 20
870.5627766445727
 10
5175.601350073828
 20
870.5627766445727
 10
5175.826897456713
 20
880.5627766445791
 97
        0
 92
        7
 72
     0
 73
     1
 93
        4
 10
5140.607343698898
 20
880.5627766445791
 10
5126.470164351982
 20
880.5627766445789
 10
5126.475113701231
 20
870.5627766445727
 10
5140.607343698898
 20
870.5627766445726
 97
        0
 92
        7
 72
     0
 73
     1
 93
        4
 10
5140.607343698898
 20
890.5627766445727
 10
5126.465215002731
 20
890.5627766445725
 10
5126.470164351982
 20
880.5627766445793
 10
5140.607343698899
 20
880.5627766445793
 97
        0
 75
     0
 76
     0
 52
45.0
 41
10.0
 77
     0
 78
     1
 53
45.0
 43
-81104.891516
 44
2826.905882
 45
-7.071067811865474
 46
7.071067811865475
 79
     0
 47
0.050735
 98
       34
 10
5499.284387
 20
877.597452
 10
5499.284387
 20
887.744399
 10
5487.100998
 20
887.744399
 10
5486.085637
 20
875.568
 10
5477.96322
 20
875.568
 10
5476.948095
 20
885.715103
 10
5460.703262
 20
885.715103
 10
5460.703262
 20
877.597452
 10
5448.519637
 20
875.568
 10
5448.519637
 20
889.773851
 10
5427.198471
 20
885.715103
 10
5415.015082
 20
877.597452
 10
5401.816096
 20
876.582726
 10
5398.770249
 20
881.656199
 10
5379.479569
 20
881.656199
 10
5378.464444
 20
874.553274
 10
5369.326666
 20
873.538548
 10
5366.280819
 20
884.700377
 10
5353.082069
 20
884.700377
 10
5353.082069
 20
875.568
 10
5338.867722
 20
874.553274
 10
5282.011279
 20
886.729829
 10
5213.986571
 20
888.759125
 10
5213.986571
 20
875.568
 10
5202.818307
 20
875.568
 10
5201.802946
 20
886.729829
 10
5196.726377
 20
886.729829
 10
5191.650044
 20
876.582726
 10
5179.466419
 20
875.568
 10
5179.466419
 20
883.685651
 10
5172.359363
 20
884.700377
 10
5158.145253
 20
877.597452
 10
5137.839447
 20
877.597452
 10
5137.839447
 20
883.685651
  0
HATCH
  5
120
100
AcDbEntity
  8
TRAMAS
  6
CONTINUOUS
100
AcDbHatch
 10
0.0
 20
0.0
 30
0.0
210
0.0
220
0.0
230
1.0
  2
U
 70
     0
 71
     0
 91
       18
 92
        7
 72
     0
 73
     1
 93
        4
 10
6395.594309428195
 20
870.5627766445733
 10
6400.62724341627
 20
870.5627766445733
 10
6400.677335836762
 20
880.562776644578
 10
6395.644401848688
 20
880.562776644578
 97
        0
 92
        7
 72
     0
 73
     1
 93
        4
 10
6400.727428257257
 20
890.5627766445727
 10
6395.694494269182
 20
890.5627766445727
 10
6395.644401848689
 20
880.5627766445782
 10
6400.677335836762
 20
880.5627766445782
 97
        0
 92
        7
 72
     0
 73
     1
 93
        4
 10
6220.211921920908
 20
890.5627766445729
 10
6220.161829500415
 20
880.5627766445782
 10
6395.644401848689
 20
880.562776644578
 10
6395.694494269182
 20
890.5627766445727
 97
        0
 92
        7
 72
     0
 73
     1
 93
        4
 10
6220.161829500414
 20
880.5627766445784
 10
6220.11173707992
 20
870.5627766445733
 10
6395.594309428195
 20
870.5627766445735
 10
6395.644401848688
 20
880.5627766445782
 97
        0
 92
        7
 72
     0
 73
     1
 93
        4
 10
6200.161856627786
 20
880.5627766445782
 10
6200.111764207293
 20
870.5627766445731
 10
6220.111737079921
 20
870.5627766445731
 10
6220.161829500415
 20
880.5627766445784
 97
        0
 92
        7
 72
     0
 73
     1
 93
        4
 10
6200.211949048279
 20
890.5627766445727
 10
6200.161856627786
 20
880.5627766445782
 10
6220.161829500414
 20
880.5627766445782
 10
6220.211921920908
 20
890.5627766445727
 97
        0
 92
        7
 72
     0
 73
     1
 93
        4
 10
6019.696442711941
 20
890.5627766445727
 10
6019.646350291447
 20
880.5627766445784
 10
6200.161856627786
 20
880.5627766445784
 10
6200.211949048279
 20
890.5627766445725
 97
        0
 92
        7
 72
     0
 73
     1
 93
        4
 10
6019.646350291449
 20
880.5627766445784
 10
6019.596257870956
 20
870.5627766445731
 10
6200.111764207292
 20
870.5627766445731
 10
6200.161856627786
 20
880.5627766445784
 97
        0
 92
        7
 72
     0
 73
     1
 93
        4
 10
5999.646377418819
 20
880.5627766445784
 10
5999.596284998325
 20
870.5627766445731
 10
6019.596257870955
 20
870.5627766445731
 10
6019.646350291449
 20
880.5627766445786
 97
        0
 92
        7
 72
     0
 73
     1
 93
        4
 10
5999.696469839312
 20
890.5627766445727
 10
5999.64637741882
 20
880.5627766445786
 10
6019.646350291449
 20
880.5627766445786
 10
6019.696442711943
 20
890.5627766445727
 97
        0
 92
        7
 72
     0
 73
     1
 93
        4
 10
5999.64637741882
 20
880.5627766445786
 10
5999.696469839313
 20
890.5627766445727
 10
5819.180963502972
 20
890.5627766445727
 10
5819.13087108248
 20
880.5627766445788
 97
        0
 92
        7
 72
     0
 73
     1
 93
        4
 10
5819.130871082478
 20
880.5627766445784
 10
5819.080778661986
 20
870.5627766445729
 10
5999.596284998326
 20
870.5627766445729
 10
5999.64637741882
 20
880.5627766445782
 97
        0
 92
        7
 72
     0
 73
     1
 93
        4
 10
5799.13089820985
 20
880.5627766445788
 10
5799.080805789357
 20
870.5627766445731
 10
5819.080778661986
 20
870.5627766445729
 10
5819.130871082478
 20
880.5627766445786
 97
        0
 92
        7
 72
     0
 73
     1
 93
        4
 10
5819.130871082478
 20
880.5627766445786
 10
5819.180963502972
 20
890.5627766445727
 10
5799.180990630342
 20
890.5627766445725
 10
5799.130898209849
 20
880.5627766445786
 97
        0
 92
        7
 72
     0
 73
     1
 93
        4
 10
5799.130898209849
 20
880.5627766445786
 10
5799.180990630342
 20
890.5627766445725
 10
5618.665484293994
 20
890.5627766445727
 10
5618.615391873501
 20
880.5627766445788
 97
        0
 92
        7
 72
     0
 73
     1
 93
        4
 10
5799.080805789356
 20
870.5627766445727
 10
5799.130898209849
 20
880.5627766445788
 10
5618.6153918735
 20
880.5627766445786
 10
5618.565299453008
 20
870.5627766445729
 97
        0
 92
        7
 72
     0
 73
     1
 93
        4
 10
5618.565299453006
 20
870.5627766445731
 10
5618.615391873499
 20
880.5627766445786
 10
5598.615419000871
 20
880.5627766445786
 10
5598.56532658038
 20
870.5627766445727
 97
        0
 92
        7
 72
     0
 73
     1
 93
        4
 10
5598.665511421365
 20
890.5627766445725
 10
5598.615419000871
 20
880.5627766445789
 10
5618.6153918735
 20
880.5627766445791
 10
5618.665484293994
 20
890.5627766445727
 97
        0
 75
     0
 76
     0
 52
45.0
 41
10.0
 77
     0
 78
     1
 53
45.0
 43
-81104.891516
 44
2826.905882
 45
-7.071067811865474
 46
7.071067811865475
 79
     0
 47
0.050735
 98
       18
 10
6397.363526
 20
872.567095
 10
6399.394012
 20
886.773101
 10
6388.225748
 20
886.773101
 10
6319.18568
 20
876.625998
 10
6208.518639
 20
875.611272
 10
6208.518639
 20
887.787671
 10
6164.860945
 20
885.758375
 10
6124.249099
 20
876.625998
 10
6010.535975
 20
876.625998
 10
6010.535975
 20
888.802397
 10
5964.847795
 20
884.743649
 10
5933.37349
 20
875.611272
 10
5809.507464
 20
875.611272
 10
5808.492103
 20
882.714198
 10
5768.895618
 20
882.714198
 10
5729.299132
 20
874.596547
 10
5604.417745
 20
874.596547
 10
5605.433106
 20
885.758375
  0
HATCH
  5
121
100
AcDbEntity
  8
TRAMAS
  6
CONTINUOUS
100
AcDbHatch
 10
0.0
 20
0.0
 30
0.0
210
0.0
220
0.0
230
1.0
  2
U
 70
     0
 71
     0
 91
       26
 92
        7
 72
     0
 73
     1
 93
        5
 10
7222.456447238269
 20
870.5627766445736
 10
7222.739225016685
 20
880.5627579513661
 10
7222.739225110323
 20
880.5627766445777
 10
7202.739252672666
 20
880.5627766445775
 10
7202.456474365646
 20
870.5627766445738
 97
        0
 92
        7
 72
     0
 73
     1
 93
        4
 10
7203.022030979683
 20
890.5627766445727
 10
7202.739252672664
 20
880.5627766445777
 10
7222.739225110323
 20
880.5627766445777
 10
7222.789317530817
 20
890.5627766445725
 97
        0
 92
        7
 72
     0
 73
     1
 93
        4
 10
7202.789290403385
 20
890.5627766445727
 10
7199.234871385745
 20
890.5627766445725
 10
7198.952093078729
 20
880.5627766445779
 10
7202.739197982889
 20
880.5627766445779
 97
        0
 92
        7
 72
     0
 73
     1
 93
        5
 10
7198.66931477171
 20
870.5627766445738
 10
7202.456474365646
 20
870.5627766445736
 10
7202.73918620932
 20
880.5604262752634
 10
7202.739197982888
 20
880.5627766445777
 10
7198.952093078729
 20
880.5627766445777
 97
        0
 92
        7
 72
     0
 73
     1
 93
        4
 10
7022.22374633626
 20
880.5627766445779
 10
7022.173653915768
 20
870.5627766445736
 10
7198.66931477171
 20
870.5627766445738
 10
7198.952093078729
 20
880.5627766445777
 97
        0
 92
        7
 72
     0
 73
     1
 93
        4
 10
7022.273838756754
 20
890.5627766445725
 10
7022.22374633626
 20
880.5627766445779
 10
7198.952093078728
 20
880.5627766445779
 10
7199.234871385745
 20
890.5627766445727
 97
        0
 92
        7
 72
     0
 73
     1
 93
        4
 10
7022.22374633626
 20
880.562776644578
 10
7022.273838756754
 20
890.5627766445725
 10
7002.273811629343
 20
890.5627766445723
 10
7002.223719208848
 20
880.5627766445779
 97
        0
 92
        7
 72
     0
 73
     1
 93
        4
 10
7002.223719208848
 20
880.5627766445777
 10
7002.173626788354
 20
870.5627766445738
 10
7022.173653915766
 20
870.5627766445736
 10
7022.22374633626
 20
880.5627766445779
 97
        0
 92
        7
 72
     0
 73
     1
 93
        4
 10
7002.173626788357
 20
870.5627766445738
 10
7002.223719208851
 20
880.5627766445779
 10
6821.707723180296
 20
880.5627766445779
 10
6821.657630759803
 20
870.5627766445735
 97
        0
 92
        7
 72
     0
 73
     1
 93
        4
 10
7002.223719208848
 20
880.5627766445777
 10
7002.273811629343
 20
890.5627766445727
 10
6821.757815600789
 20
890.5627766445727
 10
6821.707723180295
 20
880.5627766445779
 97
        0
 92
        7
 72
     0
 73
     1
 93
        4
 10
6801.758386675203
 20
890.5627766445727
 10
6801.708294254709
 20
880.5627766445779
 10
6821.707723180296
 20
880.5627766445779
 10
6821.757815600789
 20
890.5627766445727
 97
        0
 92
        7
 72
     0
 73
     1
 93
        4
 10
6801.708294254712
 20
880.562776644578
 10
6801.658201834218
 20
870.5627766445735
 10
6821.657630759803
 20
870.5627766445733
 10
6821.707723180295
 20
880.5627766445779
 97
        0
 92
        7
 72
     0
 73
     1
 93
        4
 10
6778.662940475801
 20
880.5627766445779
 10
6778.662940475801
 20
870.5627766445736
 10
6801.658201834218
 20
870.5627766445735
 10
6801.708294254712
 20
880.562776644578
 97
        0
 92
        7
 72
     0
 73
     1
 93
        4
 10
6801.70829425471
 20
880.5627766445782
 10
6801.758386675203
 20
890.5627766445725
 10
6778.662940475801
 20
890.5627766445723
 10
6778.6629404758
 20
880.5627766445779
 97
        0
 92
        7
 72
     0
 73
     1
 93
        4
 10
6778.662940475801
 20
880.5627766445779
 10
6778.662940475801
 20
890.5627766445727
 10
6621.242880338854
 20
890.5627766445725
 10
6621.192787918362
 20
880.562776644578
 97
        0
 92
        7
 72
     0
 73
     1
 93
        4
 10
6778.662940475801
 20
870.5627766445736
 10
6778.662940475801
 20
880.562776644578
 10
6621.192787918362
 20
880.5627766445782
 10
6621.142695497869
 20
870.5627766445735
 97
        0
 92
        7
 72
     0
 73
     1
 93
        4
 10
6601.192815045734
 20
880.5627766445782
 10
6601.142722625239
 20
870.5627766445735
 10
6621.142695497869
 20
870.5627766445733
 10
6621.192787918362
 20
880.562776644578
 97
        0
 92
        7
 72
     0
 73
     1
 93
        4
 10
6621.192787918362
 20
880.5627766445779
 10
6621.242880338856
 20
890.5627766445727
 10
6601.242907466226
 20
890.5627766445727
 10
6601.192815045734
 20
880.5627766445782
 97
        0
 92
        7
 72
     0
 73
     1
 93
        4
 10
6601.192815045735
 20
880.562776644578
 10
6601.242907466229
 20
890.5627766445725
 10
6425.694453578127
 20
890.5627766445725
 10
6425.644361157633
 20
880.5627766445782
 97
        0
 92
        7
 72
     0
 73
     1
 93
        4
 10
6601.14272262524
 20
870.5627766445735
 10
6601.192815045734
 20
880.562776644578
 10
6425.644361157633
 20
880.5627766445782
 10
6425.59426873714
 20
870.5627766445731
 97
        0
 92
        7
 72
     0
 73
     1
 93
        4
 10
6420.627216288879
 20
870.5627766445733
 10
6425.59426873714
 20
870.5627766445735
 10
6425.644361157633
 20
880.5627766445782
 10
6420.677308709375
 20
880.5627766445782
 97
        0
 92
        7
 72
     0
 73
     1
 93
        4
 10
6420.677308709374
 20
880.5627766445782
 10
6425.644361157633
 20
880.5627766445782
 10
6425.694453578126
 20
890.5627766445727
 10
6420.727401129866
 20
890.5627766445725
 97
        0
 92
        7
 72
     0
 73
     1
 93
        4
 10
6420.677308709372
 20
880.5627766445782
 10
6420.727401129866
 20
890.5627766445725
 10
6400.727428257257
 20
890.5627766445723
 10
6400.677335836765
 20
880.5627766445782
 97
        0
 92
        7
 72
     0
 73
     1
 93
        4
 10
6400.677335836762
 20
880.562776644578
 10
6400.627243416268
 20
870.5627766445733
 10
6420.627216288879
 20
870.5627766445735
 10
6420.677308709375
 20
880.5627766445782
 97
        0
 92
        7
 72
     0
 73
     1
 93
        4
 10
6400.677335836762
 20
880.5627766445782
 10
6395.644401848688
 20
880.562776644578
 10
6395.594309428194
 20
870.5627766445733
 10
6400.62724341627
 20
870.5627766445733
 97
        0
 92
        7
 72
     0
 73
     1
 93
        4
 10
6400.727428257254
 20
890.5627766445727
 10
6395.694494269182
 20
890.5627766445727
 10
6395.644401848689
 20
880.5627766445782
 10
6400.677335836762
 20
880.5627766445782
 97
        0
 75
     0
 76
     0
 52
45.0
 41
10.0
 77
     0
 78
     1
 53
45.0
 43
-81104.891516
 44
2826.905882
 45
-7.071067811865474
 46
7.071067811865475
 79
     0
 47
0.050735
 98
       26
 10
7215.623786
 20
871.56809
 10
7216.639147
 20
886.788667
 10
7201.409675
 20
887.803393
 10
7200.394314
 20
877.65629
 10
7187.195564
 20
875.626838
 10
7183.134356
 20
885.773941
 10
7014.595275
 20
884.759215
 10
7009.518941
 20
875.626838
 10
6988.197539
 20
874.612112
 10
6980.075358
 20
882.729763
 10
6808.49043
 20
887.803393
 10
6809.505555
 20
875.626838
 10
6789.19975
 20
876.641564
 10
6786.153903
 20
883.744489
 10
6751.633751
 20
884.759215
 10
6747.572542
 20
873.597386
 10
6614.568975
 20
876.641564
 10
6607.461919
 20
884.759215
 10
6593.247808
 20
884.759215
 10
6588.171239
 20
874.612112
 10
6422.678241
 20
873.597386
 10
6421.66288
 20
883.744489
 10
6411.509977
 20
884.759215
 10
6409.479255
 20
876.641564
 10
6398.310992
 20
876.641564
 10
6398.310992
 20
886.788667
  0
HATCH
  5
122
100
AcDbEntity
  8
TRAMAS
  6
CONTINUOUS
100
AcDbHatch
 10
0.0
 20
0.0
 30
0.0
210
0.0
220
0.0
230
1.0
  2
U
 70
     0
 71
     0
 91
       16
 92
        7
 72
     0
 73
     1
 93
        4
 10
6803.711991074435
 20
1280.562776644577
 10
6803.661898653942
 20
1270.562776644573
 10
6823.661327579532
 20
1270.562776644573
 10
6823.711420000025
 20
1280.562776644577
 97
        0
 92
        7
 72
     0
 73
     1
 93
        4
 10
6823.711420000027
 20
1280.562776644577
 10
6823.761512420521
 20
1290.562776644573
 10
6803.762083494929
 20
1290.562776644573
 10
6803.711991074436
 20
1280.562776644577
 97
        0
 92
        7
 72
     0
 73
     1
 93
        4
 10
7004.227416028576
 20
1280.562776644577
 10
7004.277508449068
 20
1290.562776644573
 10
6823.761512420519
 20
1290.562776644573
 10
6823.711420000027
 20
1280.562776644577
 97
        0
 92
        7
 72
     0
 73
     1
 93
        4
 10
7004.177323608081
 20
1270.562776644573
 10
7004.227416028576
 20
1280.562776644577
 10
6823.711420000027
 20
1280.562776644577
 10
6823.661327579532
 20
1270.562776644573
 97
        0
 92
        7
 72
     0
 73
     1
 93
        4
 10
7024.177350735505
 20
1270.562776644573
 10
7024.227443155997
 20
1280.562776644577
 10
7004.227416028576
 20
1280.562776644577
 10
7004.177323608081
 20
1270.562776644573
 97
        0
 92
        7
 72
     0
 73
     1
 93
        4
 10
7024.227443155997
 20
1280.562776644577
 10
7024.277535576491
 20
1290.562776644572
 10
7004.27750844907
 20
1290.562776644572
 10
7004.227416028576
 20
1280.562776644577
 97
        0
 92
        7
 72
     0
 73
     1
 93
        4
 10
7024.277535576491
 20
1290.562776644573
 10
7024.227443155997
 20
1280.562776644577
 10
7204.742894802619
 20
1280.562776644577
 10
7204.792987223112
 20
1290.562776644572
 97
        0
 92
        7
 72
     0
 73
     1
 93
        4
 10
7204.692802382128
 20
1270.562776644573
 10
7204.742894802622
 20
1280.562776644577
 10
7024.227443155997
 20
1280.562776644577
 10
7024.177350735503
 20
1270.562776644573
 97
        0
 92
        7
 72
     0
 73
     1
 93
        4
 10
7210.263225359461
 20
1280.562776644577
 10
7204.742894802619
 20
1280.562776644577
 10
7204.692802382128
 20
1270.562776644573
 10
7209.980447052442
 20
1270.562776644573
 97
        0
 92
        7
 72
     0
 73
     1
 93
        4
 10
7204.742894802619
 20
1280.562776644577
 10
7210.263225359461
 20
1280.562776644577
 10
7210.546003666479
 20
1290.562776644572
 10
7204.792987223114
 20
1290.562776644573
 97
        0
 92
        7
 72
     0
 73
     1
 93
        4
 10
7214.333163260416
 20
1290.562776644572
 10
7210.546003666479
 20
1290.562776644572
 10
7210.263225359461
 20
1280.562776644577
 10
7214.050384953399
 20
1280.562776644577
 97
        0
 92
        7
 72
     0
 73
     1
 93
        4
 10
7209.980447052442
 20
1270.562776644573
 10
7213.767606646378
 20
1270.562776644573
 10
7214.050384953397
 20
1280.562776644577
 10
7210.263225359461
 20
1280.562776644577
 97
        0
 92
        7
 72
     0
 73
     1
 93
        4
 10
7213.76760664638
 20
1270.562776644573
 10
7224.692829509558
 20
1270.562776644573
 10
7224.742921930053
 20
1280.562776644577
 10
7214.050384953397
 20
1280.562776644577
 97
        0
 92
        7
 72
     0
 73
     1
 93
        4
 10
7224.742921930053
 20
1280.562776644577
 10
7224.793014350544
 20
1290.562776644572
 10
7214.333163260416
 20
1290.562776644573
 10
7214.050384953399
 20
1280.562776644577
 97
        0
 92
        7
 72
     0
 73
     1
 93
        4
 10
7234.333136133045
 20
1290.562776644572
 10
7224.793014350544
 20
1290.562776644572
 10
7224.742921930051
 20
1280.562776644577
 10
7234.050357826027
 20
1280.562776644577
 97
        0
 92
        7
 72
     0
 73
     1
 93
        4
 10
7234.050357826027
 20
1280.562776644577
 10
7224.742921930051
 20
1280.562776644577
 10
7224.692829509557
 20
1270.562776644573
 10
7233.767579519009
 20
1270.562776644573
 97
        0
 75
     0
 76
     0
 52
45.0
 41
10.0
 77
     0
 78
     1
 53
45.0
 43
-81104.891516
 44
2826.905882
 45
-7.071067811865474
 46
7.071067811865475
 79
     0
 47
0.036487
 98
       16
 10
6813.976963
 20
1275.646592
 10
6814.70707
 20
1283.673651
 10
6834.421387
 20
1284.403369
 10
6843.183149
 20
1274.916873
 10
7011.849061
 20
1274.187155
 10
7017.690393
 20
1284.403369
 10
7042.515698
 20
1285.862806
 10
7101.658178
 20
1273.457281
 10
7207.530838
 20
1274.187155
 10
7207.530838
 20
1285.862806
 10
7212.641826
 20
1287.322243
 10
7211.181611
 20
1277.106029
 10
7217.022942
 20
1274.916873
 10
7219.213265
 20
1282.214214
 10
7230.895928
 20
1285.133088
 10
7231.626035
 20
1277.106029
  0
HATCH
  5
123
100
AcDbEntity
  8
TRAMAS
  6
CONTINUOUS
100
AcDbHatch
 10
0.0
 20
0.0
 30
0.0
210
0.0
220
0.0
230
1.0
  2
U
 70
     0
 71
     0
 91
       16
 92
        7
 72
     0
 73
     1
 93
        4
 10
6222.11543389965
 20
1270.562776644573
 10
6397.59800624792
 20
1270.562776644573
 10
6397.648098668413
 20
1280.562776644577
 10
6222.165526320143
 20
1280.562776644577
 97
        0
 92
        7
 72
     0
 73
     1
 93
        4
 10
6397.648098668414
 20
1280.562776644577
 10
6397.698191088907
 20
1290.562776644573
 10
6222.215618740636
 20
1290.562776644573
 10
6222.165526320144
 20
1280.562776644577
 97
        0
 92
        7
 72
     0
 73
     1
 93
        4
 10
6402.731125076984
 20
1290.562776644573
 10
6397.698191088906
 20
1290.562776644573
 10
6397.648098668414
 20
1280.562776644577
 10
6402.681032656492
 20
1280.562776644577
 97
        0
 92
        7
 72
     0
 73
     1
 93
        4
 10
6402.681032656492
 20
1280.562776644577
 10
6397.648098668414
 20
1280.562776644577
 10
6397.598006247921
 20
1270.562776644573
 10
6402.630940235998
 20
1270.562776644573
 97
        0
 92
        7
 72
     0
 73
     1
 93
        4
 10
6422.630913108609
 20
1270.562776644573
 10
6422.681005529101
 20
1280.562776644577
 10
6402.681032656492
 20
1280.562776644577
 10
6402.630940235997
 20
1270.562776644573
 97
        0
 92
        7
 72
     0
 73
     1
 93
        4
 10
6422.681005529101
 20
1280.562776644577
 10
6422.731097949595
 20
1290.562776644573
 10
6402.731125076984
 20
1290.562776644573
 10
6402.681032656492
 20
1280.562776644577
 97
        0
 92
        7
 72
     0
 73
     1
 93
        4
 10
6422.681005529101
 20
1280.562776644577
 10
6427.64805797735
 20
1280.562776644577
 10
6427.698150397843
 20
1290.562776644573
 10
6422.731097949597
 20
1290.562776644573
 97
        0
 92
        7
 72
     0
 73
     1
 93
        4
 10
6427.64805797735
 20
1280.562776644577
 10
6422.681005529103
 20
1280.562776644577
 10
6422.630913108609
 20
1270.562776644573
 10
6427.597965556856
 20
1270.562776644573
 97
        0
 92
        7
 72
     0
 73
     1
 93
        4
 10
6427.648057977347
 20
1280.562776644577
 10
6427.597965556855
 20
1270.562776644573
 10
6603.146419444964
 20
1270.562776644573
 10
6603.196511865457
 20
1280.562776644577
 97
        0
 92
        7
 72
     0
 73
     1
 93
        4
 10
6603.196511865457
 20
1280.562776644577
 10
6603.246604285949
 20
1290.562776644573
 10
6427.698150397842
 20
1290.562776644573
 10
6427.64805797735
 20
1280.562776644577
 97
        0
 92
        7
 72
     0
 73
     1
 93
        4
 10
6603.246604285951
 20
1290.562776644573
 10
6603.196511865459
 20
1280.562776644577
 10
6623.196484738087
 20
1280.562776644577
 10
6623.246577158579
 20
1290.562776644573
 97
        0
 92
        7
 72
     0
 73
     1
 93
        4
 10
6623.146392317593
 20
1270.562776644573
 10
6623.196484738087
 20
1280.562776644577
 10
6603.196511865457
 20
1280.562776644577
 10
6603.146419444962
 20
1270.562776644573
 97
        0
 92
        7
 72
     0
 73
     1
 93
        4
 10
6778.662940475801
 20
1270.562776644573
 10
6778.6629404758
 20
1280.562776644577
 10
6623.196484738087
 20
1280.562776644577
 10
6623.146392317592
 20
1270.562776644573
 97
        0
 92
        7
 72
     0
 73
     1
 93
        4
 10
6778.662940475801
 20
1280.562776644577
 10
6778.6629404758
 20
1290.562776644573
 10
6623.246577158579
 20
1290.562776644573
 10
6623.196484738087
 20
1280.562776644577
 97
        0
 92
        7
 72
     0
 73
     1
 93
        4
 10
6778.662940475803
 20
1290.562776644573
 10
6778.662940475803
 20
1280.562776644577
 10
6803.711991074435
 20
1280.562776644577
 10
6803.762083494928
 20
1290.562776644573
 97
        0
 92
        7
 72
     0
 73
     1
 93
        4
 10
6803.661898653942
 20
1270.562776644573
 10
6803.711991074436
 20
1280.562776644577
 10
6778.662940475801
 20
1280.562776644577
 10
6778.662940475801
 20
1270.562776644573
 97
        0
 75
     0
 76
     0
 52
45.0
 41
10.0
 77
     0
 78
     1
 53
45.0
 43
-81104.891516
 44
2826.905882
 45
-7.071067811865474
 46
7.071067811865475
 79
     0
 47
0.036487
 98
       16
 10
6226.280502
 20
1276.402461
 10
6227.010845
 20
1283.699801
 10
6400.787746
 20
1285.159238
 10
6400.787746
 20
1276.402461
 10
6407.359185
 20
1274.943024
 10
6412.470174
 20
1282.970083
 10
6424.152837
 20
1286.618675
 10
6425.613052
 20
1276.402461
 10
6434.375049
 20
1276.402461
 10
6439.486037
 20
1283.699801
 10
6609.6124
 20
1286.618675
 10
6613.993281
 20
1273.483587
 10
6659.262775
 20
1274.943024
 10
6668.024772
 20
1285.159238
 10
6796.532179
 20
1287.348394
 10
6790.690848
 20
1274.943024
  0
HATCH
  5
124
100
AcDbEntity
  8
TRAMAS
  6
CONTINUOUS
100
AcDbHatch
 10
0.0
 20
0.0
 30
0.0
210
0.0
220
0.0
230
1.0
  2
U
 70
     0
 71
     0
 91
       12
 92
        7
 72
     0
 73
     1
 93
        4
 10
5801.084502609081
 20
1270.562776644573
 10
5801.134595029575
 20
1280.562776644577
 10
5620.619088693224
 20
1280.562776644577
 10
5620.568996272731
 20
1270.562776644572
 97
        0
 92
        7
 72
     0
 73
     1
 93
        4
 10
5801.134595029576
 20
1280.562776644577
 10
5801.184687450069
 20
1290.562776644574
 10
5620.669181113719
 20
1290.562776644574
 10
5620.619088693225
 20
1280.562776644577
 97
        0
 92
        7
 72
     0
 73
     1
 93
        4
 10
5821.134567902205
 20
1280.562776644577
 10
5821.184660322696
 20
1290.562776644574
 10
5801.184687450068
 20
1290.562776644574
 10
5801.134595029576
 20
1280.562776644577
 97
        0
 92
        7
 72
     0
 73
     1
 93
        4
 10
5821.084475481711
 20
1270.562776644573
 10
5821.134567902203
 20
1280.562776644577
 10
5801.134595029575
 20
1280.562776644577
 10
5801.084502609082
 20
1270.562776644573
 97
        0
 92
        7
 72
     0
 73
     1
 93
        4
 10
6001.599981818046
 20
1270.562776644573
 10
6001.650074238539
 20
1280.562776644577
 10
5821.134567902205
 20
1280.562776644577
 10
5821.084475481711
 20
1270.562776644573
 97
        0
 92
        7
 72
     0
 73
     1
 93
        4
 10
6001.65007423854
 20
1280.562776644577
 10
6001.700166659034
 20
1290.562776644573
 10
5821.184660322696
 20
1290.562776644574
 10
5821.134567902203
 20
1280.562776644577
 97
        0
 92
        7
 72
     0
 73
     1
 93
        4
 10
6001.700166659033
 20
1290.562776644574
 10
6001.65007423854
 20
1280.562776644577
 10
6021.650047111169
 20
1280.562776644577
 10
6021.700139531663
 20
1290.562776644574
 97
        0
 92
        7
 72
     0
 73
     1
 93
        4
 10
6021.599954690675
 20
1270.562776644573
 10
6021.650047111168
 20
1280.562776644577
 10
6001.65007423854
 20
1280.562776644577
 10
6001.599981818046
 20
1270.562776644573
 97
        0
 92
        7
 72
     0
 73
     1
 93
        4
 10
6021.650047111169
 20
1280.562776644577
 10
6021.599954690675
 20
1270.562776644573
 10
6202.115461027021
 20
1270.562776644573
 10
6202.165553447513
 20
1280.562776644577
 97
        0
 92
        7
 72
     0
 73
     1
 93
        4
 10
6021.700139531661
 20
1290.562776644574
 10
6021.650047111168
 20
1280.562776644577
 10
6202.165553447514
 20
1280.562776644577
 10
6202.215645868007
 20
1290.562776644573
 97
        0
 92
        7
 72
     0
 73
     1
 93
        4
 10
6202.215645868006
 20
1290.562776644573
 10
6202.165553447514
 20
1280.562776644577
 10
6222.165526320142
 20
1280.562776644577
 10
6222.215618740635
 20
1290.562776644573
 97
        0
 92
        7
 72
     0
 73
     1
 93
        4
 10
6202.165553447513
 20
1280.562776644577
 10
6202.11546102702
 20
1270.562776644573
 10
6222.115433899649
 20
1270.562776644573
 10
6222.165526320141
 20
1280.562776644577
 97
        0
 75
     0
 76
     0
 52
45.0
 41
10.0
 77
     0
 78
     1
 53
45.0
 43
-81104.891516
 44
2826.905882
 45
-7.071067811865474
 46
7.071067811865475
 79
     0
 47
0.036487
 98
       12
 10
5633.482955
 20
1274.868308
 10
5635.673513
 20
1285.084523
 10
5806.529748
 20
1284.354804
 10
5815.291745
 20
1272.679153
 10
5843.03748
 20
1272.679153
 10
5845.958146
 20
1283.625086
 10
6016.08451
 20
1285.814241
 10
6016.08451
 20
1272.679153
 10
6038.719257
 20
1275.598027
 10
6045.290696
 20
1285.814241
 10
6211.766286
 20
1286.544116
 10
6215.417059
 20
1276.327745
  0
HATCH
  5
125
100
AcDbEntity
  8
TRAMAS
  6
CONTINUOUS
100
AcDbHatch
 10
0.0
 20
0.0
 30
0.0
210
0.0
220
0.0
230
1.0
  2
U
 70
     0
 71
     0
 91
       32
 92
        7
 72
     0
 73
     1
 93
        4
 10
5135.492058668347
 20
1280.562776644577
 10
5135.266511310433
 20
1270.562776644572
 10
5184.623245389254
 20
1270.562776644572
 10
5184.84879277214
 20
1280.562776644577
 97
        0
 92
        7
 72
     0
 73
     1
 93
        4
 10
5184.84879277214
 20
1280.562776644577
 10
5185.074340155026
 20
1290.562776644575
 10
5135.71760602626
 20
1290.562776644575
 10
5135.492058668345
 20
1280.562776644577
 97
        0
 92
        7
 72
     0
 73
     1
 93
        4
 10
5189.840961412884
 20
1290.562776644574
 10
5185.074340155026
 20
1290.562776644575
 10
5184.84879277214
 20
1280.562776644577
 10
5189.615414029998
 20
1280.562776644577
 97
        0
 92
        7
 72
     0
 73
     1
 93
        4
 10
5189.615414029997
 20
1280.562776644577
 10
5184.84879277214
 20
1280.562776644577
 10
5184.623245389254
 20
1270.562776644572
 10
5189.389866647112
 20
1270.562776644572
 97
        0
 92
        7
 72
     0
 73
     1
 93
        4
 10
5189.615414029998
 20
1280.562776644577
 10
5189.389866647113
 20
1270.562776644572
 10
5199.538057680751
 20
1270.562776644572
 10
5199.58815010343
 20
1280.562776644577
 97
        0
 92
        7
 72
     0
 73
     1
 93
        4
 10
5199.638242526109
 20
1290.562776644575
 10
5189.840961412883
 20
1290.562776644575
 10
5189.615414029998
 20
1280.562776644577
 10
5199.588150103429
 20
1280.562776644577
 97
        0
 92
        7
 72
     0
 73
     1
 93
        4
 10
5199.638242526109
 20
1290.562776644575
 10
5199.588150103431
 20
1280.562776644577
 10
5219.588122983825
 20
1280.562776644577
 10
5219.638215406504
 20
1290.562776644574
 97
        0
 92
        7
 72
     0
 73
     1
 93
        5
 10
5199.58815010343
 20
1280.562776644577
 10
5199.538057680751
 20
1270.562776644573
 10
5219.389825976977
 20
1270.562776644573
 10
5219.580342996568
 20
1279.009650075532
 10
5219.588122983825
 20
1280.562776644577
 97
        0
 92
        7
 72
     0
 73
     1
 93
        5
 10
5354.320372378482
 20
1270.562776644572
 10
5354.418843841432
 20
1280.562776644577
 10
5219.615373359862
 20
1280.562776644577
 10
5219.580342996569
 20
1279.009650075518
 10
5219.538030561147
 20
1270.562776644572
 97
        0
 92
        7
 72
     0
 73
     1
 93
        4
 10
5354.418843841432
 20
1280.562776644577
 10
5354.517315304382
 20
1290.562776644574
 10
5219.840920742749
 20
1290.562776644575
 10
5219.615373359864
 20
1280.562776644577
 97
        0
 92
        7
 72
     0
 73
     1
 93
        4
 10
5359.550249304121
 20
1290.562776644574
 10
5354.517315304383
 20
1290.562776644574
 10
5354.418843841433
 20
1280.562776644577
 10
5359.451777841171
 20
1280.562776644577
 97
        0
 92
        7
 72
     0
 73
     1
 93
        4
 10
5354.320372378482
 20
1270.562776644572
 10
5359.353306378221
 20
1270.562776644573
 10
5359.451777841171
 20
1280.562776644577
 10
5354.418843841433
 20
1280.562776644577
 97
        0
 92
        7
 72
     0
 73
     1
 93
        4
 10
5359.451777841171
 20
1280.562776644577
 10
5359.35330637822
 20
1270.562776644572
 10
5379.353279250842
 20
1270.562776644572
 10
5379.451750713792
 20
1280.562776644577
 97
        0
 92
        7
 72
     0
 73
     1
 93
        4
 10
5359.55024930412
 20
1290.562776644574
 10
5359.451777841169
 20
1280.562776644577
 10
5379.451750713792
 20
1280.562776644577
 10
5379.550222176742
 20
1290.562776644574
 97
        0
 92
        7
 72
     0
 73
     1
 93
        4
 10
5379.451750713793
 20
1280.562776644577
 10
5384.271095979248
 20
1280.562776644577
 10
5384.369567442199
 20
1290.562776644574
 10
5379.550222176742
 20
1290.562776644574
 97
        0
 92
        7
 72
     0
 73
     1
 93
        4
 10
5379.353279250842
 20
1270.562776644573
 10
5384.172624516298
 20
1270.562776644573
 10
5384.271095979247
 20
1280.562776644577
 10
5379.451750713792
 20
1280.562776644577
 97
        0
 92
        7
 72
     0
 73
     1
 93
        4
 10
5384.271095979248
 20
1280.562776644577
 10
5384.172624516299
 20
1270.562776644573
 10
5415.677884998993
 20
1270.562776644573
 10
5415.776356461943
 20
1280.562776644577
 97
        0
 92
        7
 72
     0
 73
     1
 93
        4
 10
5384.369567442199
 20
1290.562776644574
 10
5384.27109597925
 20
1280.562776644577
 10
5415.776356461943
 20
1280.562776644577
 10
5415.874827924894
 20
1290.562776644574
 97
        0
 92
        7
 72
     0
 73
     1
 93
        4
 10
5449.041454245492
 20
1280.562776644577
 10
5449.145611537454
 20
1290.562776644574
 10
5415.874827924893
 20
1290.562776644574
 10
5415.776356461943
 20
1280.562776644577
 97
        0
 92
        7
 72
     0
 73
     1
 93
        4
 10
5448.937296953528
 20
1270.562776644572
 10
5449.04145424549
 20
1280.562776644577
 10
5415.776356461943
 20
1280.562776644577
 10
5415.677884998993
 20
1270.562776644572
 97
        0
 92
        7
 72
     0
 73
     1
 93
        4
 10
5461.756607999957
 20
1270.562776644572
 10
5461.86076529192
 20
1280.562776644577
 10
5449.04145424549
 20
1280.562776644577
 10
5448.937296953526
 20
1270.562776644572
 97
        0
 92
        7
 72
     0
 73
     1
 93
        4
 10
5461.86076529192
 20
1280.562776644577
 10
5461.964922583882
 20
1290.562776644574
 10
5449.145611537454
 20
1290.562776644574
 10
5449.041454245492
 20
1280.562776644577
 97
        0
 92
        7
 72
     0
 73
     1
 93
        4
 10
5466.997856571957
 20
1290.562776644574
 10
5461.964922583883
 20
1290.562776644574
 10
5461.860765291921
 20
1280.562776644577
 10
5466.893699279996
 20
1280.562776644577
 97
        0
 92
        7
 72
     0
 73
     1
 93
        4
 10
5461.756607999957
 20
1270.562776644572
 10
5466.789541988033
 20
1270.562776644572
 10
5466.893699279996
 20
1280.562776644577
 10
5461.86076529192
 20
1280.562776644577
 97
        0
 92
        7
 72
     0
 73
     1
 93
        4
 10
5466.893699279996
 20
1280.562776644577
 10
5466.789541988033
 20
1270.562776644572
 10
5486.789514860653
 20
1270.562776644572
 10
5486.893672152616
 20
1280.562776644577
 97
        0
 92
        7
 72
     0
 73
     1
 93
        4
 10
5466.997856571959
 20
1290.562776644574
 10
5466.893699279996
 20
1280.562776644577
 10
5486.893672152615
 20
1280.562776644577
 10
5486.997829444579
 20
1290.562776644574
 97
        0
 92
        7
 72
     0
 73
     1
 93
        4
 10
5491.96488189282
 20
1290.562776644574
 10
5486.997829444579
 20
1290.562776644574
 10
5486.893672152615
 20
1280.562776644577
 10
5491.860724600857
 20
1280.562776644577
 97
        0
 92
        7
 72
     0
 73
     1
 93
        4
 10
5486.789514860654
 20
1270.562776644573
 10
5491.756567308893
 20
1270.562776644573
 10
5491.860724600857
 20
1280.562776644577
 10
5486.893672152615
 20
1280.562776644577
 97
        0
 92
        7
 72
     0
 73
     1
 93
        4
 10
5491.860724600856
 20
1280.562776644577
 10
5491.756567308893
 20
1270.562776644572
 10
5600.569023400105
 20
1270.562776644572
 10
5600.619115820596
 20
1280.562776644577
 97
        0
 92
        7
 72
     0
 73
     1
 93
        4
 10
5600.619115820596
 20
1280.562776644577
 10
5600.66920824109
 20
1290.562776644574
 10
5491.96488189282
 20
1290.562776644574
 10
5491.860724600857
 20
1280.562776644577
 97
        0
 92
        7
 72
     0
 73
     1
 93
        4
 10
5620.619088693224
 20
1280.562776644577
 10
5620.669181113717
 20
1290.562776644574
 10
5600.66920824109
 20
1290.562776644574
 10
5600.619115820595
 20
1280.562776644577
 97
        0
 92
        7
 72
     0
 73
     1
 93
        4
 10
5600.619115820596
 20
1280.562776644577
 10
5600.569023400105
 20
1270.562776644573
 10
5620.568996272731
 20
1270.562776644573
 10
5620.619088693224
 20
1280.562776644577
 97
        0
 75
     0
 76
     0
 52
45.0
 41
10.0
 77
     0
 78
     1
 53
45.0
 43
-81104.891516
 44
2826.905882
 45
-7.071067811865474
 46
7.071067811865475
 79
     0
 47
0.036487
 98
       32
 10
5172.224988
 20
1276.331481
 10
5175.145654
 20
1285.088259
 10
5187.558424
 20
1285.817977
 10
5187.558424
 20
1277.790918
 10
5194.859971
 20
1277.0612
 10
5197.780401
 20
1286.547696
 10
5212.383729
 20
1285.817977
 10
5213.843944
 20
1277.790918
 10
5237.939142
 20
1274.872044
 10
5243.05013
 20
1282.169385
 10
5357.684552
 20
1288.007133
 10
5356.224337
 20
1276.331481
 10
5365.716206
 20
1276.331481
 10
5370.82743
 20
1289.466725
 10
5381.779749
 20
1288.007133
 10
5381.779749
 20
1275.601763
 10
5389.811403
 20
1275.601763
 10
5395.652735
 20
1286.547696
 10
5437.271456
 20
1283.628822
 10
5435.811241
 20
1271.953015
 10
5453.334999
 20
1274.872044
 10
5457.71588
 20
1284.35854
 10
5466.477877
 20
1285.817977
 10
5464.287319
 20
1276.331481
 10
5471.588866
 20
1276.331481
 10
5474.509531
 20
1285.817977
 10
5489.842732
 20
1286.547696
 10
5489.112624
 20
1277.0612
 10
5499.334837
 20
1276.331481
 10
5501.525159
 20
1282.899103
 10
5608.127927
 20
1285.088259
 10
5605.937604
 20
1277.0612
  0
HATCH
  5
126
100
AcDbEntity
  8
TRAMAS
  6
CONTINUOUS
100
AcDbHatch
 10
0.0
 20
0.0
 30
0.0
210
0.0
220
0.0
230
1.0
  2
U
 70
     0
 71
     1
 91
       29
 92
        7
 72
     0
 73
     1
 93
        4
 10
5187.752955996084
 20
1409.323447098294
 10
5188.2052191119
 20
1429.375247745698
 10
5138.789590140728
 20
1426.764064607579
 10
5138.337327024906
 20
1406.712263960175
 97
        4
330
166
330
165
330
184
330
198
 92
        7
 72
     0
 73
     1
 93
        4
 10
5192.977528104744
 20
1429.627422473237
 10
5188.2052191119
 20
1429.375247745698
 10
5187.752955996084
 20
1409.323447098294
 10
5192.525264988926
 20
1409.575621825834
 97
        4
330
166
330
198
330
184
330
137
 92
        7
 72
     0
 73
     1
 93
        4
 10
5192.525264988927
 20
1409.575621825834
 10
5200.236447808883
 20
1409.983090292261
 10
5200.336798987053
 20
1430.01629547631
 10
5192.977528104743
 20
1429.627422473237
 97
        4
330
132
330
137
330
184
330
189
 92
        7
 72
     0
 73
     1
 93
        4
 10
5200.336798987054
 20
1430.01629547631
 10
5200.236447808884
 20
1409.983090292262
 10
5220.241715975251
 20
1411.040193480001
 10
5220.342067153421
 20
1431.073398664049
 97
        4
330
132
330
189
330
184
330
18A
 92
        7
 72
     0
 73
     1
 93
        4
 10
5220.342067153421
 20
1431.073398664049
 10
5220.241715975252
 20
1411.040193480001
 10
5360.80975058115
 20
1418.467982812311
 10
5361.007070939855
 20
1438.506311968156
 97
        4
330
132
330
18A
330
184
330
187
 92
        7
 72
     0
 73
     1
 93
        4
 10
5380.820135565969
 20
1419.525356379085
 10
5381.017455924674
 20
1439.56368553493
 10
5361.007070939855
 20
1438.506311968156
 10
5360.809750581149
 20
1418.467982812311
 97
        4
330
132
330
187
330
184
330
188
 92
        7
 72
     0
 73
     1
 93
        4
 10
5468.389292195914
 20
1424.152619250611
 10
5468.598012280128
 20
1444.191550782094
 10
5381.017455924674
 20
1439.56368553493
 10
5380.820135565968
 20
1419.525356379085
 97
        4
330
132
330
188
330
184
330
183
 92
        7
 72
     0
 73
     1
 93
        4
 10
5488.400278716341
 20
1425.210024603273
 10
5488.608998800554
 20
1445.248956134755
 10
5468.598012280128
 20
1444.191550782094
 10
5468.389292195914
 20
1424.152619250611
 97
        4
330
132
330
183
330
184
330
182
 92
        7
 72
     0
 73
     1
 93
        4
 10
5601.373592319395
 20
1431.179674644758
 10
5601.473943493186
 20
1451.212879828575
 10
5488.608998800555
 20
1445.248956134755
 10
5488.400278716341
 20
1425.210024603273
 97
        4
330
132
330
182
330
184
330
181
 92
        7
 72
     0
 73
     1
 93
        4
 10
5621.378860477761
 20
1432.236777832074
 10
5621.479211651551
 20
1452.269983015891
 10
5601.473943493186
 20
1451.212879828575
 10
5601.373592319396
 20
1431.179674644758
 97
        4
330
132
330
181
330
184
330
180
 92
        7
 72
     0
 73
     1
 93
        4
 10
5801.942160938232
 20
1441.777966628853
 10
5802.042512112023
 20
1461.81117181267
 10
5621.47921165155
 20
1452.269983015891
 10
5621.378860477761
 20
1432.236777832074
 97
        4
330
17F
330
132
330
180
330
184
 92
        7
 72
     0
 73
     1
 93
        4
 10
5821.947429096598
 20
1442.83506981617
 10
5822.047780270388
 20
1462.868274999986
 10
5802.042512112022
 20
1461.81117181267
 10
5801.942160938232
 20
1441.777966628853
 97
        4
330
132
330
17F
330
184
330
17E
 92
        7
 72
     0
 73
     1
 93
        4
 10
5822.047780270388
 20
1462.868274999986
 10
5821.947429096599
 20
1442.835069816169
 10
6002.510729557053
 20
1452.376258612947
 10
6002.611080730844
 20
1472.409463796764
 97
        4
330
132
330
17E
330
184
330
17D
 92
        7
 72
     0
 73
     1
 93
        4
 10
6022.515997715419
 20
1453.433361800263
 10
6022.616348889207
 20
1473.46656698408
 10
6002.611080730841
 20
1472.409463796764
 10
6002.510729557053
 20
1452.376258612947
 97
        4
330
132
330
17D
330
184
330
17C
 92
        7
 72
     0
 73
     1
 93
        4
 10
6203.079298175887
 20
1462.974550597042
 10
6203.179649349676
 20
1483.007755780859
 10
6022.616348889206
 20
1473.466566984081
 10
6022.515997715419
 20
1453.433361800263
 97
        4
330
17B
330
132
330
17C
330
184
 92
        7
 72
     0
 73
     1
 93
        4
 10
6223.084566334251
 20
1464.031653784358
 10
6223.18491750804
 20
1484.064858968175
 10
6203.179649349677
 20
1483.007755780859
 10
6203.079298175886
 20
1462.974550597042
 97
        4
330
132
330
17B
330
184
330
17A
 92
        7
 72
     0
 73
     1
 93
        4
 10
6403.647866794725
 20
1473.572842581137
 10
6403.748217968516
 20
1493.606047764954
 10
6223.184917508042
 20
1484.064858968175
 10
6223.084566334253
 20
1464.031653784358
 97
        4
330
179
330
132
330
17A
330
184
 92
        7
 72
     0
 73
     1
 93
        4
 10
7225.927408993334
 20
1517.023113681843
 10
7240.75910525384
 20
1517.806838911926
 10
7241.326298410378
 20
1537.864712605259
 10
7226.027760167125
 20
1537.05631886566
 97
        4
330
132
330
16E
330
184
330
18F
 92
        7
 72
     0
 73
     1
 93
        4
 10
7220.729202987081
 20
1516.748434027762
 10
7225.927408993335
 20
1517.023113681843
 10
7226.027760167126
 20
1537.05631886566
 10
7221.29639614362
 20
1536.806307721095
 97
        4
330
132
330
18E
330
184
330
16E
 92
        7
 72
     0
 73
     1
 93
        4
 10
7220.729202987079
 20
1516.748434027761
 10
7221.296396143618
 20
1536.806307721095
 10
7206.022437739592
 20
1535.999212810693
 10
7205.922086565803
 20
1515.966007626876
 97
        4
330
132
330
16F
330
184
330
18E
 92
        7
 72
     0
 73
     1
 93
        4
 10
7205.922086565803
 20
1515.966007626876
 10
7206.022437739592
 20
1535.999212810693
 10
7025.459191983334
 20
1526.458026904553
 10
7025.358840809545
 20
1506.424821720736
 97
        4
330
132
330
172
330
184
330
16F
 92
        7
 72
     0
 73
     1
 93
        4
 10
7025.358840809544
 20
1506.424821720736
 10
7025.459191983334
 20
1526.458026904553
 10
7005.453869555804
 20
1525.400920849586
 10
7005.353518382013
 20
1505.367715665769
 97
        4
330
132
330
173
330
184
330
172
 92
        7
 72
     0
 73
     1
 93
        4
 10
7005.353518382015
 20
1505.367715665769
 10
7005.453869555804
 20
1525.400920849587
 10
6824.890079273481
 20
1515.859706170014
 10
6824.789728099694
 20
1495.826500986197
 97
        4
330
132
330
174
330
184
330
173
 92
        7
 72
     0
 73
     1
 93
        4
 10
6824.890079273481
 20
1515.859706170013
 10
6804.885355206171
 20
1514.802631733143
 10
6804.785004032382
 20
1494.769426549326
 10
6824.789728099691
 20
1495.826500986196
 97
        4
330
132
330
175
330
184
330
174
 92
        7
 72
     0
 73
     1
 93
        4
 10
6778.662940475801
 20
1513.41700680819
 10
6624.322054745698
 20
1505.261442936365
 10
6624.221703571909
 20
1485.228237752548
 10
6778.6629404758
 20
1493.389104304888
 97
        4
330
132
330
176
330
184
330
147
 92
        7
 72
     0
 73
     1
 93
        4
 10
6804.785004032382
 20
1494.769426549326
 10
6804.885355206171
 20
1514.802631733144
 10
6778.6629404758
 20
1513.41700680819
 10
6778.662940475801
 20
1493.389104304888
 97
        4
330
132
330
147
330
184
330
175
 92
        7
 72
     0
 73
     1
 93
        4
 10
6624.322054745697
 20
1505.261442936365
 10
6604.316786587332
 20
1504.204339749048
 10
6604.216435413545
 20
1484.171134565231
 10
6624.221703571909
 20
1485.228237752548
 97
        4
330
132
330
177
330
184
330
176
 92
        7
 72
     0
 73
     1
 93
        4
 10
6604.216435413544
 20
1484.171134565231
 10
6604.316786587332
 20
1504.204339749048
 10
6423.75348612686
 20
1494.66315095227
 10
6423.653134953069
 20
1474.629945768453
 97
        4
330
132
330
178
330
184
330
177
 92
        7
 72
     0
 73
     1
 93
        4
 10
6423.753486126861
 20
1494.66315095227
 10
6403.748217968514
 20
1493.606047764955
 10
6403.647866794725
 20
1473.572842581137
 10
6423.653134953072
 20
1474.629945768452
 97
        4
330
132
330
179
330
184
330
178
 75
     0
 76
     0
 52
45.0
 41
10.0
 77
     0
 78
     1
 53
45.0
 43
-81104.891516
 44
2826.905882
 45
-7.071067811865474
 46
7.071067811865475
 79
     0
 47
0.128625
 98
       29
 10
5170.720752
 20
1416.353884
 10
5191.312451
 20
1418.926325
 10
5196.459964
 20
1418.926325
 10
5206.756637
 20
1424.071206
 10
5240.217118
 20
1424.071206
 10
5368.916473
 20
1426.643647
 10
5422.9703
 20
1426.643647
 10
5479.599531
 20
1431.788528
 10
5515.633769
 20
1431.788528
 10
5613.446398
 20
1434.360969
 10
5657.203553
 20
1436.93341
 10
5814.217522
 20
1447.223172
 10
5914.602261
 20
1460.086463
 10
6012.41489
 20
1457.512935
 10
6035.580345
 20
1457.512935
 10
6213.186014
 20
1470.376226
 10
6249.221899
 20
1470.376226
 10
7232.484174
 20
1526.971008
 10
7222.189148
 20
1519.253686
 10
7214.466232
 20
1519.253686
 10
7193.874533
 20
1519.253686
 10
7016.270511
 20
1511.536364
 10
6967.364196
 20
1508.962836
 10
6818.073143
 20
1506.390396
 10
6774.314342
 20
1498.673074
 10
6789.758528
 20
1501.245514
 10
6617.302019
 20
1496.100633
 10
6540.082736
 20
1488.383311
 10
6419.104651
 20
1485.81087
  0
HATCH
  5
127
100
AcDbEntity
  8
TRAMAS
  6
CONTINUOUS
100
AcDbHatch
 10
0.0
 20
0.0
 30
0.0
210
0.0
220
0.0
230
1.0
  2
U
 70
     0
 71
     1
 91
       27
 92
        7
 72
     0
 73
     1
 93
        4
 10
5190.490118195567
 20
1530.679862963707
 10
5190.942381311383
 20
1550.731663611109
 10
5141.526751986599
 20
1548.120480454305
 10
5141.074488920909
 20
1528.068679809551
 97
        4
330
186
330
167
330
185
330
198
 92
        7
 72
     0
 73
     1
 93
        4
 10
5200.944138922491
 20
1551.260168891107
 10
5190.942381311383
 20
1550.731663611109
 10
5190.490118195566
 20
1530.679862963707
 10
5200.843787744322
 20
1531.226963707059
 97
        4
330
186
330
198
330
185
330
189
 92
        7
 72
     0
 73
     1
 93
        4
 10
5220.84905591069
 20
1532.284066894799
 10
5220.94940708886
 20
1552.317272078846
 10
5200.944138922492
 20
1551.260168891107
 10
5200.843787744322
 20
1531.22696370706
 97
        4
330
186
330
189
330
185
330
18A
 92
        7
 72
     0
 73
     1
 93
        4
 10
5362.003962110122
 20
1539.742867250164
 10
5362.201282468827
 20
1559.781196406007
 10
5220.949407088859
 20
1552.317272078846
 10
5220.849055910688
 20
1532.284066894799
 97
        4
330
186
330
18A
330
185
330
187
 92
        7
 72
     0
 73
     1
 93
        4
 10
5362.003962110122
 20
1539.742867250164
 10
5382.014347094938
 20
1540.800240816938
 10
5382.211667453644
 20
1560.838569972781
 10
5362.201282468827
 20
1559.781196406007
 97
        4
330
186
330
187
330
185
330
188
 92
        7
 72
     0
 73
     1
 93
        4
 10
5469.652496522786
 20
1545.431149353495
 10
5469.861216607
 20
1565.470080884977
 10
5382.211667453645
 20
1560.838569972781
 10
5382.01434709494
 20
1540.800240816938
 97
        4
330
186
330
188
330
185
330
183
 92
        7
 72
     0
 73
     1
 93
        4
 10
5469.652496522787
 20
1545.431149353495
 10
5489.663483043215
 20
1546.488554706157
 10
5489.87220312743
 20
1566.527486237638
 10
5469.861216607
 20
1565.470080884977
 97
        4
330
186
330
183
330
185
330
182
 92
        7
 72
     0
 73
     1
 93
        4
 10
5601.980932228319
 20
1552.423548058154
 10
5602.081283402108
 20
1572.45675324197
 10
5489.87220312743
 20
1566.527486237638
 10
5489.663483043216
 20
1546.488554706157
 97
        4
330
186
330
182
330
185
330
181
 92
        7
 72
     0
 73
     1
 93
        4
 10
5621.986200386685
 20
1553.480651245471
 10
5622.086551560473
 20
1573.513856429287
 10
5602.081283402109
 20
1572.45675324197
 10
5601.980932228319
 20
1552.423548058155
 97
        4
330
186
330
181
330
185
330
180
 92
        7
 72
     0
 73
     1
 93
        4
 10
5802.549500847156
 20
1563.021840042249
 10
5802.649852020945
 20
1583.055045226066
 10
5622.086551560474
 20
1573.513856429287
 10
5621.986200386683
 20
1553.480651245471
 97
        4
330
17F
330
186
330
180
330
185
 92
        7
 72
     0
 73
     1
 93
        4
 10
5822.554769005522
 20
1564.078943229566
 10
5822.655120179311
 20
1584.112148413382
 10
5802.649852020945
 20
1583.055045226066
 10
5802.549500847157
 20
1563.02184004225
 97
        4
330
186
330
17F
330
185
330
17E
 92
        7
 72
     0
 73
     1
 93
        4
 10
6003.118069465975
 20
1573.620132026344
 10
6003.218420639765
 20
1593.65333721016
 10
5822.655120179312
 20
1584.112148413382
 10
5822.554769005524
 20
1564.078943229567
 97
        4
330
17D
330
186
330
17E
330
185
 92
        7
 72
     0
 73
     1
 93
        4
 10
6023.123337624341
 20
1574.677235213661
 10
6023.22368879813
 20
1594.710440397476
 10
6003.218420639765
 20
1593.65333721016
 10
6003.118069465977
 20
1573.620132026344
 97
        4
330
186
330
17D
330
185
330
17C
 92
        7
 72
     0
 73
     1
 93
        4
 10
6203.686638084812
 20
1584.218424010439
 10
6203.786989258602
 20
1604.251629194255
 10
6023.22368879813
 20
1594.710440397476
 10
6023.12333762434
 20
1574.677235213661
 97
        4
330
17B
330
186
330
17C
330
185
 92
        7
 72
     0
 73
     1
 93
        4
 10
6223.691906243177
 20
1585.275527197755
 10
6223.792257416969
 20
1605.308732381572
 10
6203.786989258601
 20
1604.251629194255
 10
6203.686638084812
 20
1584.218424010439
 97
        4
330
186
330
17B
330
185
330
17A
 92
        7
 72
     0
 73
     1
 93
        4
 10
6404.255206703649
 20
1594.816715994534
 10
6404.355557877437
 20
1614.84992117835
 10
6223.792257416967
 20
1605.308732381572
 10
6223.691906243176
 20
1585.275527197755
 97
        4
330
186
330
17A
330
185
330
179
 92
        7
 72
     0
 73
     1
 93
        4
 10
6404.255206703648
 20
1594.816715994534
 10
6424.260474861997
 20
1595.87381918185
 10
6424.360826035786
 20
1615.907024365666
 10
6404.355557877439
 20
1614.84992117835
 97
        4
330
186
330
179
330
185
330
178
 92
        7
 72
     0
 73
     1
 93
        4
 10
6604.823775322469
 20
1605.415007978628
 10
6604.924126496256
 20
1625.448213162445
 10
6424.360826035787
 20
1615.907024365666
 10
6424.260474861998
 20
1595.87381918185
 97
        4
330
177
330
186
330
178
330
185
 92
        7
 72
     0
 73
     1
 93
        4
 10
6624.929394654623
 20
1626.505316349762
 10
6604.924126496259
 20
1625.448213162445
 10
6604.823775322469
 20
1605.415007978629
 10
6624.829043480834
 20
1606.472111165945
 97
        4
330
186
330
177
330
185
330
176
 92
        7
 72
     0
 73
     1
 93
        4
 10
6778.662940475801
 20
1614.600885124053
 10
6778.6629404758
 20
1634.628787627355
 10
6624.929394654621
 20
1626.505316349762
 10
6624.829043480834
 20
1606.472111165945
 97
        4
330
186
330
176
330
185
330
147
 92
        7
 72
     0
 73
     1
 93
        4
 10
6805.492695115096
 20
1636.04650514654
 10
6778.6629404758
 20
1634.628787627355
 10
6778.6629404758
 20
1614.600885124053
 10
6805.392343941305
 20
1616.013299962723
 97
        4
330
186
330
147
330
185
330
175
 92
        7
 72
     0
 73
     1
 93
        4
 10
6805.392343941305
 20
1616.013299962723
 10
6825.397068008616
 20
1617.070374399594
 10
6825.497419182406
 20
1637.103579583411
 10
6805.492695115096
 20
1636.046505146541
 97
        4
330
186
330
175
330
185
330
174
 92
        7
 72
     0
 73
     1
 93
        4
 10
6825.397068008616
 20
1617.070374399594
 10
7005.96085829094
 20
1626.611589079167
 10
7006.061209464729
 20
1646.644794262983
 10
6825.497419182406
 20
1637.103579583411
 97
        4
330
173
330
186
330
174
330
185
 92
        7
 72
     0
 73
     1
 93
        4
 10
7025.966180718473
 20
1627.668695134134
 10
7026.066531892261
 20
1647.70190031795
 10
7006.061209464728
 20
1646.644794262983
 10
7005.960858290937
 20
1626.611589079166
 97
        4
330
186
330
173
330
185
330
172
 92
        7
 72
     0
 73
     1
 93
        4
 10
7206.529426474728
 20
1637.209881040273
 10
7206.629777648517
 20
1657.24308622409
 10
7026.066531892261
 20
1647.70190031795
 10
7025.966180718474
 20
1627.668695134133
 97
        4
330
16F
330
186
330
172
330
185
 92
        7
 72
     0
 73
     1
 93
        4
 10
7206.529426474728
 20
1637.209881040273
 10
7224.161938519978
 20
1638.141604851016
 10
7224.729131676517
 20
1658.199478544348
 10
7206.629777648519
 20
1657.24308622409
 97
        4
330
186
330
16F
330
185
330
18E
 92
        7
 72
     0
 73
     1
 93
        4
 10
7244.191840786737
 20
1639.20000973518
 10
7244.759033943278
 20
1659.257883428513
 10
7226.635100076052
 20
1658.300192279057
 10
7226.534748902261
 20
1638.26698709524
 97
        4
330
186
330
16E
330
185
330
18F
 75
     0
 76
     0
 52
45.0
 41
10.0
 77
     0
 78
     1
 53
45.0
 43
-81104.891516
 44
2826.905882
 45
-7.071067811865474
 46
7.071067811865475
 79
     0
 47
0.128625
 98
       27
 10
5165.571592
 20
1537.260771
 10
5196.459964
 20
1539.833212
 10
5211.90415
 20
1539.833212
 10
5247.940035
 20
1542.405653
 10
5368.916473
 20
1550.122975
 10
5410.101517
 20
1547.550534
 10
5477.024128
 20
1555.267856
 10
5525.930442
 20
1555.267856
 10
5610.872642
 20
1560.413825
 10
5664.926469
 20
1560.413825
 10
5816.791279
 20
1568.131147
 10
5850.253407
 20
1570.703587
 10
6014.988646
 20
1578.42091
 10
6056.172045
 20
1578.42091
 10
6210.612257
 20
1586.138232
 10
6341.885368
 20
1599.000435
 10
6406.234222
 20
1601.572876
 10
6437.122594
 20
1599.000435
 10
6617.302019
 20
1617.008607
 10
6640.467475
 20
1617.008607
 10
6797.481444
 20
1627.29837
 10
6810.350227
 20
1627.29837
 10
6830.941926
 20
1624.725929
 10
7016.270511
 20
1632.443251
 10
7047.157236
 20
1635.015692
 10
7214.466232
 20
1647.877895
 10
7240.20709
 20
1642.733014
  0
LINE
  5
128
100
AcDbEntity
  8
BASE
100
AcDbLine
 10
7640.951729
 20
860.165237
 30
0.0
 11
7640.984601
 21
860.165237
 31
0.0
  0
LINE
  5
129
100
AcDbEntity
  8
BASE
100
AcDbLine
 10
7643.193319
 20
900.165236
 30
0.0
 11
7643.160447
 21
900.165236
 31
0.0
  0
LINE
  5
12A
100
AcDbEntity
  8
BASE
  6
RAYITAS2
 62
     9
100
AcDbLine
 10
7680.253426
 20
865.562777
 30
0.0
 11
7682.670158
 21
895.562777
 31
0.0
1001
ACAD
1000
RTLwPs
1070
   128
  0
LINE
  5
12B
100
AcDbEntity
  8
BASE
  6
RAYITAS2
 62
     9
100
AcDbLine
 10
7220.044536
 20
565.562777
 30
0.0
 11
7243.696882
 21
1401.989977
 31
0.0
1001
ACAD
1000
RTLwPs
1070
   128
  0
LINE
  5
12C
102
{ACAD_REACTORS
330
112
330
111
102
}
100
AcDbEntity
  8
BASE
  6
RAYITAS2
 62
     9
100
AcDbLine
 10
7190.044576
 20
565.562777
 30
0.0
 11
7213.652029
 21
1400.40237
 31
0.0
1001
ACAD
1000
RTLwPs
1070
   128
  0
LINE
  5
12D
100
AcDbEntity
  8
BASE
  6
RAYITAS2
 62
     9
100
AcDbLine
 10
6398.032514
 20
1357.304023
 30
0.0
 11
6394.066491
 21
565.562777
 31
0.0
1001
ACAD
1000
RTLwPs
1070
   128
  0
LINE
  5
12E
100
AcDbEntity
  8
BASE
  6
RAYITAS2
 62
     9
100
AcDbLine
 10
6428.040416
 20
1358.889678
 30
0.0
 11
6424.06645
 21
565.562777
 31
0.0
1001
ACAD
1000
RTLwPs
1070
   128
  0
LINE
  5
12F
100
AcDbEntity
  8
BASE
  6
RAYITAS2
 62
     9
100
AcDbLine
 10
5140.607344
 20
865.562777
 30
0.0
 11
5140.607344
 21
895.562777
 31
0.0
1001
ACAD
1000
RTLwPs
1070
   128
  0
LINE
  5
130
102
{ACAD_REACTORS
330
11E
330
11D
330
11C
330
11B
330
11A
330
119
330
118
330
117
330
116
330
115
330
114
330
113
330
111
102
}
100
AcDbEntity
  8
BASE
  6
RAYITAS2
 62
     9
100
AcDbLine
 10
5140.607344
 20
895.562777
 30
0.0
 11
7682.670158
 21
895.562777
 31
0.0
1001
ACAD
1000
RTLwPs
1070
   128
  0
LINE
  5
131
102
{ACAD_REACTORS
330
11E
330
11D
330
11C
330
11B
330
11A
330
119
330
118
330
117
330
116
330
115
330
114
330
113
330
111
102
}
100
AcDbEntity
  8
BASE
  6
RAYITAS2
 62
     9
100
AcDbLine
 10
5140.607344
 20
865.562777
 30
0.0
 11
7680.253426
 21
865.562777
 31
0.0
1001
ACAD
1000
RTLwPs
1070
   128
  0
LINE
  5
132
102
{ACAD_REACTORS
330
126
330
11E
330
11D
330
11C
330
11B
330
119
330
118
330
117
330
116
330
115
330
114
330
113
330
112
330
10F
102
}
100
AcDbEntity
  8
BASE
  6
RAYITAS2
 62
     9
100
AcDbLine
 10
7710.632021
 20
1562.663409
 30
0.0
 11
5192.977528
 21
1429.627422
 31
0.0
  0
LINE
  5
133
100
AcDbEntity
  8
BASE
  6
RAYITAS2
 62
     9
100
AcDbLine
 10
5484.413478
 20
565.562777
 30
0.0
 11
5492.161467
 21
1309.436673
 31
0.0
1001
ACAD
1000
RTLwPs
1070
   128
  0
LINE
  5
134
100
AcDbEntity
  8
BASE
  6
RAYITAS2
 62
     9
100
AcDbLine
 10
5454.413519
 20
565.562777
 30
0.0
 11
5462.144988
 21
1307.850565
 31
0.0
1001
ACAD
1000
RTLwPs
1070
   128
  0
LINE
  5
135
100
AcDbEntity
  8
BASE
  6
RAYITAS2
 62
     9
100
AcDbLine
 10
5384.499401
 20
1303.747676
 30
0.0
 11
5377.230386
 21
565.562777
 31
0.0
1001
ACAD
1000
RTLwPs
1070
   128
  0
LINE
  5
136
100
AcDbEntity
  8
BASE
  6
RAYITAS2
 62
     9
100
AcDbLine
 10
5354.631608
 20
1302.169425
 30
0.0
 11
5347.378134
 21
565.562777
 31
0.0
1001
ACAD
1000
RTLwPs
1070
   128
  0
LINE
  5
137
102
{ACAD_REACTORS
330
126
102
}
100
AcDbEntity
  8
BASE
100
AcDbLine
 10
5189.906423
 20
1293.465141
 30
0.0
 11
5192.977528
 21
1429.627422
 31
0.0
  0
LINE
  5
138
102
{ACAD_REACTORS
330
11E
330
11D
330
11C
330
11B
330
119
330
118
330
117
330
116
330
115
330
114
330
113
330
112
102
}
100
AcDbEntity
  8
BASE
  6
RAYITAS2
 62
     9
100
AcDbLine
 10
7699.629712
 20
1426.082034
 30
0.0
 11
5189.906423
 21
1293.465141
 31
0.0
  0
LINE
  5
139
100
AcDbEntity
  8
BASE
  6
RAYITAS2
 62
     9
100
AcDbLine
 10
5173.488776
 20
565.562777
 30
0.0
 11
5189.906423
 21
1293.465141
 31
0.0
1001
ACAD
1000
RTLwPs
1070
   128
  0
LINE
  5
13A
102
{ACAD_REACTORS
330
11E
330
11A
102
}
100
AcDbEntity
  8
BASE
  6
RAYITAS2
 62
     9
100
AcDbLine
 10
5203.488735
 20
565.562777
 30
0.0
 11
5219.94218
 21
1295.052268
 31
0.0
1001
ACAD
1000
RTLwPs
1070
   128
  0
LINE
  5
13B
102
{ACAD_REACTORS
330
11E
330
11D
330
11C
330
11B
330
119
330
118
330
117
330
116
330
115
330
114
330
113
330
111
102
}
100
AcDbEntity
  8
_AA_EJES
  6
DASHDOT
100
AcDbLine
 10
4615.487905
 20
480.562777
 30
0.0
 11
8028.07013
 21
480.562777
 31
0.0
  0
LINE
  5
13F
102
{ACAD_REACTORS
330
110
102
}
100
AcDbEntity
  8
_AA_EJES
  6
DASHDOT
100
AcDbLine
 10
4615.487905
 20
1680.562777
 30
0.0
 11
8028.07013
 21
1680.562777
 31
0.0
  0
TEXT
  5
141
100
AcDbEntity
  8
_AA_TEXTOS
100
AcDbText
 10
4220.681283
 20
1260.562777
 30
0.0
 40
40.0
  1
COTA +297
 50
0.0
  7
ROMANS
 11
4220.681283
 21
1280.562777
 31
0.0
100
AcDbText
 73
     2
  0
TEXT
  5
143
100
AcDbEntity
  8
_AA_TEXTOS
100
AcDbText
 10
4220.681283
 20
460.562777
 30
0.0
 40
40.0
  1
COTA +289
 50
0.0
  7
ROMANS
 11
4220.681283
 21
480.562777
 31
0.0
100
AcDbText
 73
     2
  0
TEXT
  5
144
100
AcDbEntity
  8
_AA_TEXTOS
100
AcDbText
 10
4220.681283
 20
860.562777
 30
0.0
 40
40.0
  1
COTA +293
 50
0.0
  7
ROMANS
 11
4220.681283
 21
880.562777
 31
0.0
100
AcDbText
 73
     2
  0
TEXT
  5
145
100
AcDbEntity
  8
_AA_TEXTOS
100
AcDbText
 10
4220.681283
 20
1660.562777
 30
0.0
 40
40.0
  1
COTA +301
 50
0.0
  7
ROMANS
 11
4220.681283
 21
1680.562777
 31
0.0
100
AcDbText
 73
     2
  0
LINE
  5
146
102
{ACAD_REACTORS
330
110
330
10F
102
}
100
AcDbEntity
  8
_AA_EJES
  6
DASHDOT
100
AcDbLine
 10
7415.676684
 20
1810.920846
 30
0.0
 11
7415.676684
 21
206.093893
 31
0.0
1001
ACAD
1000
RTLwPs
1070
   128
  0
LINE
  5
147
102
{ACAD_REACTORS
330
127
330
126
102
}
100
AcDbEntity
  8
_AA_EJES
  6
DASHDOT
100
AcDbLine
 10
6778.66294
 20
1810.920846
 30
0.0
 11
6778.66294
 21
206.093893
 31
0.0
1001
ACAD
1000
RTLwPs
1070
   128
  0
CIRCLE
  5
148
100
AcDbEntity
  8
TEXTOS
  6
CONTINUOUS
100
AcDbCircle
 10
6778.66294
 20
94.88213
 30
0.0
 40
74.69624
  0
TEXT
  5
149
100
AcDbEntity
  8
TEXTOS
  6
CONTINUOUS
100
AcDbText
 10
6740.567702
 20
74.88213
 30
0.0
 40
40.0
  1
S6
 50
0.0
  7
ROMANS
 72
     1
 11
6778.66294
 21
94.88213
 31
0.0
100
AcDbText
 73
     2
1001
ACAD
1000
MTEXTBEGIN
1070
    73
1070
     1
1070
    44
1040
1.0
1070
    74
1070
     0
1000
MTEXTEND
  0
CIRCLE
  5
14A
100
AcDbEntity
  8
TEXTOS
  6
CONTINUOUS
100
AcDbCircle
 10
7415.676684
 20
94.88213
 30
0.0
 40
74.69624
  0
TEXT
  5
14B
100
AcDbEntity
  8
TEXTOS
  6
CONTINUOUS
100
AcDbText
 10
7377.581446
 20
74.88213
 30
0.0
 40
40.0
  1
S5
 50
0.0
  7
ROMANS
 72
     1
 11
7415.676684
 21
94.88213
 31
0.0
100
AcDbText
 73
     2
1001
ACAD
1000
MTEXTBEGIN
1070
    73
1070
     1
1070
    44
1040
1.0
1070
    74
1070
     0
1000
MTEXTEND
  0
LINE
  5
14F
102
{ACAD_REACTORS
330
11E
102
}
100
AcDbEntity
  8
BASE
100
AcDbLine
 10
5215.224368
 20
409.422067
 30
0.0
 11
5195.222133
 21
408.970412
 31
0.0
1001
ACAD
1000
RTLwPs
1070
   128
  0
LINE
  5
150
102
{ACAD_REACTORS
330
11D
102
}
100
AcDbEntity
  8
BASE
100
AcDbLine
 10
5370.908117
 20
412.93744
 30
0.0
 11
5350.903696
 21
412.485735
 31
0.0
1001
ACAD
1000
RTLwPs
1070
   128
  0
LINE
  5
151
102
{ACAD_REACTORS
330
11C
102
}
100
AcDbEntity
  8
BASE
100
AcDbLine
 10
5477.881881
 20
415.35293
 30
0.0
 11
5457.877203
 21
414.90122
 31
0.0
1001
ACAD
1000
RTLwPs
1070
   128
  0
LINE
  5
152
102
{ACAD_REACTORS
330
11B
102
}
100
AcDbEntity
  8
BASE
100
AcDbLine
 10
5616.3007
 20
418.478457
 30
0.0
 11
5596.298464
 21
418.026803
 31
0.0
1001
ACAD
1000
RTLwPs
1070
   128
  0
LINE
  5
153
102
{ACAD_REACTORS
330
119
102
}
100
AcDbEntity
  8
BASE
100
AcDbLine
 10
5816.838862
 20
423.006653
 30
0.0
 11
5796.836626
 21
422.554998
 31
0.0
1001
ACAD
1000
RTLwPs
1070
   128
  0
LINE
  5
154
102
{ACAD_REACTORS
330
118
102
}
100
AcDbEntity
  8
BASE
100
AcDbLine
 10
6017.377024
 20
427.534848
 30
0.0
 11
5997.374788
 21
427.083193
 31
0.0
1001
ACAD
1000
RTLwPs
1070
   128
  0
LINE
  5
155
102
{ACAD_REACTORS
330
117
102
}
100
AcDbEntity
  8
BASE
100
AcDbLine
 10
6217.915186
 20
432.063043
 30
0.0
 11
6197.91295
 21
431.611388
 31
0.0
1001
ACAD
1000
RTLwPs
1070
   128
  0
LINE
  5
156
102
{ACAD_REACTORS
330
116
102
}
100
AcDbEntity
  8
BASE
100
AcDbLine
 10
6418.453348
 20
436.591238
 30
0.0
 11
6398.451112
 21
436.139584
 31
0.0
1001
ACAD
1000
RTLwPs
1070
   128
  0
LINE
  5
157
102
{ACAD_REACTORS
330
115
102
}
100
AcDbEntity
  8
BASE
100
AcDbLine
 10
6618.99151
 20
441.119434
 30
0.0
 11
6598.989275
 21
440.667779
 31
0.0
1001
ACAD
1000
RTLwPs
1070
   128
  0
LINE
  5
158
102
{ACAD_REACTORS
330
114
102
}
100
AcDbEntity
  8
BASE
100
AcDbLine
 10
6819.529128
 20
445.647617
 30
0.0
 11
6799.527437
 21
445.195974
 31
0.0
1001
ACAD
1000
RTLwPs
1070
   128
  0
LINE
  5
159
102
{ACAD_REACTORS
330
113
102
}
100
AcDbEntity
  8
BASE
100
AcDbLine
 10
7020.067812
 20
450.17135
 30
0.0
 11
7000.066261
 21
449.867253
 31
0.0
1001
ACAD
1000
RTLwPs
1070
   128
  0
LINE
  5
15A
102
{ACAD_REACTORS
330
111
102
}
100
AcDbEntity
  8
BASE
100
AcDbLine
 10
7210.650626
 20
453.068914
 30
0.0
 11
7190.642051
 21
452.76471
 31
0.0
1001
ACAD
1000
RTLwPs
1070
   128
  0
POLYLINE
  5
15B
100
AcDbEntity
  8
BASE
100
AcDb2dPolyline
 66
     1
 10
0.0
 20
0.0
 30
0.0
  0
VERTEX
  5
15C
100
AcDbEntity
  8
BASE
100
AcDbVertex
100
AcDb2dVertex
 10
7019.839123
 20
430.165562
 30
0.0
  0
VERTEX
  5
15D
100
AcDbEntity
  8
BASE
100
AcDbVertex
100
AcDb2dVertex
 10
4788.097837
 20
379.772359
 30
0.0
  0
SEQEND
  5
15E
100
AcDbEntity
  8
BASE
  0
LINE
  5
15F
100
AcDbEntity
  8
BASE
100
AcDbLine
 10
7019.839123
 20
430.165562
 30
0.0
 11
7864.57321
 21
443.008645
 31
0.0
  0
LINE
  5
163
100
AcDbEntity
  8
BASE
100
AcDbLine
 10
5467.73382
 20
1361.221584
 30
0.0
 11
5380.200463
 21
1356.596213
 31
0.0
1001
ACAD
1000
RTLwPs
1070
   128
  0
LINE
  5
164
100
AcDbEntity
  8
BASE
100
AcDbLine
 10
5467.316379
 20
1321.143721
 30
0.0
 11
5379.805822
 21
1316.519554
 31
0.0
1001
ACAD
1000
RTLwPs
1070
   128
  0
LINE
  5
165
102
{ACAD_REACTORS
330
126
102
}
100
AcDbEntity
  8
BASE
100
AcDbLine
 10
5138.337327
 20
1406.712264
 30
0.0
 11
5138.78959
 21
1426.764065
 31
0.0
1001
ACAD
1000
RTLwPs
1070
   128
  0
LINE
  5
166
102
{ACAD_REACTORS
330
126
330
10F
102
}
100
AcDbEntity
  8
BASE
100
AcDbLine
 10
7736.520471
 20
1564.031387
 30
0.0
 11
5138.78959
 21
1426.764065
 31
0.0
1001
ACAD
1000
RTLwPs
1070
   128
  0
LINE
  5
167
102
{ACAD_REACTORS
330
127
102
}
100
AcDbEntity
  8
BASE
100
AcDbLine
 10
5141.074489
 20
1528.06868
 30
0.0
 11
5141.526752
 21
1548.12048
 31
0.0
1001
ACAD
1000
RTLwPs
1070
   128
  0
LINE
  5
168
100
AcDbEntity
  8
BASE
100
AcDbLine
 10
5135.266511
 20
1270.562777
 30
0.0
 11
5135.717606
 21
1290.562777
 31
0.0
1001
ACAD
1000
RTLwPs
1070
   128
  0
LINE
  5
169
102
{ACAD_REACTORS
330
110
102
}
100
AcDbEntity
  8
BASE
100
AcDbLine
 10
7744.706461
 20
1665.647823
 30
0.0
 11
7746.32676
 21
1685.761344
 31
0.0
1001
ACAD
1000
RTLwPs
1070
   128
  0
LINE
  5
16A
102
{ACAD_REACTORS
330
10F
102
}
100
AcDbEntity
  8
BASE
100
AcDbLine
 10
7734.900172
 20
1543.917866
 30
0.0
 11
7736.520471
 21
1564.031387
 31
0.0
1001
ACAD
1000
RTLwPs
1070
   128
  0
LINE
  5
16B
100
AcDbEntity
  8
BASE
100
AcDbLine
 10
7726.571121
 20
1440.525544
 30
0.0
 11
7729.81172
 21
1480.752586
 31
0.0
1001
ACAD
1000
RTLwPs
1070
   128
  0
LINE
  5
16C
100
AcDbEntity
  8
BASE
100
AcDbLine
 10
7729.81172
 20
1480.752586
 30
0.0
 11
7238.97787
 21
1454.816317
 31
0.0
1001
ACAD
1000
RTLwPs
1070
   128
  0
LINE
  5
16D
100
AcDbEntity
  8
BASE
100
AcDbLine
 10
7726.571121
 20
1440.525544
 30
0.0
 11
7237.843484
 21
1414.700569
 31
0.0
1001
ACAD
1000
RTLwPs
1070
   128
  0
LINE
  5
16E
102
{ACAD_REACTORS
330
127
330
126
330
112
330
111
102
}
100
AcDbEntity
  8
BASE
100
AcDbLine
 10
7226.6351
 20
1658.300192
 30
0.0
 11
7222.739225
 21
880.562758
 31
0.0
1001
ACAD
1000
RTLwPs
1070
   128
  0
LINE
  5
16F
102
{ACAD_REACTORS
330
127
330
126
330
112
330
111
102
}
100
AcDbEntity
  8
BASE
100
AcDbLine
 10
7206.629778
 20
1657.243086
 30
0.0
 11
7202.739186
 21
880.560426
 31
0.0
1001
ACAD
1000
RTLwPs
1070
   128
  0
LINE
  5
170
102
{ACAD_REACTORS
330
11D
330
11C
330
11B
330
119
330
118
330
117
330
116
330
115
330
114
330
113
330
112
102
}
100
AcDbEntity
  8
BASE
100
AcDbLine
 10
5135.717606
 20
1290.562777
 30
0.0
 11
7234.333136
 21
1290.562777
 31
0.0
1001
ACAD
1000
RTLwPs
1070
   128
  0
LINE
  5
171
102
{ACAD_REACTORS
330
11E
330
11D
330
11C
330
11B
330
119
330
118
330
117
330
116
330
115
330
114
330
113
330
111
102
}
100
AcDbEntity
  8
BASE
100
AcDbLine
 10
5135.266511
 20
1270.562777
 30
0.0
 11
7233.76758
 21
1270.562777
 31
0.0
1001
ACAD
1000
RTLwPs
1070
   128
  0
LINE
  5
172
102
{ACAD_REACTORS
330
127
330
126
330
113
102
}
100
AcDbEntity
  8
BASE
100
AcDbLine
 10
7026.066532
 20
1647.7019
 30
0.0
 11
7020.067812
 21
450.17135
 31
0.0
1001
ACAD
1000
RTLwPs
1070
   128
  0
LINE
  5
173
102
{ACAD_REACTORS
330
127
330
126
330
113
102
}
100
AcDbEntity
  8
BASE
100
AcDbLine
 10
7006.061209
 20
1646.644794
 30
0.0
 11
7000.066261
 21
449.867253
 31
0.0
1001
ACAD
1000
RTLwPs
1070
   128
  0
LINE
  5
174
102
{ACAD_REACTORS
330
127
330
126
330
114
102
}
100
AcDbEntity
  8
BASE
100
AcDbLine
 10
6825.497419
 20
1637.10358
 30
0.0
 11
6819.529128
 21
445.647617
 31
0.0
1001
ACAD
1000
RTLwPs
1070
   128
  0
LINE
  5
175
102
{ACAD_REACTORS
330
127
330
126
330
114
102
}
100
AcDbEntity
  8
BASE
100
AcDbLine
 10
6805.492695
 20
1636.046505
 30
0.0
 11
6799.527437
 21
445.195974
 31
0.0
1001
ACAD
1000
RTLwPs
1070
   128
  0
LINE
  5
176
102
{ACAD_REACTORS
330
127
330
126
330
115
102
}
100
AcDbEntity
  8
BASE
100
AcDbLine
 10
6624.929395
 20
1626.505316
 30
0.0
 11
6618.99151
 21
441.119434
 31
0.0
1001
ACAD
1000
RTLwPs
1070
   128
  0
LINE
  5
177
102
{ACAD_REACTORS
330
127
330
126
330
115
102
}
100
AcDbEntity
  8
BASE
100
AcDbLine
 10
6604.924126
 20
1625.448213
 30
0.0
 11
6598.989275
 21
440.667779
 31
0.0
1001
ACAD
1000
RTLwPs
1070
   128
  0
LINE
  5
178
102
{ACAD_REACTORS
330
127
330
126
330
116
102
}
100
AcDbEntity
  8
BASE
100
AcDbLine
 10
6424.360826
 20
1615.907024
 30
0.0
 11
6418.453348
 21
436.591238
 31
0.0
1001
ACAD
1000
RTLwPs
1070
   128
  0
LINE
  5
179
102
{ACAD_REACTORS
330
127
330
126
330
116
102
}
100
AcDbEntity
  8
BASE
100
AcDbLine
 10
6404.355558
 20
1614.849921
 30
0.0
 11
6398.451112
 21
436.139584
 31
0.0
1001
ACAD
1000
RTLwPs
1070
   128
  0
LINE
  5
17A
102
{ACAD_REACTORS
330
127
330
126
330
117
102
}
100
AcDbEntity
  8
BASE
100
AcDbLine
 10
6223.792257
 20
1605.308732
 30
0.0
 11
6217.915186
 21
432.063043
 31
0.0
1001
ACAD
1000
RTLwPs
1070
   128
  0
LINE
  5
17B
102
{ACAD_REACTORS
330
127
330
126
330
117
102
}
100
AcDbEntity
  8
BASE
100
AcDbLine
 10
6203.786989
 20
1604.251629
 30
0.0
 11
6197.91295
 21
431.611388
 31
0.0
1001
ACAD
1000
RTLwPs
1070
   128
  0
LINE
  5
17C
102
{ACAD_REACTORS
330
127
330
126
330
118
102
}
100
AcDbEntity
  8
BASE
100
AcDbLine
 10
6023.223689
 20
1594.71044
 30
0.0
 11
6017.377024
 21
427.534848
 31
0.0
1001
ACAD
1000
RTLwPs
1070
   128
  0
LINE
  5
17D
102
{ACAD_REACTORS
330
127
330
126
330
118
102
}
100
AcDbEntity
  8
BASE
100
AcDbLine
 10
6003.218421
 20
1593.653337
 30
0.0
 11
5997.374788
 21
427.083193
 31
0.0
1001
ACAD
1000
RTLwPs
1070
   128
  0
LINE
  5
17E
102
{ACAD_REACTORS
330
127
330
126
330
119
102
}
100
AcDbEntity
  8
BASE
100
AcDbLine
 10
5822.65512
 20
1584.112148
 30
0.0
 11
5816.838862
 21
423.006653
 31
0.0
1001
ACAD
1000
RTLwPs
1070
   128
  0
LINE
  5
17F
102
{ACAD_REACTORS
330
127
330
126
330
119
102
}
100
AcDbEntity
  8
BASE
100
AcDbLine
 10
5802.649852
 20
1583.055045
 30
0.0
 11
5796.836626
 21
422.554998
 31
0.0
1001
ACAD
1000
RTLwPs
1070
   128
  0
LINE
  5
180
102
{ACAD_REACTORS
330
127
330
126
330
11B
330
11A
102
}
100
AcDbEntity
  8
BASE
100
AcDbLine
 10
5622.086552
 20
1573.513856
 30
0.0
 11
5616.3007
 21
418.478457
 31
0.0
1001
ACAD
1000
RTLwPs
1070
   128
  0
LINE
  5
181
102
{ACAD_REACTORS
330
127
330
126
330
11B
330
11A
102
}
100
AcDbEntity
  8
BASE
100
AcDbLine
 10
5602.081283
 20
1572.456753
 30
0.0
 11
5596.298464
 21
418.026803
 31
0.0
1001
ACAD
1000
RTLwPs
1070
   128
  0
LINE
  5
182
102
{ACAD_REACTORS
330
127
330
126
330
11C
330
11A
102
}
100
AcDbEntity
  8
BASE
100
AcDbLine
 10
5477.881881
 20
415.35293
 30
0.0
 11
5489.872203
 21
1566.527486
 31
0.0
1001
ACAD
1000
RTLwPs
1070
   128
  0
LINE
  5
183
102
{ACAD_REACTORS
330
127
330
126
330
11C
330
11A
102
}
100
AcDbEntity
  8
BASE
100
AcDbLine
 10
5457.877203
 20
414.90122
 30
0.0
 11
5469.861217
 21
1565.470081
 31
0.0
1001
ACAD
1000
RTLwPs
1070
   128
  0
LINE
  5
184
102
{ACAD_REACTORS
330
126
330
11E
330
11D
330
11C
330
11B
330
119
330
118
330
117
330
116
330
115
330
114
330
113
330
112
330
10F
102
}
100
AcDbEntity
  8
BASE
100
AcDbLine
 10
7734.900172
 20
1543.917866
 30
0.0
 11
5138.337327
 21
1406.712264
 31
0.0
1001
ACAD
1000
RTLwPs
1070
   128
  0
LINE
  5
185
102
{ACAD_REACTORS
330
127
330
11E
330
11D
330
11C
330
11B
330
119
330
118
330
117
330
116
330
115
330
114
330
113
330
112
330
110
102
}
100
AcDbEntity
  8
BASE
100
AcDbLine
 10
7744.706461
 20
1665.647823
 30
0.0
 11
5141.074489
 21
1528.06868
 31
0.0
1001
ACAD
1000
RTLwPs
1070
   128
  0
LINE
  5
186
102
{ACAD_REACTORS
330
127
330
110
102
}
100
AcDbEntity
  8
BASE
100
AcDbLine
 10
7746.32676
 20
1685.761344
 30
0.0
 11
5141.526752
 21
1548.12048
 31
0.0
1001
ACAD
1000
RTLwPs
1070
   128
  0
LINE
  5
187
102
{ACAD_REACTORS
330
127
330
126
330
11D
330
11A
102
}
100
AcDbEntity
  8
BASE
100
AcDbLine
 10
5362.201282
 20
1559.781196
 30
0.0
 11
5350.903696
 21
412.485735
 31
0.0
1001
ACAD
1000
RTLwPs
1070
   128
  0
LINE
  5
188
102
{ACAD_REACTORS
330
127
330
126
330
11D
330
11A
102
}
100
AcDbEntity
  8
BASE
100
AcDbLine
 10
5382.211667
 20
1560.83857
 30
0.0
 11
5370.908117
 21
412.93744
 31
0.0
1001
ACAD
1000
RTLwPs
1070
   128
  0
LINE
  5
189
102
{ACAD_REACTORS
330
127
330
126
330
11E
330
11A
102
}
100
AcDbEntity
  8
BASE
100
AcDbLine
 10
5200.944139
 20
1551.260169
 30
0.0
 11
5195.222133
 21
408.970412
 31
0.0
1001
ACAD
1000
RTLwPs
1070
   128
  0
LINE
  5
18A
102
{ACAD_REACTORS
330
127
330
126
330
11E
330
11A
102
}
100
AcDbEntity
  8
BASE
100
AcDbLine
 10
5220.949407
 20
1552.317272
 30
0.0
 11
5215.224368
 21
409.422067
 31
0.0
1001
ACAD
1000
RTLwPs
1070
   128
  0
LINE
  5
18B
102
{ACAD_REACTORS
330
11E
330
11D
330
11C
330
11B
330
119
330
118
330
117
330
116
330
115
330
114
330
113
330
111
102
}
100
AcDbEntity
  8
_AA_ESTRUCTURA_HR
  6
RAYITAS
100
AcDbLine
 10
8028.07013
 20
565.562777
 30
0.0
 11
4788.097837
 21
565.562777
 31
0.0
  0
LINE
  5
18E
102
{ACAD_REACTORS
330
127
330
126
330
112
330
111
102
}
100
AcDbEntity
  8
BASE
100
AcDbLine
 10
7190.642051
 20
452.76471
 30
0.0
 11
7224.729132
 21
1658.199479
 31
0.0
1001
ACAD
1000
RTLwPs
1070
   128
  0
LINE
  5
18F
102
{ACAD_REACTORS
330
127
330
126
330
111
330
110
330
10F
102
}
100
AcDbEntity
  8
BASE
100
AcDbLine
 10
7210.650626
 20
453.068914
 30
0.0
 11
7244.759034
 21
1659.257883
 31
0.0
1001
ACAD
1000
RTLwPs
1070
   128
  0
LINE
  5
190
100
AcDbEntity
  8
BASE
100
AcDbLine
 10
5126.475114
 20
870.562777
 30
0.0
 11
5126.465215
 21
890.562777
 31
0.0
1001
ACAD
1000
RTLwPs
1070
   128
  0
LINE
  5
191
102
{ACAD_REACTORS
330
11A
330
119
330
118
330
117
330
116
330
115
330
114
330
113
102
}
100
AcDbEntity
  8
BASE
100
AcDbLine
 10
5126.465215
 20
890.562777
 30
0.0
 11
7223.022004
 21
890.562777
 31
0.0
1001
ACAD
1000
RTLwPs
1070
   128
  0
LINE
  5
192
102
{ACAD_REACTORS
330
11A
330
119
330
118
330
117
330
116
330
115
330
114
330
113
102
}
100
AcDbEntity
  8
BASE
100
AcDbLine
 10
5126.475114
 20
870.562777
 30
0.0
 11
7222.456447
 21
870.562777
 31
0.0
1001
ACAD
1000
RTLwPs
1070
   128
  0
LINE
  5
193
100
AcDbEntity
  8
BASE
100
AcDbLine
 10
5415.903133
 20
1293.43718
 30
0.0
 11
5449.193873
 21
1295.196267
 31
0.0
  0
ARC
  5
194
100
AcDbEntity
  8
BASE
100
AcDbCircle
 10
7028.627866
 20
-10325.477713
 30
0.0
 40
10753.148003
100
AcDbArc
 50
91.276086
 51
91.5705
1001
ACAD
1000
RTLwPs
1070
   128
  0
LINE
  5
195
100
AcDbEntity
  8
BASE
100
AcDbLine
 10
7273.66472
 20
434.02465
 30
0.0
 11
7300.783558
 21
1393.038734
 31
0.0
  0
LINE
  5
196
100
AcDbEntity
  8
BASE
100
AcDbLine
 10
7300.783558
 20
1393.038738
 30
0.0
 11
7698.663837
 21
1414.063181
 31
0.0
  0
LINE
  5
197
100
AcDbEntity
  8
BASE
100
AcDbLine
 10
7725.723778
 20
1749.816692
 30
0.0
 11
5192.413441
 21
1615.953432
 31
0.0
  0
LINE
  5
198
102
{ACAD_REACTORS
330
127
330
126
102
}
100
AcDbEntity
  8
BASE
100
AcDbLine
 10
5164.723513
 20
388.276648
 30
0.0
 11
5192.413441
 21
1615.953432
 31
0.0
  0
LINE
  5
199
100
AcDbEntity
  8
BASE
100
AcDbLine
 10
5439.812342
 20
394.488214
 30
0.0
 11
5449.193873
 21
1295.196267
 31
0.0
  0
ARC
  5
19A
100
AcDbEntity
  8
BASE
100
AcDbCircle
 10
8960.953094
 20
-18988.379972
 30
0.0
 40
20441.454468
100
AcDbArc
 50
93.540355
 51
93.615801
  0
LINE
  5
19B
100
AcDbEntity
  8
BASE
100
AcDbLine
 10
5432.008028
 20
1294.02178
 30
0.0
 11
5449.161909
 21
1295.194578
 31
0.0
  0
LINE
  5
19C
100
AcDbEntity
  8
BASE
100
AcDbLine
 10
5415.903133
 20
1293.43718
 30
0.0
 11
5407.043764
 21
393.748292
 31
0.0
  0
POLYLINE
  5
19D
100
AcDbEntity
  8
BASE
100
AcDb2dPolyline
 66
     1
 10
0.0
 20
0.0
 30
0.0
  0
VERTEX
  5
19E
100
AcDbEntity
  8
BASE
100
AcDbVertex
100
AcDb2dVertex
 10
7623.717112
 20
439.346741
 30
0.0
  0
VERTEX
  5
19F
100
AcDbEntity
  8
BASE
100
AcDbVertex
100
AcDb2dVertex
 10
7671.803071
 20
1412.383567
 30
0.0
  0
SEQEND
  5
1A0
100
AcDbEntity
  8
BASE
  0
LINE
  5
1A1
100
AcDbEntity
  8
BASE
100
AcDbLine
 10
7620.138512
 20
439.292333
 30
0.0
 11
7698.663838
 21
1414.063181
 31
0.0
  0
LINE
  5
1A2
100
AcDbEntity
  8
BASE
100
AcDbLine
 10
7647.598459
 20
780.165237
 30
0.0
 11
7643.133447
 21
780.165237
 31
0.0
  0
LINE
  5
1A3
100
AcDbEntity
  8
BASE
100
AcDbLine
 10
7629.384261
 20
580.165237
 30
0.0
 11
7631.486913
 21
580.165237
 31
0.0
  0
LINE
  5
1A4
100
AcDbEntity
  8
BASE
100
AcDbLine
 10
7637.0981
 20
680.165237
 30
0.0
 11
7639.542686
 21
680.165237
 31
0.0
  0
LINE
  5
1A5
102
{ACAD_REACTORS
330
110
330
10F
102
}
100
AcDbEntity
  8
BASE
100
AcDbLine
 10
7698.661524
 20
1414.063058
 30
0.0
 11
7725.70872
 21
1749.823805
 31
0.0
  0
LINE
  5
1A6
100
AcDbEntity
  8
BASE
100
AcDbLine
 10
7605.004657
 20
1401.852281
 30
0.0
 11
7605.037437
 21
1401.854013
 31
0.0
  0
LINE
  5
1A7
100
AcDbEntity
  8
BASE
100
AcDbLine
 10
7404.489097
 20
1391.258473
 30
0.0
 11
7404.521877
 21
1391.260205
 31
0.0
  0
LINE
  5
1A8
100
AcDbEntity
  8
BASE
100
AcDbLine
 10
7652.462712
 20
1083.665236
 30
0.0
 11
7652.42984
 21
1083.665236
 31
0.0
  0
LINE
  5
1A9
100
AcDbEntity
  8
BASE
100
AcDbLine
 10
7652.102737
 20
1076.665236
 30
0.0
 11
7652.135609
 21
1076.665236
 31
0.0
  0
LINE
  5
1AA
100
AcDbEntity
  8
BASE
100
AcDbLine
 10
7643.193319
 20
900.165236
 30
0.0
 11
7643.160447
 21
900.165236
 31
0.0
  0
LINE
  5
1AB
100
AcDbEntity
  8
BASE
100
AcDbLine
 10
7605.037431
 20
900.165236
 30
0.0
 11
7605.004559
 21
900.165236
 31
0.0
  0
LINE
  5
1AC
100
AcDbEntity
  8
BASE
100
AcDbLine
 10
7605.004559
 20
860.165236
 30
0.0
 11
7605.037431
 21
860.165236
 31
0.0
  0
LINE
  5
1AD
100
AcDbEntity
  8
BASE
100
AcDbLine
 10
7640.951729
 20
860.165237
 30
0.0
 11
7640.984601
 21
860.165237
 31
0.0
  0
LINE
  5
1AE
100
AcDbEntity
  8
BASE
100
AcDbLine
 10
5177.428863
 20
1615.161813
 30
0.0
 11
5192.413441
 21
1615.95344
 31
0.0
  0
ARC
  5
1AF
100
AcDbEntity
  8
BASE
100
AcDbCircle
 10
4803.570926
 20
1057.426531
 30
0.0
 40
671.44501
100
AcDbArc
 50
56.165488
 51
57.183381
  0
LINE
  5
1B0
100
AcDbEntity
  8
BASE
100
AcDbLine
 10
5088.83564
 20
1617.454736
 30
0.0
 11
5167.461887
 21
1621.71526
 31
0.0
  0
LINE
  5
1B1
102
{ACAD_REACTORS
330
111
102
}
100
AcDbEntity
  8
BASE
100
AcDbLine
 10
8028.07013
 20
480.165237
 30
0.0
 11
7143.320048
 21
480.165237
 31
0.0
  0
LINE
  5
1B2
100
AcDbEntity
  8
BASE
100
AcDbLine
 10
6676.218804
 20
423.105813
 30
0.0
 11
6684.737614
 21
423.33621
 31
0.0
1001
ACAD
1000
RTLwPs
1070
   128
  0
LINE
  5
1B3
100
AcDbEntity
  8
BASE
100
AcDbLine
 10
6410.972139
 20
415.93242
 30
0.0
 11
6419.356178
 21
416.159176
 31
0.0
1001
ACAD
1000
RTLwPs
1070
   128
  0
LINE
  5
1B4
100
AcDbEntity
  8
BASE
100
AcDbLine
 10
6540.012891
 20
419.422082
 30
0.0
 11
6539.974584
 21
419.421223
 31
0.0
1001
ACAD
1000
RTLwPs
1070
   128
  0
LINE
  5
1B5
100
AcDbEntity
  8
BASE
100
AcDbLine
 10
6783.105283
 20
424.868034
 30
0.0
 11
6758.551175
 21
424.318264
 31
0.0
1001
ACAD
1000
RTLwPs
1070
   128
  0
LINE
  5
1B6
100
AcDbEntity
  8
BASE
100
AcDbLine
 10
7019.824619
 20
430.165237
 30
0.0
 11
6789.154691
 21
425.003471
 31
0.0
  0
LINE
  5
1B7
100
AcDbEntity
  8
BASE
100
AcDbLine
 10
7294.040188
 20
434.331271
 30
0.0
 11
7620.138485
 21
439.291998
 31
0.0
  0
LINE
  5
1B8
100
AcDbEntity
  8
BASE
100
AcDbLine
 10
7292.869812
 20
434.313477
 30
0.0
 11
7294.040188
 21
434.331271
 31
0.0
  0
LINE
  5
1B9
100
AcDbEntity
  8
BASE
100
AcDbLine
 10
7291.676064
 20
434.295329
 30
0.0
 11
7292.869811
 21
434.313477
 31
0.0
  0
LINE
  5
1BA
100
AcDbEntity
  8
BASE
100
AcDbLine
 10
7273.664632
 20
434.021517
 30
0.0
 11
7291.676064
 21
434.295329
 31
0.0
  0
LINE
  5
7F8
100
AcDbEntity
  8
BASE
100
AcDbLine
 10
6670.431344
 20
1907.111874
 30
0.0
 11
6670.431344
 21
890.562777
 31
0.0
  0
TEXT
  5
7F9
100
AcDbEntity
  8
TEXTOS
  6
CONTINUOUS
100
AcDbText
 10
6733.213363
 20
1919.994997
 30
0.0
 40
40.0
  1
200.200.5
 50
0.0
 41
0.8
  7
ROMANS8
 11
6733.213363
 21
1939.994997
 31
0.0
100
AcDbText
 73
     2
  0
LINE
  5
7FA
100
AcDbEntity
  8
BASE
100
AcDbLine
 10
6982.872326
 20
1907.111874
 30
0.0
 11
6670.431344
 21
1907.111874
 31
0.0
1001
ACAD
1000
RTLwPs
1070
   128
  0
LWPOLYLINE
  5
7FB
100
AcDbEntity
  8
TEXTOS
  6
CONTINUOUS
100
AcDbPolyline
 90
        4
 70
     1
 43
0.0
 10
6725.159389
 20
1960.086123
 10
6685.159389
 20
1960.086123
 10
6685.159389
 20
1920.086123
 10
6725.159389
 20
1920.086123
  0
LINE
  5
7FC
100
AcDbEntity
  8
TEXTOS
  6
CONTINUOUS
100
AcDbLine
 10
6687.283171
 20
1914.425975
 30
0.0
 11
6720.9099
 21
1965.72122
 31
0.0
  0
LINE
  5
7FD
100
AcDbEntity
  8
BASE
100
AcDbLine
 10
6670.431344
 20
1628.909696
 30
0.0
 11
6662.231913
 21
1645.831932
 31
0.0
  0
LINE
  5
7FE
100
AcDbEntity
  8
BASE
100
AcDbLine
 10
6670.431344
 20
1507.697915
 30
0.0
 11
6662.231913
 21
1524.620151
 31
0.0
  0
LINE
  5
7FF
100
AcDbEntity
  8
BASE
100
AcDbLine
 10
6670.431344
 20
1290.562777
 30
0.0
 11
6662.231913
 21
1307.485013
 31
0.0
  0
LINE
  5
800
100
AcDbEntity
  8
BASE
100
AcDbLine
 10
6670.431344
 20
890.562777
 30
0.0
 11
6662.231913
 21
907.485013
 31
0.0
  0
LINE
  5
85B
100
AcDbEntity
  8
_AA_EJES
  6
DASHDOT
100
AcDbLine
 10
4615.487905
 20
80.562777
 30
0.0
 11
8028.07013
 21
80.562777
 31
0.0
  0
LINE
  5
85E
100
AcDbEntity
  8
JIH-4X2EV
100
AcDbLine
 10
5612.033742
 20
834.148739
 30
680.825664
 11
5606.19936
 21
913.367742
 31
-481.200595
210
0.0
220
-0.9976842788356051
230
-0.0680152906652483
1001
ACAD
1000
RTLwPs
1070
   128
  0
LINE
  5
862
100
AcDbEntity
  8
JIH-4X2EV
100
AcDbLine
 10
5812.602311
 20
833.427893
 30
691.399413
 11
5806.737522
 21
913.059756
 31
-476.682886
210
0.0
220
-0.9976842788356051
230
-0.0680152906652483
1001
ACAD
1000
RTLwPs
1070
   128
  0
LINE
  5
863
100
AcDbEntity
  8
JIH-4X2EV
100
AcDbLine
 10
6013.170879
 20
832.707047
 30
701.973162
 11
6007.275684
 21
912.751769
 31
-472.165176
210
0.0
220
-0.9976842788356051
230
-0.0680152906652483
1001
ACAD
1000
RTLwPs
1070
   128
  0
LINE
  5
864
100
AcDbEntity
  8
JIH-4X2EV
100
AcDbLine
 10
6213.739448
 20
831.986202
 30
712.546912
 11
6207.813846
 21
912.443783
 31
-467.647467
210
0.0
220
-0.9976842788356051
230
-0.0680152906652483
1001
ACAD
1000
RTLwPs
1070
   128
  0
LINE
  5
865
100
AcDbEntity
  8
JIH-4X2EVS
100
AcDbLine
 10
6414.308016
 20
831.265356
 30
723.120661
 11
6408.352008
 21
912.135796
 31
-463.129758
210
0.0
220
-0.9976842788356051
230
-0.0680152906652483
1001
ACAD
1000
RTLwPs
1070
   128
  0
LINE
  5
866
100
AcDbEntity
  8
JIH-4X2EV
100
AcDbLine
 10
6614.876585
 20
830.54451
 30
733.69441
 11
6608.89017
 21
911.82781
 31
-458.612049
210
0.0
220
-0.9976842788356051
230
-0.0680152906652483
1001
ACAD
1000
RTLwPs
1070
   128
  0
LINE
  5
867
100
AcDbEntity
  8
JIH-4X2EV
100
AcDbLine
 10
6815.44461
 20
829.823666
 30
744.268131
 11
6809.427788
 21
911.519824
 31
-454.094352
210
0.0
220
-0.9976842788356051
230
-0.0680152906652483
1001
ACAD
1000
RTLwPs
1070
   128
  0
LINE
  5
868
100
AcDbEntity
  8
JIH-4X2EV
100
AcDbLine
 10
7016.013722
 20
829.102818
 30
754.841909
 11
7009.966495
 21
911.211837
 31
-449.57663
210
0.0
220
-0.9976842788356051
230
-0.0680152906652483
1001
ACAD
1000
RTLwPs
1070
   128
  0
LINE
  5
869
100
AcDbEntity
  8
JIH-4X2EV
100
AcDbLine
 10
7214.20948
 20
828.3905
 30
765.290566
 11
7209.856375
 21
887.49679
 31
-101.711774
210
0.0
220
-0.9976842788356051
230
-0.0680152906652483
1001
ACAD
1000
RTLwPs
1070
   128
  0
LINE
  5
86A
100
AcDbEntity
  8
JIH-4X2EVS
100
AcDbLine
 10
5210.896597
 20
835.590431
 30
659.678165
 11
5205.123029
 21
913.983715
 31
-490.236013
210
0.0
220
-0.9976842788356051
230
-0.0680152906652483
1001
ACAD
1000
RTLwPs
1070
   128
  0
LINE
  5
86B
100
AcDbEntity
  8
JIH-4X2EVS
100
AcDbLine
 10
5372.107815
 20
835.011036
 30
668.177039
 11
5360.70887
 21
913.744766
 31
-486.730987
210
0.0
220
-0.9976842788356051
230
-0.0680152906652483
1001
ACAD
1000
RTLwPs
1070
   128
  0
LINE
  5
86C
100
AcDbEntity
  8
JIH-4X2EVS
100
AcDbLine
 10
5467.671125
 20
913.580494
 30
-484.321349
 11
5479.76235
 21
834.624124
 31
673.852465
210
0.0
220
-0.9976842788356051
230
-0.0680152906652483
1001
ACAD
1000
RTLwPs
1070
   128
  0
LINE
  5
86D
100
AcDbEntity
  8
JIH-4X2EVS
100
AcDbLine
 10
7200.080474
 20
911.010289
 30
-446.620231
 11
7209.856375
 21
887.49679
 31
-101.711774
210
0.0
220
-0.9976842788356051
230
-0.0680152906652483
1001
ACAD
1000
RTLwPs
1070
   128
  0
LINE
  5
86E
100
AcDbEntity
  8
__EJES
100
AcDbLine
 10
7719.62785
 20
826.57402
 30
791.935654
 11
7234.460486
 21
828.317718
 31
766.358176
210
0.0
220
-0.9976842788356051
230
-0.0680152906652483
1001
ACAD
1000
RTLwPs
1070
   128
  0
LINE
  5
86F
100
AcDbEntity
  8
__EJES
100
AcDbLine
 10
7709.821899
 20
834.853517
 30
670.487607
 11
7231.027751
 21
836.574309
 31
645.246118
210
0.0
220
-0.9976842788356051
230
-0.0680152906652483
1001
ACAD
1000
RTLwPs
1070
   128
  0
LINE
  5
870
100
AcDbEntity
  8
JIH-4X2EH
100
AcDbLine
 10
5209.588137
 20
853.35666
 30
399.073712
 11
7224.050371
 21
853.35666
 31
399.073712
210
0.0
220
-0.9976842788356051
230
-0.0680152906652483
1001
ACAD
1000
RTLwPs
1070
   128
  0
LINE
  5
871
100
AcDbEntity
  8
JIH-4X2EH
100
AcDbLine
 10
5207.58444
 20
880.562777
 30
0.0
 11
7212.739239
 21
880.562777
 31
0.0
210
0.0
220
-0.9976842788356051
230
-0.0680152906652483
1001
ACAD
1000
RTLwPs
1070
   128
  0
LINE
  5
877
100
AcDbEntity
  8
_AA_EJES
  6
DASHDOT
100
AcDbLine
 10
4615.487905
 20
30.562777
 30
0.0
 11
8028.07013
 21
30.562777
 31
0.0
  0
LINE
  5
879
100
AcDbEntity
  8
__EJES
100
AcDbLine
 10
7704.725806
 20
839.156322
 30
607.371797
 11
5209.973627
 21
848.122492
 31
475.851269
210
0.0
220
-0.9976842788356051
230
-0.0680152906652483
1001
ACAD
1000
RTLwPs
1070
   128
  0
LINE
  5
87A
100
AcDbEntity
  8
__EJES
100
AcDbLine
 10
7702.303257
 20
841.201762
 30
577.368199
 11
7228.395726
 21
842.904992
 31
552.384327
210
0.0
220
-0.9976842788356051
230
-0.0680152906652483
1001
ACAD
1000
RTLwPs
1070
   128
  0
LINE
  5
889
100
AcDbEntity
  8
JIH-VB
100
AcDbLine
 10
7704.815655
 20
864.15616
 30
607.371797
 11
7229.243644
 21
865.865372
 31
582.300175
210
0.0
220
-0.9976842788356051
230
-0.0680152906652483
1001
ACAD
1000
RTLwPs
1070
   128
  0
LINE
  5
88A
100
AcDbEntity
  8
JIH-VB-AUX
  6
CONTINUOUS
100
AcDbLine
 10
5209.973627
 20
848.122492
 30
475.851269
 11
5210.063476
 21
873.12233
 31
475.851269
  0
LINE
  5
88B
100
AcDbEntity
  8
JIH-VB-AUX
  6
CONTINUOUS
100
AcDbLine
 10
5370.292979
 20
847.546302
 30
484.303124
 11
5370.382829
 21
872.54614
 31
484.303124
  0
LINE
  5
88C
100
AcDbEntity
  8
JIH-VB-AUX
  6
CONTINUOUS
100
AcDbLine
 10
5477.842666
 20
847.159767
 30
489.973023
 11
5477.932516
 21
872.159606
 31
489.973023
  0
LINE
  5
88D
100
AcDbEntity
  8
JIH-PILARES
100
AcDbLine
 10
5210.063476
 20
873.12233
 30
475.851269
 11
5205.212878
 21
938.983554
 31
-490.236013
210
0.0
220
-0.9976842788356051
230
-0.0680152906652483
1001
ACAD
1000
RTLwPs
1070
   128
  0
LINE
  5
88E
100
AcDbEntity
  8
JIH-PILARES
100
AcDbLine
 10
5370.382829
 20
872.54614
 30
484.303124
 11
5360.798719
 21
938.744605
 31
-486.730987
210
0.0
220
-0.9976842788356051
230
-0.0680152906652483
1001
ACAD
1000
RTLwPs
1070
   128
  0
LINE
  5
88F
100
AcDbEntity
  8
JIH-PILARES
100
AcDbLine
 10
5467.760975
 20
938.580332
 30
-484.321349
 11
5477.932516
 21
872.159606
 31
489.973023
210
0.0
220
-0.9976842788356051
230
-0.0680152906652483
1001
ACAD
1000
RTLwPs
1070
   128
  0
LINE
  5
891
100
AcDbEntity
  8
JIH-VB-AUX
  6
CONTINUOUS
100
AcDbLine
 10
6413.385046
 20
843.797416
 30
539.293765
 11
6413.474895
 21
868.797255
 31
539.293765
  0
LINE
  5
892
100
AcDbEntity
  8
JIH-VB-AUX
  6
CONTINUOUS
100
AcDbLine
 10
7229.243779
 20
840.86521
 30
582.304919
 11
7229.333629
 21
865.865048
 31
582.304919
  0
LINE
  5
893
100
AcDbEntity
  8
JIH-PILARES
100
AcDbLine
 10
6413.474895
 20
868.797255
 30
539.293765
 11
6408.441858
 21
937.135635
 31
-463.129758
210
0.0
220
-0.9976842788356051
230
-0.0680152906652483
1001
ACAD
1000
RTLwPs
1070
   128
  0
LINE
  5
894
100
AcDbEntity
  8
JIH-PILARES
100
AcDbLine
 10
7200.170323
 20
936.010128
 30
-446.620231
 11
7229.333629
 21
865.865048
 31
582.304919
210
0.0
220
-0.9976842788356051
230
-0.0680152906652483
1001
ACAD
1000
RTLwPs
1070
   128
  0
LINE
  5
895
100
AcDbEntity
  8
JIH-PILARES
100
AcDbLine
 10
7188.792933
 20
963.375612
 30
-848.031637
 11
7200.170323
 21
936.010128
 31
-446.620231
210
0.0
220
-0.9976842788356051
230
-0.0680152906652483
1001
ACAD
1000
RTLwPs
1070
   128
  0
LINE
  5
896
100
AcDbEntity
  8
JIH-PILARES
100
AcDbLine
 10
6408.441858
 20
937.135635
 30
-463.129758
 11
6406.509316
 21
963.375612
 31
-848.031637
210
0.0
220
-0.9976842788356051
230
-0.0680152906652483
1001
ACAD
1000
RTLwPs
1070
   128
  0
LINE
  5
897
100
AcDbEntity
  8
JIH-PILARES
100
AcDbLine
 10
5205.212878
 20
938.983554
 30
-490.236013
 11
5203.416433
 21
963.375612
 31
-848.031637
210
0.0
220
-0.9976842788356051
230
-0.0680152906652483
1001
ACAD
1000
RTLwPs
1070
   128
  0
LINE
  5
898
100
AcDbEntity
  8
JIH-PILARES
100
AcDbLine
 10
5360.798719
 20
938.744605
 30
-486.730987
 11
5357.232681
 21
963.375612
 31
-848.031637
210
0.0
220
-0.9976842788356051
230
-0.0680152906652483
1001
ACAD
1000
RTLwPs
1070
   128
  0
LINE
  5
899
100
AcDbEntity
  8
JIH-PILARES
100
AcDbLine
 10
5463.963874
 20
963.375612
 30
-848.031637
 11
5467.760975
 21
938.580332
 31
-484.321349
210
0.0
220
-0.9976842788356051
230
-0.0680152906652483
1001
ACAD
1000
RTLwPs
1070
   128
  0
LINE
  5
89A
100
AcDbEntity
  8
JIH-VB-AUX
  6
CONTINUOUS
100
AcDbLine
 10
5611.110771
 20
846.6808
 30
496.998768
 11
5611.200621
 21
871.680638
 31
496.998768
  0
LINE
  5
89C
100
AcDbEntity
  8
JIH-VB-AUX
  6
CONTINUOUS
100
AcDbLine
 10
5811.67934
 20
845.959954
 30
507.572517
 11
5811.769189
 21
870.959792
 31
507.572517
  0
LINE
  5
89D
100
AcDbEntity
  8
JIH-VB-AUX
  6
CONTINUOUS
100
AcDbLine
 10
6012.247908
 20
845.239108
 30
518.146266
 11
6012.337758
 21
870.238947
 31
518.146266
  0
LINE
  5
89E
100
AcDbEntity
  8
JIH-VB-AUX
  6
CONTINUOUS
100
AcDbLine
 10
6212.816477
 20
844.518262
 30
528.720015
 11
6212.906327
 21
869.518101
 31
528.720015
  0
LINE
  5
89F
100
AcDbEntity
  8
JIH-VB-AUX
  6
CONTINUOUS
100
AcDbLine
 10
6613.953614
 20
843.07657
 30
549.867514
 11
6614.043464
 21
868.076409
 31
549.867514
  0
LINE
  5
8A0
100
AcDbEntity
  8
JIH-VB-AUX
  6
CONTINUOUS
100
AcDbLine
 10
6814.521639
 20
842.355726
 30
560.441235
 11
6814.611488
 21
867.355565
 31
560.441235
  0
LINE
  5
8A1
100
AcDbEntity
  8
JIH-VB-AUX
  6
CONTINUOUS
100
AcDbLine
 10
7015.090751
 20
841.634878
 30
571.015013
 11
7015.180601
 21
866.634717
 31
571.015013
  0
LINE
  5
8A4
100
AcDbEntity
  8
JIH-PRE
  6
CONTINUOUS
100
AcDbLine
 10
5205.123029
 20
913.983715
 30
-490.236013
 11
5205.212878
 21
938.983554
 31
-490.236013
  0
LINE
  5
8A5
100
AcDbEntity
  8
JIH-PRE
  6
CONTINUOUS
100
AcDbLine
 10
5360.70887
 20
913.744766
 30
-486.730987
 11
5360.798719
 21
938.744605
 31
-486.730987
  0
LINE
  5
8A6
100
AcDbEntity
  8
JIH-PRE
  6
CONTINUOUS
100
AcDbLine
 10
5467.671125
 20
913.580494
 30
-484.321349
 11
5467.760975
 21
938.580332
 31
-484.321349
  0
LINE
  5
8A7
100
AcDbEntity
  8
JIH-PRE
  6
CONTINUOUS
100
AcDbLine
 10
6408.352008
 20
912.135796
 30
-463.129758
 11
6408.441858
 21
937.135635
 31
-463.129758
  0
LINE
  5
8A8
100
AcDbEntity
  8
JIH-PRE
  6
CONTINUOUS
100
AcDbLine
 10
7200.080474
 20
911.010289
 30
-446.620231
 11
7200.170323
 21
936.010128
 31
-446.620231
  0
LINE
  5
8A9
100
AcDbEntity
  8
JIH-PRE
  6
CONTINUOUS
100
AcDbLine
 10
5207.58444
 20
880.562777
 30
0.0
 11
5207.674289
 21
905.562615
 31
0.0
  0
LINE
  5
8AA
100
AcDbEntity
  8
JIH-PRE
  6
CONTINUOUS
100
AcDbLine
 10
5365.512906
 20
880.562777
 30
0.0
 11
5365.602755
 21
905.562615
 31
0.0
  0
LINE
  5
8AB
100
AcDbEntity
  8
JIH-PRE
  6
CONTINUOUS
100
AcDbLine
 10
5472.727394
 20
880.562777
 30
0.0
 11
5472.817244
 21
905.562615
 31
0.0
  0
LINE
  5
8AC
100
AcDbEntity
  8
JIH-PRE
  6
CONTINUOUS
100
AcDbLine
 10
6410.677322
 20
880.562777
 30
0.0
 11
6410.767172
 21
905.562615
 31
0.0
  0
LINE
  5
8AD
100
AcDbEntity
  8
JIH-PRE
  6
CONTINUOUS
100
AcDbLine
 10
7212.739239
 20
880.562777
 30
0.0
 11
7212.829089
 21
905.562615
 31
0.0
  0
LINE
  5
8AE
100
AcDbEntity
  8
JIH-PRE
  6
CONTINUOUS
100
AcDbLine
 10
6412.681019
 20
853.35666
 30
399.073712
 11
6412.770869
 21
878.356499
 31
399.073712
  0
LINE
  5
8AF
100
AcDbEntity
  8
JIH-PRE
  6
CONTINUOUS
100
AcDbLine
 10
5209.588137
 20
853.35666
 30
399.073712
 11
5209.677986
 21
878.356499
 31
399.073712
  0
LINE
  5
8B0
100
AcDbEntity
  8
JIH-PRE
  6
CONTINUOUS
100
AcDbLine
 10
5369.451764
 20
853.35666
 30
399.073712
 11
5369.541614
 21
878.356499
 31
399.073712
  0
LINE
  5
8B1
100
AcDbEntity
  8
JIH-PRE
  6
CONTINUOUS
100
AcDbLine
 10
5476.893686
 20
853.35666
 30
399.073712
 11
5476.983535
 21
878.356499
 31
399.073712
  0
LINE
  5
8B2
100
AcDbEntity
  8
JIH-4X4EH
100
AcDbLine
 10
5207.674289
 20
905.562615
 30
0.0
 11
7212.829089
 21
905.562615
 31
0.0
210
0.0
220
-0.9976842788356051
230
-0.0680152906652483
1001
ACAD
1000
RTLwPs
1070
   128
  0
LINE
  5
8B3
100
AcDbEntity
  8
JIH-PRE
  6
CONTINUOUS
100
AcDbLine
 10
5608.615405
 20
880.562777
 30
0.0
 11
5608.705255
 21
905.562615
 31
0.0
  0
LINE
  5
8B4
100
AcDbEntity
  8
JIH-PRE
  6
CONTINUOUS
100
AcDbLine
 10
5809.130885
 20
880.562777
 30
0.0
 11
5809.220734
 21
905.562615
 31
0.0
  0
LINE
  5
8B5
100
AcDbEntity
  8
JIH-PRE
  6
CONTINUOUS
100
AcDbLine
 10
6009.646364
 20
880.562777
 30
0.0
 11
6009.736214
 21
905.562615
 31
0.0
  0
LINE
  5
8B6
100
AcDbEntity
  8
JIH-PRE
  6
CONTINUOUS
100
AcDbLine
 10
6210.161843
 20
880.562777
 30
0.0
 11
6210.251693
 21
905.562615
 31
0.0
  0
LINE
  5
8B7
100
AcDbEntity
  8
JIH-PRE
  6
CONTINUOUS
100
AcDbLine
 10
6611.192801
 20
880.562777
 30
0.0
 11
6611.282651
 21
905.562615
 31
0.0
  0
LINE
  5
8B8
100
AcDbEntity
  8
JIH-PRE
  6
CONTINUOUS
100
AcDbLine
 10
6811.707737
 20
880.562777
 30
0.0
 11
6811.797586
 21
905.562615
 31
0.0
  0
LINE
  5
8B9
100
AcDbEntity
  8
JIH-PRE
  6
CONTINUOUS
100
AcDbLine
 10
7012.22376
 20
880.562777
 30
0.0
 11
7012.31361
 21
905.562615
 31
0.0
  0
LINE
  5
8BB
100
AcDbEntity
  8
JIH-PRE
  6
CONTINUOUS
100
AcDbLine
 10
7224.050371
 20
853.35666
 30
399.073712
 11
7224.140221
 21
878.356499
 31
399.073712
  0
LINE
  5
AB1
100
AcDbEntity
  8
JIH-VB
100
AcDbLine
 10
7015.180601
 20
866.634717
 30
571.015013
 11
5210.063476
 21
873.12233
 31
475.851269
210
0.0
220
-0.9976842788356051
230
-0.0680152906652483
1001
ACAD
1000
RTLwPs
1070
   128
  0
LINE
  5
AB2
100
AcDbEntity
  8
JIH-4X2EH
100
AcDbLine
 10
7015.406382
 20
837.349255
 30
633.878802
 11
5210.289257
 21
843.836868
 31
538.715058
210
0.0
220
-0.9976842788356051
230
-0.0680152906652483
1001
ACAD
1000
RTLwPs
1070
   128
  0
LINE
  5
AB3
100
AcDbEntity
  8
JIH-4X2EH
100
AcDbLine
 10
7016.013722
 20
829.102818
 30
754.841909
 11
5210.896597
 21
835.590431
 31
659.678165
210
0.0
220
-0.9976842788356051
230
-0.0680152906652483
1001
ACAD
1000
RTLwPs
1070
   128
  0
LINE
  5
AB4
100
AcDbEntity
  8
JIH-4X2EH
  6
CONTINUOUS
100
AcDbLine
 10
7016.013722
 20
829.102818
 30
754.841909
 11
7234.460486
 21
828.317718
 31
766.358176
210
0.0
220
-1.0
230
0.0
  0
LINE
  5
AB5
100
AcDbEntity
  8
JIH-4X2EH
  6
CONTINUOUS
100
AcDbLine
 10
7015.406382
 20
837.349255
 30
633.878802
 11
7231.027751
 21
836.574309
 31
645.246118
210
0.0
220
-1.0
230
0.0
  0
LINE
  5
AB6
100
AcDbEntity
  8
JIH-VB
  6
CONTINUOUS
100
AcDbLine
 10
7015.180601
 20
866.634717
 30
571.015013
 11
7229.333629
 21
865.865048
 31
582.304919
210
0.0
220
-1.0
230
0.0
  0
INSERT
  5
ABA
100
AcDbEntity
  8
__EJES1
  6
CONTINUOUS
100
AcDbBlockReference
  2
110000
 10
5606.19936
 20
913.367742
 30
-481.200595
  0
INSERT
  5
ABB
100
AcDbEntity
  8
__EJES1
  6
CONTINUOUS
100
AcDbBlockReference
  2
110000
 10
5806.737522
 20
913.059756
 30
-476.682886
  0
INSERT
  5
ABC
100
AcDbEntity
  8
__EJES1
  6
CONTINUOUS
100
AcDbBlockReference
  2
110000
 10
6007.275684
 20
912.751769
 30
-472.165176
  0
INSERT
  5
ABD
100
AcDbEntity
  8
__EJES1
  6
CONTINUOUS
100
AcDbBlockReference
  2
110000
 10
6207.813846
 20
912.443783
 30
-467.647467
  0
INSERT
  5
ABE
100
AcDbEntity
  8
__EJES1
  6
CONTINUOUS
100
AcDbBlockReference
  2
110000
 10
6608.89017
 20
911.82781
 30
-458.612049
  0
INSERT
  5
ABF
100
AcDbEntity
  8
__EJES1
  6
CONTINUOUS
100
AcDbBlockReference
  2
110000
 10
6809.427788
 20
911.519824
 30
-454.094352
  0
INSERT
  5
AC0
100
AcDbEntity
  8
__EJES1
  6
CONTINUOUS
100
AcDbBlockReference
  2
110000
 10
7009.966495
 20
911.211837
 30
-449.57663
  0
INSERT
  5
AC1
100
AcDbEntity
  8
__EJES1
  6
CONTINUOUS
100
AcDbBlockReference
  2
111111
 10
5203.416433
 20
963.375612
 30
-848.031637
  0
INSERT
  5
AC2
100
AcDbEntity
  8
__EJES1
  6
CONTINUOUS
100
AcDbBlockReference
  2
111111
 10
5357.232681
 20
963.375612
 30
-848.031637
  0
INSERT
  5
AC3
100
AcDbEntity
  8
__EJES1
  6
CONTINUOUS
100
AcDbBlockReference
  2
111111
 10
5463.963874
 20
963.375612
 30
-848.031637
  0
INSERT
  5
AC4
100
AcDbEntity
  8
__EJES1
  6
CONTINUOUS
100
AcDbBlockReference
  2
111111
 10
6406.509316
 20
963.375612
 30
-848.031637
  0
INSERT
  5
AC5
100
AcDbEntity
  8
__EJES1
  6
CONTINUOUS
100
AcDbBlockReference
  2
111111
 10
7188.792933
 20
963.375612
 30
-848.031637
  0
INSERT
  5
ACD
100
AcDbEntity
  8
__EJES1
  6
CONTINUOUS
100
AcDbBlockReference
  2
110X00
 10
7704.815655
 20
864.15616
 30
607.371797
  0
INSERT
  5
ACE
100
AcDbEntity
  8
__EJES1
  6
CONTINUOUS
100
AcDbBlockReference
  2
110X00
 10
5210.063476
 20
873.12233
 30
475.851269
  0
INSERT
  5
ACF
100
AcDbEntity
  8
__EJES1
  6
CONTINUOUS
100
AcDbBlockReference
  2
110X00
 10
6212.906327
 20
869.518101
 30
528.720015
  0
LINE
  5
ADC
100
AcDbEntity
  8
JIH-4X2EVS
100
AcDbLine
 10
7212.739239
 20
880.562777
 30
0.0
 11
7234.460486
 21
828.317718
 31
766.358176
210
0.0
220
-0.9976842788356051
230
-0.0680152906652483
1001
ACAD
1000
RTLwPs
1070
   128
  0
LINE
  5
ADD
100
AcDbEntity
  8
JIH-4X2EVS
  6
CONTINUOUS
100
AcDbLine
 10
7212.739239
 20
880.562777
 30
0.0
 11
7209.856375
 21
887.49679
 31
-101.711774
  0
ENDSEC
  0
SECTION
  2
OBJECTS
  0
DICTIONARY
  5
1A
100
AcDbDictionary
  3
ACAD_GROUP
350
18
  3
ACAD_IMAGE_VARS
350
723
  3
ACAD_MLINESTYLE
350
19
  0
DICTIONARY
  5
8E6
100
AcDbDictionary
280
     1
  3
ACAD_XREC_ROUNDTRIP
360
8E7
  0
DICTIONARY
  5
18
102
{ACAD_REACTORS
330
1A
102
}
100
AcDbDictionary
  0
ACAD_PROXY_OBJECT
  5
723
102
{ACAD_REACTORS
330
1A
102
}
100
AcDbProxyObject
 90
      499
 91
      507
 93
       16
310
A40626
 94
        0
  0
DICTIONARY
  5
19
102
{ACAD_REACTORS
330
1A
102
}
100
AcDbDictionary
  3
STANDARD
350
1E
  0
XRECORD
  5
8E7
102
{ACAD_REACTORS
330
8E6
102
}
100
AcDbXrecord
102
EXTNAMES
  1
STANDARD
  2
Standard
102
ACADR14ROUNDTRIP
1000
DSTYLE
1002
{
1070
   289
 70
     0
1002
}
  0
MLINESTYLE
  5
1E
102
{ACAD_REACTORS
330
19
102
}
100
AcDbMlineStyle
  2
STANDARD
 70
     0
  3

 62
   256
 51
90.0
 52
90.0
 71
     2
 49
0.5
 62
   256
  6
BYLAYER
 49
-0.5
 62
   256
  6
BYLAYER
  0
ENDSEC
  0
EOF
