  0
SECTION
  2
HEADER
  9
$ACADVER
  1
AC1014
  9
$ACADMAINTVER
 70
     0
  9
$DWGCODEPAGE
  3
ANSI_1252
  9
$INSBASE
 10
4158.596744
 20
37.87594
 30
0.0
  9
$EXTMIN
 10
3921.910784
 20
8.971935
 30
-841.157546
  9
$EXTMAX
 10
8617.229574
 20
1953.810249
 30
789.911963
  9
$LIMMIN
 10
0.0
 20
0.0
  9
$LIMMAX
 10
420.0
 20
297.0
  9
$ORTHOMODE
 70
     1
  9
$REGENMODE
 70
     1
  9
$FILLMODE
 70
     1
  9
$QTEXTMODE
 70
     0
  9
$MIRRTEXT
 70
     0
  9
$DRAGMODE
 70
     2
  9
$LTSCALE
 40
10.0
  9
$OSMODE
 70
    33
  9
$ATTMODE
 70
     1
  9
$TEXTSIZE
 40
2.0
  9
$TRACEWID
 40
1.0
  9
$TEXTSTYLE
  7
ROMANS8
  9
$CLAYER
  8
JIH-4X2EVS
  9
$CELTYPE
  6
CONTINUOUS
  9
$CECOLOR
 62
   256
  9
$CELTSCALE
 40
1.0
  9
$DELOBJ
 70
     1
  9
$DISPSILH
 70
     0
  9
$DIMSCALE
 40
1.0
  9
$DIMASZ
 40
0.75
  9
$DIMEXO
 40
5.0
  9
$DIMDLI
 40
6.0
  9
$DIMRND
 40
0.0
  9
$DIMDLE
 40
2.0
  9
$DIMEXE
 40
1.8
  9
$DIMTP
 40
0.0
  9
$DIMTM
 40
0.0
  9
$DIMTXT
 40
2.0
  9
$DIMCEN
 40
1.5
  9
$DIMTSZ
 40
0.0
  9
$DIMTOL
 70
     0
  9
$DIMLIM
 70
     0
  9
$DIMTIH
 70
     0
  9
$DIMTOH
 70
     0
  9
$DIMSE1
 70
     0
  9
$DIMSE2
 70
     0
  9
$DIMTAD
 70
     0
  9
$DIMZIN
 70
     0
  9
$DIMBLK
  1
COTA
  9
$DIMASO
 70
     1
  9
$DIMSHO
 70
     1
  9
$DIMPOST
  1

  9
$DIMAPOST
  1

  9
$DIMALT
 70
     0
  9
$DIMALTD
 70
     2
  9
$DIMALTF
 40
25.4
  9
$DIMLFAC
 40
1.0
  9
$DIMTOFL
 70
     0
  9
$DIMTVP
 40
1.0
  9
$DIMTIX
 70
     1
  9
$DIMSOXD
 70
     0
  9
$DIMSAH
 70
     1
  9
$DIMBLK1
  1
COTA
  9
$DIMBLK2
  1
COTA
  9
$DIMSTYLE
  2
COTA1
  9
$DIMCLRD
 70
     1
  9
$DIMCLRE
 70
     1
  9
$DIMCLRT
 70
     1
  9
$DIMTFAC
 40
1.0
  9
$DIMGAP
 40
0.09
  9
$DIMJUST
 70
     0
  9
$DIMSD1
 70
     0
  9
$DIMSD2
 70
     0
  9
$DIMTOLJ
 70
     1
  9
$DIMTZIN
 70
     0
  9
$DIMALTZ
 70
     0
  9
$DIMALTTZ
 70
     0
  9
$DIMFIT
 70
     5
  9
$DIMUPT
 70
     0
  9
$DIMUNIT
 70
     2
  9
$DIMDEC
 70
     3
  9
$DIMTDEC
 70
     3
  9
$DIMALTU
 70
     2
  9
$DIMALTTD
 70
     2
  9
$DIMTXSTY
  7
ROMANS
  9
$DIMAUNIT
 70
     0
  9
$LUNITS
 70
     2
  9
$LUPREC
 70
     4
  9
$SKETCHINC
 40
1.0
  9
$FILLETRAD
 40
0.0
  9
$AUNITS
 70
     0
  9
$AUPREC
 70
     0
  9
$MENU
  1
.
  9
$ELEVATION
 40
0.0
  9
$PELEVATION
 40
0.0
  9
$THICKNESS
 40
0.0
  9
$LIMCHECK
 70
     0
  9
$BLIPMODE
 70
     0
  9
$CHAMFERA
 40
10.0
  9
$CHAMFERB
 40
10.0
  9
$CHAMFERC
 40
20.0
  9
$CHAMFERD
 40
0.0
  9
$SKPOLY
 70
     0
  9
$TDCREATE
 40
2452655.312412153
  9
$TDUPDATE
 40
2452960.415943576
  9
$TDINDWG
 40
1.7942400000
  9
$TDUSRTIMER
 40
1.7942400000
  9
$USRTIMER
 70
     1
  9
$ANGBASE
 50
0.0
  9
$ANGDIR
 70
     0
  9
$PDMODE
 70
     0
  9
$PDSIZE
 40
0.0
  9
$PLINEWID
 40
0.0
  9
$COORDS
 70
     1
  9
$SPLFRAME
 70
     0
  9
$SPLINETYPE
 70
     6
  9
$SPLINESEGS
 70
     8
  9
$ATTDIA
 70
     0
  9
$ATTREQ
 70
     1
  9
$HANDLING
 70
     1
  9
$HANDSEED
  5
9E3
  9
$SURFTAB1
 70
     6
  9
$SURFTAB2
 70
     6
  9
$SURFTYPE
 70
     6
  9
$SURFU
 70
     6
  9
$SURFV
 70
     6
  9
$UCSNAME
  2

  9
$UCSORG
 10
0.0
 20
0.0
 30
0.0
  9
$UCSXDIR
 10
1.0
 20
0.0
 30
0.0
  9
$UCSYDIR
 10
0.0
 20
1.0
 30
0.0
  9
$PUCSNAME
  2

  9
$PUCSORG
 10
0.0
 20
0.0
 30
0.0
  9
$PUCSXDIR
 10
1.0
 20
0.0
 30
0.0
  9
$PUCSYDIR
 10
0.0
 20
1.0
 30
0.0
  9
$USERI1
 70
     0
  9
$USERI2
 70
     0
  9
$USERI3
 70
     0
  9
$USERI4
 70
     0
  9
$USERI5
 70
     0
  9
$USERR1
 40
1.0
  9
$USERR2
 40
1.0
  9
$USERR3
 40
0.0
  9
$USERR4
 40
0.0
  9
$USERR5
 40
0.0
  9
$WORLDVIEW
 70
     1
  9
$SHADEDGE
 70
     3
  9
$SHADEDIF
 70
    70
  9
$TILEMODE
 70
     1
  9
$MAXACTVP
 70
    48
  9
$PINSBASE
 10
0.0
 20
0.0
 30
0.0
  9
$PLIMCHECK
 70
     0
  9
$PEXTMIN
 10
-39.29145
 20
-556.942407
 30
0.0
  9
$PEXTMAX
 10
1793.776916
 20
677.197447
 30
0.0
  9
$PLIMMIN
 10
0.0
 20
0.0
  9
$PLIMMAX
 10
420.0
 20
297.0
  9
$UNITMODE
 70
     0
  9
$VISRETAIN
 70
     1
  9
$PLINEGEN
 70
     0
  9
$PSLTSCALE
 70
     1
  9
$TREEDEPTH
 70
  3020
  9
$PICKSTYLE
 70
     0
  9
$CMLSTYLE
  2
STANDARD
  9
$CMLJUST
 70
     0
  9
$CMLSCALE
 40
20.0
  9
$PROXYGRAPHICS
 70
     1
  9
$MEASUREMENT
 70
     0
  0
ENDSEC
  0
SECTION
  2
CLASSES
  0
CLASS
  1
LWPOLYLINE
  2
AcDbPolyline
  3
"AutoCAD"
 90
        0
280
     0
281
     1
  0
CLASS
  1
XRECORD
  2
AcDbXrecord
  3
"<Built In>"
 90
        0
280
     0
281
     0
  0
CLASS
  1
HATCH
  2
AcDbHatch
  3
"ACAD_SEDONA"
 90
        0
280
     0
281
     1
  0
CLASS
  1
IDBUFFER
  2
AcDbIdBuffer
  3
"Acad"
 90
        0
280
     0
281
     0
  0
CLASS
  1
IMAGE
  2
AcDbRasterImage
  3
ISM
 90
      127
280
     0
281
     1
  0
CLASS
  1
IMAGEDEF_REACTOR
  2
AcDbRasterImageDefReactor
  3
ISM
 90
        1
280
     0
281
     0
  0
CLASS
  1
IMAGEDEF
  2
AcDbRasterImageDef
  3
ISM
 90
        0
280
     0
281
     0
  0
CLASS
  1
RASTERVARIABLES
  2
AcDbRasterVariables
  3
ISM
 90
        0
280
     0
281
     0
  0
CLASS
  1
DICTIONARYVAR
  2
AcDbDictionaryVar
  3
"AutoCAD"
 90
        0
280
     0
281
     0
  0
CLASS
  1
WIPEOUTVARIABLES
  2
AcDbWipeoutVariables
  3
WIPEOUT
 90
        0
280
     0
281
     0
  0
CLASS
  1
WIPEOUT
  2
AcDbWipeout
  3
WIPEOUT
 90
      127
280
     0
281
     1
  0
ENDSEC
  0
SECTION
  2
TABLES
  0
TABLE
  2
VPORT
  5
12
100
AcDbSymbolTable
 70
     3
  0
VPORT
  5
9E2
100
AcDbSymbolTableRecord
100
AcDbViewportTableRecord
  2
*ACTIVE
 70
     0
 10
0.0
 20
0.0
 11
1.0
 21
1.0
 12
4645.086768
 22
-1819.277683
 13
0.0
 23
0.0
 14
10.0
 24
10.0
 15
10.0
 25
10.0
 16
1.0
 26
-1.0
 36
1.0
 17
0.0
 27
0.0
 37
0.0
 40
175.103584
 41
1.57757
 42
50.0
 43
0.0
 44
0.0
 50
0.0
 51
0.0
 71
     0
 72
 20000
 73
     1
 74
     1
 75
     0
 76
     0
 77
     0
 78
     0
  0
ENDTAB
  0
TABLE
  2
LTYPE
  5
D
100
AcDbSymbolTable
 70
     4
  0
LTYPE
  5
E
100
AcDbSymbolTableRecord
100
AcDbLinetypeTableRecord
  2
BYBLOCK
 70
     0
  3

 72
    65
 73
     0
 40
0.0
  0
LTYPE
  5
F
100
AcDbSymbolTableRecord
100
AcDbLinetypeTableRecord
  2
BYLAYER
 70
     0
  3

 72
    65
 73
     0
 40
0.0
  0
LTYPE
  5
5
100
AcDbSymbolTableRecord
100
AcDbLinetypeTableRecord
  2
CONTINUOUS
 70
     0
  3
Solid line
 72
    65
 73
     0
 40
0.0
  0
LTYPE
  5
D1
100
AcDbSymbolTableRecord
100
AcDbLinetypeTableRecord
  2
RAYITAS2
 70
     0
  3
_ _ _ _ _ _ _ _ _ _ _ _ _ _ _ _ _ _ _ _ _ _ _ _
 72
    65
 73
     2
 40
0.1875
 49
0.125
 74
     0
 49
-0.0625
 74
     0
  0
LTYPE
  5
13D
100
AcDbSymbolTableRecord
100
AcDbLinetypeTableRecord
  2
DASHDOT
 70
     0
  3
Dash dot __ . __ . __ . __ . __ . __ . __ . __
 72
    65
 73
     4
 40
1.0
 49
0.5
 74
     0
 49
-0.25
 74
     0
 49
0.0
 74
     0
 49
-0.25
 74
     0
  0
LTYPE
  5
18D
100
AcDbSymbolTableRecord
100
AcDbLinetypeTableRecord
  2
RAYITAS
 70
     0
  3
__ __ __ __ __ __ __ __ __ __ __ __ __ __ __ __
 72
    65
 73
     2
 40
0.375
 49
0.25
 74
     0
 49
-0.125
 74
     0
  0
ENDTAB
  0
TABLE
  2
LAYER
  5
A
100
AcDbSymbolTable
 70
    28
  0
LAYER
  5
4
100
AcDbSymbolTableRecord
100
AcDbLayerTableRecord
  2
0
 70
     0
 62
     7
  6
CONTINUOUS
  0
LAYER
  5
CA
100
AcDbSymbolTableRecord
100
AcDbLayerTableRecord
  2
L-ROJA
 70
     0
 62
    -1
  6
CONTINUOUS
  0
LAYER
  5
CD
100
AcDbSymbolTableRecord
100
AcDbLayerTableRecord
  2
T-MAGENTA
 70
     0
 62
    -6
  6
CONTINUOUS
  0
LAYER
  5
142
100
AcDbSymbolTableRecord
100
AcDbLayerTableRecord
  2
_AA_TEXTOS
 70
     0
 62
  -240
  6
CONTINUOUS
  0
LAYER
  5
13C
100
AcDbSymbolTableRecord
100
AcDbLayerTableRecord
  2
_AA_EJES
 70
     0
 62
    -1
  6
CONTINUOUS
  0
LAYER
  5
18C
100
AcDbSymbolTableRecord
100
AcDbLayerTableRecord
  2
_AA_ESTRUCTURA_HR
 70
     0
 62
    -1
  6
CONTINUOUS
  0
LAYER
  5
477
100
AcDbSymbolTableRecord
100
AcDbLayerTableRecord
  2
_AA_PIEDRA
 70
     0
 62
    -1
  6
CONTINUOUS
  0
LAYER
  5
486
100
AcDbSymbolTableRecord
100
AcDbLayerTableRecord
  2
_AA_PERFIL_AC
 70
     0
 62
    -1
  6
CONTINUOUS
  0
LAYER
  5
60
100
AcDbSymbolTableRecord
100
AcDbLayerTableRecord
  2
BASE
 70
     0
 62
    -1
  6
CONTINUOUS
  0
LAYER
  5
1B
100
AcDbSymbolTableRecord
100
AcDbLayerTableRecord
  2
TRAMAS
 70
     0
 62
    -8
  6
CONTINUOUS
  0
LAYER
  5
63
100
AcDbSymbolTableRecord
100
AcDbLayerTableRecord
  2
TEXTOS
 70
     0
 62
    -1
  6
CONTINUOUS
  0
LAYER
  5
470
100
AcDbSymbolTableRecord
100
AcDbLayerTableRecord
  2
FAC-E-P-8_-_VISIBLE
 70
     0
 62
  -253
  6
CONTINUOUS
  0
LAYER
  5
46E
100
AcDbSymbolTableRecord
100
AcDbLayerTableRecord
  2
FAC-E-P-2_-_VISIBLE
 70
     0
 62
    -1
  6
CONTINUOUS
  0
LAYER
  5
85B
100
AcDbSymbolTableRecord
100
AcDbLayerTableRecord
  2
__EJES
 70
     0
 62
     7
  6
CONTINUOUS
  0
LAYER
  5
920
100
AcDbSymbolTableRecord
100
AcDbLayerTableRecord
  2
CC
 70
     0
 62
     7
  6
CONTINUOUS
  0
LAYER
  5
926
100
AcDbSymbolTableRecord
100
AcDbLayerTableRecord
  2
JIH-VB
 70
     0
 62
     1
  6
CONTINUOUS
  0
LAYER
  5
92C
100
AcDbSymbolTableRecord
100
AcDbLayerTableRecord
  2
JIH-VB-AUX
 70
     0
 62
    30
  6
CONTINUOUS
  0
LAYER
  5
92E
100
AcDbSymbolTableRecord
100
AcDbLayerTableRecord
  2
JIH-4X2EH
 70
     0
 62
     2
  6
CONTINUOUS
  0
LAYER
  5
92F
100
AcDbSymbolTableRecord
100
AcDbLayerTableRecord
  2
JIH-4X2EV
 70
     0
 62
     2
  6
CONTINUOUS
  0
LAYER
  5
934
100
AcDbSymbolTableRecord
100
AcDbLayerTableRecord
  2
JIH-PRE
 70
     0
 62
     4
  6
CONTINUOUS
  0
LAYER
  5
935
100
AcDbSymbolTableRecord
100
AcDbLayerTableRecord
  2
JIH-PILARES
 70
     0
 62
     3
  6
CONTINUOUS
  0
LAYER
  5
93B
100
AcDbSymbolTableRecord
100
AcDbLayerTableRecord
  2
JIH-250V
 70
     0
 62
   241
  6
CONTINUOUS
  0
LAYER
  5
93C
100
AcDbSymbolTableRecord
100
AcDbLayerTableRecord
  2
JIH-250H
 70
     0
 62
     6
  6
CONTINUOUS
  0
LAYER
  5
9C2
100
AcDbSymbolTableRecord
100
AcDbLayerTableRecord
  2
JIH-250T
 70
     0
 62
   211
  6
CONTINUOUS
  0
LAYER
  5
9C9
100
AcDbSymbolTableRecord
100
AcDbLayerTableRecord
  2
JIH-250VE
 70
     0
 62
   241
  6
CONTINUOUS
  0
LAYER
  5
9CA
100
AcDbSymbolTableRecord
100
AcDbLayerTableRecord
  2
JIH-250HE
 70
     0
 62
     6
  6
CONTINUOUS
  0
LAYER
  5
9DB
100
AcDbSymbolTableRecord
100
AcDbLayerTableRecord
  2
LAYER1
 70
     0
 62
     2
  6
CONTINUOUS
  0
LAYER
  5
9DF
100
AcDbSymbolTableRecord
100
AcDbLayerTableRecord
  2
JIH-4X2EVS
 70
     0
 62
     2
  6
CONTINUOUS
  0
ENDTAB
  0
TABLE
  2
STYLE
  5
B
100
AcDbSymbolTable
 70
     5
  0
STYLE
  5
C
100
AcDbSymbolTableRecord
100
AcDbTextStyleTableRecord
  2
STANDARD
 70
     0
 40
0.0
 41
1.0
 50
0.0
 71
     0
 42
2.5
  3
txt
  4

  0
STYLE
  5
1C
100
AcDbSymbolTableRecord
100
AcDbTextStyleTableRecord
  2
ROMANS
 70
     0
 40
2.0
 41
1.0
 50
0.0
 71
     0
 42
2.0
  3
ROMANS.shx
  4

  0
STYLE
  5
1D
100
AcDbSymbolTableRecord
100
AcDbTextStyleTableRecord
  2
ROMANS8
 70
     0
 40
0.0
 41
1.0
 50
0.0
 71
     0
 42
0.25
  3
romans.shx
  4

  0
STYLE
  5
29
100
AcDbSymbolTableRecord
100
AcDbTextStyleTableRecord
  2
TITLE
 70
     0
 40
0.15
 41
1.0
 50
0.0
 71
     0
 42
0.15
  3

  4

1001
ACAD
1000
Arial
1071
       34
  0
STYLE
  5
34
100
AcDbSymbolTableRecord
100
AcDbTextStyleTableRecord
  2
DOOR
 70
     0
 40
1.0
 41
1.0
 50
0.0
 71
     0
 42
1.0
  3

  4

1001
ACAD
1000
Arial
1071
       34
  0
ENDTAB
  0
TABLE
  2
VIEW
  5
10
100
AcDbSymbolTable
 70
     0
  0
ENDTAB
  0
TABLE
  2
UCS
  5
11
100
AcDbSymbolTable
 70
     0
  0
ENDTAB
  0
TABLE
  2
APPID
  5
14
100
AcDbSymbolTable
 70
     3
  0
APPID
  5
15
100
AcDbSymbolTableRecord
100
AcDbRegAppTableRecord
  2
ACAD
 70
     0
  0
APPID
  5
5D
100
AcDbSymbolTableRecord
100
AcDbRegAppTableRecord
  2
CONTENTBLOCKICON
 70
     0
  0
APPID
  5
720
100
AcDbSymbolTableRecord
100
AcDbRegAppTableRecord
  2
RAK
 70
     0
  0
ENDTAB
  0
TABLE
  2
DIMSTYLE
  5
16
100
AcDbSymbolTable
 70
     2
  0
DIMSTYLE
105
1F
100
AcDbSymbolTableRecord
100
AcDbDimStyleTableRecord
  2
COTA1
 70
     0
  3

  4

  5
COTA
  6
COTA
  7
COTA
 40
1.0
 41
0.75
 42
5.0
 43
6.0
 44
1.8
 45
0.0
 46
2.0
 47
0.0
 48
0.0
140
2.0
141
1.5
142
0.0
143
25.4
144
1.0
145
1.0
146
1.0
147
0.09
 71
     0
 72
     0
 73
     0
 74
     0
 75
     0
 76
     0
 77
     0
 78
     0
170
     0
171
     2
172
     0
173
     1
174
     1
175
     0
176
     1
177
     1
178
     1
270
     2
271
     3
272
     3
273
     2
274
     2
340
1C
275
     0
280
     0
281
     0
282
     0
283
     1
284
     0
285
     0
286
     0
287
     5
288
     0
  0
DIMSTYLE
105
980
102
{ACAD_XDICTIONARY
360
981
102
}
100
AcDbSymbolTableRecord
100
AcDbDimStyleTableRecord
  2
STANDARD
 70
     0
  3

  4

  5

  6

  7

 40
1.0
 41
0.18
 42
0.0625
 43
0.38
 44
0.18
 45
0.0
 46
0.0
 47
0.0
 48
0.0
140
0.18
141
0.09
142
0.0
143
25.4
144
1.0
145
0.0
146
1.0
147
0.09
 71
     0
 72
     0
 73
     1
 74
     1
 75
     0
 76
     0
 77
     0
 78
     0
170
     0
171
     2
172
     0
173
     0
174
     0
175
     0
176
     0
177
     0
178
     0
270
     2
271
     4
272
     4
273
     2
274
     2
340
C
275
     0
280
     0
281
     0
282
     0
283
     1
284
     0
285
     0
286
     0
287
     0
288
     0
  0
ENDTAB
  0
TABLE
  2
BLOCK_RECORD
  5
1
100
AcDbSymbolTable
 70
     9
  0
BLOCK_RECORD
  5
2
100
AcDbSymbolTableRecord
100
AcDbBlockTableRecord
  2
*MODEL_SPACE
  0
BLOCK_RECORD
  5
7
100
AcDbSymbolTableRecord
100
AcDbBlockTableRecord
  2
*PAPER_SPACE
  0
BLOCK_RECORD
  5
20
100
AcDbSymbolTableRecord
100
AcDbBlockTableRecord
  2
COTA
  0
BLOCK_RECORD
  5
E9
100
AcDbSymbolTableRecord
100
AcDbBlockTableRecord
  2
SIMB7
  0
BLOCK_RECORD
  5
42
100
AcDbSymbolTableRecord
100
AcDbBlockTableRecord
  2
TXT_CAJETIN
1001
CONTENTBLOCKICON
1071
        0
1004
2800000020000000200000000100080000000000000400000000000000000000000000000000000000000000000080000080000000808000800000008000800080800000C0C0C000C0DCC000F0CAA6000020400000206000002080000020A0000020C0000020E00000400000004020000040400000406000004080000040A0
1004
000040C0000040E00000600000006020000060400000606000006080000060A0000060C0000060E00000800000008020000080400000806000008080000080A0000080C0000080E00000A0000000A0200000A0400000A0600000A0800000A0A00000A0C00000A0E00000C0000000C0200000C0400000C0600000C0800000C0
1004
A00000C0C00000C0E00000E0000000E0200000E0400000E0600000E0800000E0A00000E0C00000E0E00040000000400020004000400040006000400080004000A0004000C0004000E00040200000402020004020400040206000402080004020A0004020C0004020E000404000004040200040404000404060004040800040
1004
40A0004040C0004040E00040600000406020004060400040606000406080004060A0004060C0004060E00040800000408020004080400040806000408080004080A0004080C0004080E00040A0000040A0200040A0400040A0600040A0800040A0A00040A0C00040A0E00040C0000040C0200040C0400040C0600040C08000
1004
40C0A00040C0C00040C0E00040E0000040E0200040E0400040E0600040E0800040E0A00040E0C00040E0E00080000000800020008000400080006000800080008000A0008000C0008000E00080200000802020008020400080206000802080008020A0008020C0008020E00080400000804020008040400080406000804080
1004
008040A0008040C0008040E00080600000806020008060400080606000806080008060A0008060C0008060E00080800000808020008080400080806000808080008080A0008080C0008080E00080A0000080A0200080A0400080A0600080A0800080A0A00080A0C00080A0E00080C0000080C0200080C0400080C0600080C0
1004
800080C0A00080C0C00080C0E00080E0000080E0200080E0400080E0600080E0800080E0A00080E0C00080E0E000C0000000C0002000C0004000C0006000C0008000C000A000C000C000C000E000C0200000C0202000C0204000C0206000C0208000C020A000C020C000C020E000C0400000C0402000C0404000C0406000C0
1004
408000C040A000C040C000C040E000C0600000C0602000C0604000C0606000C0608000C060A000C060C000C060E000C0800000C0802000C0804000C0806000C0808000C080A000C080C000C080E000C0A00000C0A02000C0A04000C0A06000C0A08000C0A0A000C0A0C000C0A0E000C0C00000C0C02000C0C04000C0C06000
1004
C0C08000C0C0A000F0FBFF00A4A0A000808080000000FF0000FF000000FFFF00FF000000FF00FF00FFFF0000FFFFFF000000000000000000000000000000000000000000000000000000000000000000000000000000000000000000FFFFFFFFFFFFFFFF000000000000000000000000000000000000000000000000FFFFFF
1004
FFFFFFFFFF000000000000000000000000000000000000000000000000FFFFFFFFFFFFFFFF0000000000000000000000000000000000000000000000000000FFFF00FFFFFF00000000000000000000000000000000000000000000FFFFFFFFFFFFFFFFFFFFFFFFFF00000000000000000000000000000000000000FFFFFFFF
1004
FFFFFFFFFFFFFFFF000000000000000000000000000000000000000000000000FFFFFFFF00000000000000000000000000000000000000000000000000000000FFFFFFFF00000000000000000000000000000000000000000000000000000000FFFFFF00000000000000000000000000000000000000000000000000000000
1004
00FFFF000000000000000000000000000000000000000000000000000000000000FFFFFFFF00000000000000000000000000000000000000000000000000000000FFFFFFFF00000000000000000000000000000000000000000000000000000000FFFFFFFF0000000000000000000000000000000000000000000000000000
1004
00000000000000000000000000000000000000000000000000000000000000000000000000000000000000000000000000000000000000000000000000000000000000000000000000000000000000000000000000000000000000000000000000000000000000000000000000000000000000000000000000000000000000
1004
00000000000000000000000000000000000000000000000000000000000000000000000000000000000000000000000000000000000000000000000000000000000000000000000000000000000000000000000000000000000000000000000000000000000000000000000000000000000000000000000000000000000000
1004
0000FFFFFFFFFFFFFFFF000000000000000000000000000000000000000000000000FFFFFFFFFFFFFFFF00000000000000000000000000000000000000000000000000000000000000000000000000000000000000000000000000000000000000000000000000000000000000000000000000000000000000000000000000
1004
000000000000000000000000000000000000000000000000000000000000000000000000000000000000000000000000000000000000000000000000000000000000000000000000000000000000000000000000000000000000000000000000000000FFFFFFFFFFFFFFFF0000000000000000000000000000000000000000
1004
00000000FFFFFFFFFFFFFFFF0000000000000000000000000000000000000000000000000000000000000000000000000000000000000000
  0
BLOCK_RECORD
  5
733
100
AcDbSymbolTableRecord
100
AcDbBlockTableRecord
  2
A$C6F530FAD
  0
BLOCK_RECORD
  5
737
100
AcDbSymbolTableRecord
100
AcDbBlockTableRecord
  2
A$C072073E7
  0
BLOCK_RECORD
  5
83A
100
AcDbSymbolTableRecord
100
AcDbBlockTableRecord
  2
A$C6C3D747B
  0
BLOCK_RECORD
  5
983
100
AcDbSymbolTableRecord
100
AcDbBlockTableRecord
  2
111111
  0
BLOCK_RECORD
  5
98D
100
AcDbSymbolTableRecord
100
AcDbBlockTableRecord
  2
110000
  0
BLOCK_RECORD
  5
9B2
100
AcDbSymbolTableRecord
100
AcDbBlockTableRecord
  2
110X00
  0
ENDTAB
  0
ENDSEC
  0
SECTION
  2
BLOCKS
  0
BLOCK
  5
3
100
AcDbEntity
  8
0
100
AcDbBlockBegin
  2
*MODEL_SPACE
 70
     0
 10
0.0
 20
0.0
 30
0.0
  3
*MODEL_SPACE
  1

  0
ENDBLK
  5
6
100
AcDbEntity
  8
0
100
AcDbBlockEnd
  0
BLOCK
  5
8
100
AcDbEntity
 67
     1
  8
0
100
AcDbBlockBegin
  2
*PAPER_SPACE
 70
     0
 10
0.0
 20
0.0
 30
0.0
  3
*PAPER_SPACE
  1

  0
ENDBLK
  5
9
100
AcDbEntity
 67
     1
  8
0
100
AcDbBlockEnd
  0
BLOCK
  5
25
100
AcDbEntity
  8
0
100
AcDbBlockBegin
  2
COTA
 70
     0
 10
0.0
 20
0.0
 30
0.0
  3
COTA
  1

  0
LINE
  5
21
100
AcDbEntity
  8
0
  6
CONTINUOUS
 62
     6
100
AcDbLine
 10
-0.707107
 20
-0.707107
 30
0.0
 11
0.0
 21
0.0
 31
0.0
  0
LINE
  5
22
100
AcDbEntity
  8
0
  6
CONTINUOUS
 62
     1
100
AcDbLine
 10
-1.0
 20
0.0
 30
0.0
 11
0.0
 21
0.0
 31
0.0
  0
LINE
  5
23
100
AcDbEntity
  8
0
  6
CONTINUOUS
 62
     6
100
AcDbLine
 10
0.0
 20
0.0
 30
0.0
 11
0.707107
 21
0.707107
 31
0.0
  0
LINE
  5
24
100
AcDbEntity
  8
0
  6
CONTINUOUS
 62
     1
100
AcDbLine
 10
0.0
 20
0.0
 30
0.0
 11
1.5
 21
0.0
 31
0.0
  0
ENDBLK
  5
26
100
AcDbEntity
  8
0
100
AcDbBlockEnd
  0
BLOCK
  5
EF
100
AcDbEntity
  8
0
100
AcDbBlockBegin
  2
SIMB7
 70
     0
 10
0.0
 20
0.0
 30
0.0
  3
SIMB7
  1

  0
LINE
  5
EA
100
AcDbEntity
  8
0
  6
CONTINUOUS
 62
     1
100
AcDbLine
 10
7.192294
 20
0.924556
 30
0.0
 11
19.119328
 21
-0.879235
 31
0.0
  0
LINE
  5
EB
100
AcDbEntity
  8
0
  6
CONTINUOUS
 62
     1
100
AcDbLine
 10
18.0
 20
0.0
 30
0.0
 11
28.0
 21
0.0
 31
0.0
  0
LINE
  5
EC
100
AcDbEntity
  8
0
  6
CONTINUOUS
 62
     1
100
AcDbLine
 10
18.0
 20
0.0
 30
0.0
 11
18.0
 21
-1.5
 31
0.0
  0
LINE
  5
ED
100
AcDbEntity
  8
0
  6
CONTINUOUS
 62
     1
100
AcDbLine
 10
8.0
 20
0.0
 30
0.0
 11
8.0
 21
1.5
 31
0.0
  0
LINE
  5
EE
100
AcDbEntity
  8
0
  6
CONTINUOUS
 62
     1
100
AcDbLine
 10
-2.0
 20
0.0
 30
0.0
 11
8.0
 21
0.0
 31
0.0
  0
ENDBLK
  5
F0
100
AcDbEntity
  8
0
100
AcDbBlockEnd
  0
BLOCK
  5
5B
100
AcDbEntity
  8
0
100
AcDbBlockBegin
  2
TXT_CAJETIN
 70
     2
 10
0.0
 20
0.0
 30
0.0
  3
TXT_CAJETIN
  1

  0
ATTDEF
  5
43
100
AcDbEntity
  8
0
100
AcDbText
 10
775.000767
 20
240.972655
 30
0.0
 40
7.0
  1
HEMEROTECA DE GALICIA
 41
0.475587
  7
TITLE
 72
     5
 11
835.21993
 21
240.972655
 31
0.0
100
AcDbAttributeDefinition
  3
TIPO DE EDIFICIO 1
  2
TIPO_DE_EDIFICIO1
 70
     0
  0
ATTDEF
  5
44
100
AcDbEntity
  8
0
100
AcDbText
 10
775.243497
 20
183.516236
 30
0.0
 40
7.0
  1
PROYECTO DE EJECUCION
 41
0.461245
  7
TITLE
 72
     5
 11
835.584732
 21
183.516236
 31
0.0
100
AcDbAttributeDefinition
  3
PROYECTO DE EJECUCION (LINEA 1)
  2
PROYECTO_DE_EJECUCION
 70
     0
  0
ATTDEF
  5
45
100
AcDbEntity
  8
0
100
AcDbText
 10
805.365904
 20
104.236525
 30
0.0
 40
3.0
  1

  7
TITLE
 72
     1
 11
805.365904
 21
104.236525
 31
0.0
100
AcDbAttributeDefinition
  3
TITULO DEL PLANO (LINEA 1)
  2
TITULO_PLANO1
 70
     0
  0
ATTDEF
  5
46
100
AcDbEntity
  8
0
100
AcDbText
 10
805.365904
 20
98.275565
 30
0.0
 40
3.0
  1

  7
TITLE
 72
     1
 11
805.365904
 21
98.275565
 31
0.0
100
AcDbAttributeDefinition
  3
TITULO DEL PLANO (LINEA 2)
  2
TITULO_PLANO2
 70
     0
  0
ATTDEF
  5
47
100
AcDbEntity
  8
0
100
AcDbText
 10
805.365904
 20
92.314605
 30
0.0
 40
3.0
  1

  7
TITLE
 72
     1
 11
805.365904
 21
92.314605
 31
0.0
100
AcDbAttributeDefinition
  3
TITULO DEL PLANO (LINEA 3)
  2
TITULO_PLANO3
 70
     0
  0
ATTDEF
  5
48
100
AcDbEntity
  8
0
100
AcDbText
 10
805.365904
 20
86.353645
 30
0.0
 40
3.0
  1

  7
TITLE
 72
     1
 11
805.365904
 21
86.353645
 31
0.0
100
AcDbAttributeDefinition
  3
TITULO DEL PLANO (LINEA 4)
  2
TITULO_PLANO4
 70
     0
  0
ATTDEF
  5
49
100
AcDbEntity
  8
0
  6
CONTINUOUS
 48
0.25
100
AcDbText
 10
794.814274
 20
76.432233
 30
0.0
 40
2.0
  1
Marzo 2003
  7
TITLE
100
AcDbAttributeDefinition
  3
fecha
  2
FECHA
 70
     0
  0
ATTDEF
  5
4A
100
AcDbEntity
  8
0
  6
CONTINUOUS
 48
0.25
100
AcDbText
 10
794.814274
 20
70.40193
 30
0.0
 40
2.0
  1

  7
TITLE
100
AcDbAttributeDefinition
  3
escala
  2
ESCALA
 70
     0
  0
ATTDEF
  5
4B
100
AcDbEntity
  8
0
  6
CONTINUOUS
 48
0.25
100
AcDbText
 10
794.814274
 20
58.341324
 30
0.0
 40
2.0
  1

  7
TITLE
100
AcDbAttributeDefinition
  3
dibujado por
  2
DIBUJADO_POR
 70
     0
  0
ATTDEF
  5
4C
100
AcDbEntity
  8
0
  6
CONTINUOUS
 48
0.25
100
AcDbText
 10
794.814274
 20
52.311021
 30
0.0
 40
2.0
  1

  7
TITLE
100
AcDbAttributeDefinition
  3
revisado por
  2
REVISADO_POR
 70
     0
  0
ATTDEF
  5
4D
100
AcDbEntity
  8
0
100
AcDbText
 10
785.485153
 20
30.727713
 30
0.0
 40
9.0
  1
Aa-001
  7
DOOR
 72
     4
 11
805.379082
 21
35.169391
 31
0.0
100
AcDbAttributeDefinition
  3
plano numero
  2
PLANO_NUMERO
 70
     0
  0
ATTDEF
  5
4E
100
AcDbEntity
  8
0
100
AcDbText
 10
775.667079
 20
13.910618
 30
0.0
 40
1.763865
  1

  7
TITLE
100
AcDbAttributeDefinition
  3
version1
  2
VERSION1
 70
     0
  0
ATTDEF
  5
4F
100
AcDbEntity
  8
0
100
AcDbText
 10
787.701394
 20
13.89605
 30
0.0
 40
1.763865
  1

  7
TITLE
100
AcDbAttributeDefinition
  3
fecha 1
  2
FECHA_1
 70
     0
  0
ATTDEF
  5
50
100
AcDbEntity
  8
0
100
AcDbText
 10
799.712477
 20
13.885392
 30
0.0
 40
1.763865
  1

  7
TITLE
100
AcDbAttributeDefinition
  3
nombre_primera_revision
  2
NOMBRE_PRIMERA_REVISION
 70
     0
  0
ATTDEF
  5
51
100
AcDbEntity
  8
0
100
AcDbText
 10
775.667079
 20
10.895465
 30
0.0
 40
1.763865
  1

  7
TITLE
100
AcDbAttributeDefinition
  3
version2
  2
VERSION2
 70
     0
  0
ATTDEF
  5
52
100
AcDbEntity
  8
0
100
AcDbText
 10
787.701392
 20
10.880899
 30
0.0
 40
1.763865
  1

  7
TITLE
100
AcDbAttributeDefinition
  3
fecha 2
  2
FECHA_2
 70
     0
  0
ATTDEF
  5
53
100
AcDbEntity
  8
0
100
AcDbText
 10
799.731657
 20
10.881556
 30
0.0
 40
1.763865
  1

  7
TITLE
100
AcDbAttributeDefinition
  3
nombre_segunda_revision
  2
NOMBRE_SEGUNDA_REVISION
 70
     0
  0
ATTDEF
  5
54
100
AcDbEntity
  8
0
100
AcDbText
 10
775.667079
 20
7.880314
 30
0.0
 40
1.763865
  1

  7
TITLE
100
AcDbAttributeDefinition
  3
version3
  2
VERSION3
 70
     0
  0
ATTDEF
  5
55
100
AcDbEntity
  8
0
100
AcDbText
 10
787.701392
 20
7.865746
 30
0.0
 40
1.763865
  1

  7
TITLE
100
AcDbAttributeDefinition
  3
fecha 3
  2
FECHA_3
 70
     0
  0
ATTDEF
  5
56
100
AcDbEntity
  8
0
100
AcDbText
 10
799.723426
 20
7.861549
 30
0.0
 40
1.763865
  1

  7
TITLE
100
AcDbAttributeDefinition
  3
nombre_tercera_revision
  2
NOMBRE_TERCERA_REVISION
 70
     0
  0
ATTDEF
  5
57
100
AcDbEntity
  8
0
100
AcDbText
 10
775.667079
 20
4.865164
 30
0.0
 40
1.763865
  1

  7
TITLE
100
AcDbAttributeDefinition
  3
version4
  2
VERSION4
 70
     0
  0
ATTDEF
  5
58
100
AcDbEntity
  8
0
100
AcDbText
 10
787.701392
 20
4.850595
 30
0.0
 40
1.763865
  1

  7
TITLE
100
AcDbAttributeDefinition
  3
fecha 4
  2
FECHA_4
 70
     0
  0
ATTDEF
  5
59
100
AcDbEntity
  8
0
100
AcDbText
 10
799.693275
 20
4.828606
 30
0.0
 40
1.763865
  1

  7
TITLE
100
AcDbAttributeDefinition
  3
nombre_cuarta_revision
  2
NOMBRE_CUARTA_REVISION
 70
     0
  0
ATTDEF
  5
5A
100
AcDbEntity
  8
0
100
AcDbText
 10
814.357589
 20
23.087191
 30
0.0
 40
1.763865
  1
957.96-EC-P-nn-00
  7
TITLE
 72
     2
 11
835.606994
 21
23.087191
 31
0.0
100
AcDbAttributeDefinition
  3
trazabilidad
  2
TRAZABILIDAD
 70
     0
  0
ENDBLK
  5
5C
100
AcDbEntity
  8
0
100
AcDbBlockEnd
  0
BLOCK
  5
735
100
AcDbEntity
  8
0
100
AcDbBlockBegin
  2
A$C6F530FAD
 70
     0
 10
0.0
 20
0.0
 30
0.0
  3
A$C6F530FAD
  1

  0
LINE
  5
734
100
AcDbEntity
  8
BASE
100
AcDbLine
 10
0.0
 20
0.0
 30
0.0
 11
0.846111
 21
0.409972
 31
0.0
  0
ENDBLK
  5
736
100
AcDbEntity
  8
0
100
AcDbBlockEnd
  0
BLOCK
  5
73F
100
AcDbEntity
  8
0
100
AcDbBlockBegin
  2
A$C072073E7
 70
     0
 10
0.0
 20
0.0
 30
0.0
  3
A$C072073E7
  1

  0
TEXT
  5
738
100
AcDbEntity
  8
TEXTOS
  6
CONTINUOUS
100
AcDbText
 10
132.679838
 20
0.978784
 30
0.0
 40
2.0
  1
200.160.6
 41
0.8
  7
ROMANS8
 11
132.679838
 21
1.978784
 31
0.0
100
AcDbText
 73
     2
  0
LINE
  5
739
100
AcDbEntity
  8
TEXTOS
  6
CONTINUOUS
100
AcDbLine
 10
130.383329
 20
0.700333
 30
0.0
 11
132.064665
 21
3.265095
 31
0.0
  0
LWPOLYLINE
  5
73A
100
AcDbEntity
  8
TEXTOS
  6
CONTINUOUS
100
AcDbPolyline
 90
        4
 70
     1
 43
0.0
 10
132.27714
 20
2.983341
 10
130.27714
 20
2.983341
 10
130.27714
 20
0.983341
 10
132.27714
 20
0.983341
  0
LINE
  5
73B
100
AcDbEntity
  8
TEXTOS
  6
CONTINUOUS
100
AcDbLine
 10
144.715716
 20
0.0
 30
0.0
 11
0.0
 21
0.0
 31
0.0
  0
INSERT
  5
73C
100
AcDbEntity
  8
TRAMAS
  6
CONTINUOUS
100
AcDbBlockReference
  2
A$C6F530FAD
 10
100.0
 20
0.0
 30
0.0
 50
0.0
  0
INSERT
  5
73D
100
AcDbEntity
  8
TRAMAS
  6
CONTINUOUS
100
AcDbBlockReference
  2
A$C6F530FAD
 10
110.0
 20
0.0
 30
0.0
 50
0.0
  0
INSERT
  5
73E
100
AcDbEntity
  8
TRAMAS
  6
CONTINUOUS
100
AcDbBlockReference
  2
A$C6F530FAD
 10
120.0
 20
0.0
 30
0.0
 50
0.0
  0
ENDBLK
  5
740
100
AcDbEntity
  8
0
100
AcDbBlockEnd
  0
BLOCK
  5
846
100
AcDbEntity
  8
0
100
AcDbBlockBegin
  2
A$C6C3D747B
 70
     0
 10
0.0
 20
0.0
 30
0.0
  3
A$C6C3D747B
  1

  0
TEXT
  5
83B
100
AcDbEntity
  8
TEXTOS
  6
CONTINUOUS
 62
     3
100
AcDbText
 10
3.563447
 20
31.141124
 30
0.0
 40
2.5
  1
EL CANTO DE LA VIGA DE BORDE EXTERIOR EN FACHADAS SUR, SUR-ESTE Y ESTE (VB) SE AJUSTARA SEGUN LAS SECCIONES DE REFERENCIA ENTRE UN MINIMO DE 1m (1000mm) Y UN MAXIMO DE 1.360m (1360mm)
  7
ROMANS8
 11
3.563447
 21
32.391124
 31
0.0
100
AcDbText
 73
     2
  0
TEXT
  5
83C
100
AcDbEntity
  8
TEXTOS
  6
CONTINUOUS
 62
     3
100
AcDbText
 10
3.563447
 20
26.878649
 30
0.0
 40
2.5
  1
EL CANTO DE VB2 Y VB3 ES FIJO SEGUN DETALLES ENCDVB1, 2, etc., DE DONDE SE TOMARAN LAS CHAPAS BASES DE UNAS Y OTRAS.
  7
ROMANS8
 11
3.563447
 21
28.128649
 31
0.0
100
AcDbText
 73
     2
  0
TEXT
  5
83D
100
AcDbEntity
  8
TEXTOS
  6
CONTINUOUS
 62
     3
100
AcDbText
 10
3.563447
 20
22.616174
 30
0.0
 40
2.5
  1
EL CANTO DE VR SE AJUSTARA CON VARIACION LINEAL ENTRE LAS CARAS DE VB Y VB2 A LAS QUE SE UNE, Y SUS CHAPAS BASE SE TOMARAN DEL DETALLE ENCDVT2.
  7
ROMANS8
 11
3.563447
 21
23.866174
 31
0.0
100
AcDbText
 73
     2
  0
TEXT
  5
83E
100
AcDbEntity
  8
TEXTOS
  6
CONTINUOUS
 62
     3
100
AcDbText
 10
3.563447
 20
18.353699
 30
0.0
 40
2.5
  1
LA UNION ATORNILLADA (O EQUIVALENTE) DEFINIDA EN EL DETALLE ENFDS1 DEBE SITUARSE EN TODOS LOS CASOS EN EL VERTICE EXTERIOR SUPERIOR DE LA VIGA DE BORDE EXTERIOR.
  7
ROMANS8
 11
3.563447
 21
19.603699
 31
0.0
100
AcDbText
 73
     2
  0
LWPOLYLINE
  5
83F
100
AcDbEntity
  8
TRAMAS
  6
CONTINUOUS
100
AcDbPolyline
 90
        4
 70
     1
 43
0.0
 10
0.0
 20
15.322493
 10
438.750124
 20
15.322493
 10
438.750124
 20
36.67233
 10
0.0
 20
36.67233
  0
TEXT
  5
840
100
AcDbEntity
  8
TEXTOS
  6
CONTINUOUS
 62
     3
100
AcDbText
 10
253.046481
 20
6.867135
 30
0.0
 40
2.5
  1
= SEGUN ENFSD2
  7
ROMANS8
 11
253.046481
 21
8.117135
 31
0.0
100
AcDbText
 73
     2
  0
TEXT
  5
841
100
AcDbEntity
  8
TEXTOS
  6
CONTINUOUS
 62
     3
100
AcDbText
 10
140.542034
 20
2.60466
 30
0.0
 40
2.5
  1
UNIONES ENTRE TUBOS
  7
ROMANS8
 11
140.542034
 21
3.85466
 31
0.0
100
AcDbText
 73
     2
  0
LWPOLYLINE
  5
842
100
AcDbEntity
  8
TRAMAS
  6
CONTINUOUS
100
AcDbPolyline
 90
        4
 70
     1
 43
0.0
 10
136.978587
 20
0.0
 10
301.771537
 20
0.0
 10
301.771537
 20
12.398341
 10
136.978587
 20
12.398341
  0
TEXT
  5
843
100
AcDbEntity
  8
TEXTOS
  6
CONTINUOUS
 62
     3
100
AcDbText
 10
253.046481
 20
2.60466
 30
0.0
 40
2.5
  1
= SEGUN ENFSD4  y 5
  7
ROMANS8
 11
253.046481
 21
3.85466
 31
0.0
100
AcDbText
 73
     2
  0
TEXT
  5
844
100
AcDbEntity
  8
TEXTOS
  6
CONTINUOUS
 62
     3
100
AcDbText
 10
140.542034
 20
6.867135
 30
0.0
 40
2.5
  1
UNIONES DE TUBOS ADOSADOS A OTRAS ESTRUCTURAS
  7
ROMANS8
 11
140.542034
 21
8.117135
 31
0.0
100
AcDbText
 73
     2
  0
LINE
  5
845
100
AcDbEntity
  8
TRAMAS
  6
CONTINUOUS
100
AcDbLine
 10
597.573273
 20
41.622553
 30
0.0
 11
727.339734
 21
41.622553
 31
0.0
  0
ENDBLK
  5
847
100
AcDbEntity
  8
0
100
AcDbBlockEnd
  0
BLOCK
  5
99F
100
AcDbEntity
  8
0
100
AcDbBlockBegin
  2
111111
 70
     0
 10
0.0
 20
0.0
 30
0.0
  3
111111
  1

  0
LINE
  5
9A0
100
AcDbEntity
  8
CC
100
AcDbLine
 10
-61.569167
 20
0.0
 30
0.0
 11
0.0
 21
0.0
 31
0.0
  0
LINE
  5
9A1
100
AcDbEntity
  8
CC
100
AcDbLine
 10
-61.569167
 20
47.917849
 30
0.0
 11
-61.569167
 21
0.0
 31
0.0
  0
LINE
  5
9A2
100
AcDbEntity
  8
CC
100
AcDbLine
 10
0.0
 20
47.917849
 30
0.0
 11
0.0
 21
0.0
 31
0.0
  0
LINE
  5
9A3
100
AcDbEntity
  8
CC
100
AcDbLine
 10
61.569167
 20
47.917849
 30
0.0
 11
61.569167
 21
0.0
 31
0.0
  0
LINE
  5
9A4
100
AcDbEntity
  8
CC
100
AcDbLine
 10
0.0
 20
0.0
 30
0.0
 11
61.569167
 21
0.0
 31
0.0
  0
ENDBLK
  5
9A5
100
AcDbEntity
  8
0
100
AcDbBlockEnd
  0
BLOCK
  5
9AA
100
AcDbEntity
  8
0
100
AcDbBlockBegin
  2
110000
 70
     0
 10
0.0
 20
0.0
 30
0.0
  3
110000
  1

  0
LINE
  5
9AB
100
AcDbEntity
  8
CC
100
AcDbLine
 10
0.0
 20
59.425214
 30
0.0
 11
0.0
 21
11.507364
 31
0.0
  0
LINE
  5
9AC
100
AcDbEntity
  8
CC
100
AcDbLine
 10
0.0
 20
0.0
 30
0.0
 11
0.0
 21
-47.917849
 31
0.0
  0
LINE
  5
9AD
100
AcDbEntity
  8
CC
100
AcDbLine
 10
-61.569167
 20
0.0
 30
0.0
 11
0.0
 21
0.0
 31
0.0
  0
LINE
  5
9AE
100
AcDbEntity
  8
CC
100
AcDbLine
 10
-61.569167
 20
47.917849
 30
0.0
 11
-61.569167
 21
0.0
 31
0.0
  0
LINE
  5
9AF
100
AcDbEntity
  8
CC
100
AcDbLine
 10
61.569167
 20
47.917849
 30
0.0
 11
61.569167
 21
0.0
 31
0.0
  0
LINE
  5
9B0
100
AcDbEntity
  8
CC
100
AcDbLine
 10
0.0
 20
0.0
 30
0.0
 11
61.569167
 21
0.0
 31
0.0
  0
ENDBLK
  5
9B1
100
AcDbEntity
  8
0
100
AcDbBlockEnd
  0
BLOCK
  5
9B3
100
AcDbEntity
  8
0
100
AcDbBlockBegin
  2
110X00
 70
     0
 10
0.0
 20
0.0
 30
0.0
  3
110X00
  1

  0
LINE
  5
9B4
100
AcDbEntity
  8
CC
100
AcDbLine
 10
0.0
 20
0.0
 30
0.0
 11
61.569167
 21
0.0
 31
0.0
  0
LINE
  5
9B5
100
AcDbEntity
  8
CC
100
AcDbLine
 10
0.0
 20
47.917849
 30
0.0
 11
0.0
 21
0.0
 31
0.0
  0
ENDBLK
  5
9B6
100
AcDbEntity
  8
0
100
AcDbBlockEnd
  0
ENDSEC
  0
SECTION
  2
ENTITIES
  0
LINE
  5
4F3
100
AcDbEntity
  8
BASE
  6
CONTINUOUS
100
AcDbLine
 10
6897.457853
 20
1266.579327
 30
0.0
 11
7273.064661
 21
1417.446269
 31
0.0
  0
LINE
  5
4F4
100
AcDbEntity
  8
BASE
  6
CONTINUOUS
100
AcDbLine
 10
6897.457853
 20
1266.579327
 30
0.0
 11
7089.216898
 21
1417.446269
 31
0.0
  0
TEXT
  5
4F5
100
AcDbEntity
  8
TEXTOS
  6
CONTINUOUS
100
AcDbText
 10
4728.428006
 20
495.158027
 30
0.0
 40
2.0
  1
200.200.5
 50
360.0
  7
ROMANS8
 11
4728.428006
 21
496.158027
 31
0.0
100
AcDbText
 73
     2
  0
LWPOLYLINE
  5
4F6
100
AcDbEntity
  8
TEXTOS
  6
CONTINUOUS
100
AcDbPolyline
 90
        4
 70
     1
 43
0.0
 10
4728.025307
 20
497.162583
 10
4726.025307
 20
497.162583
 10
4726.025307
 20
495.162583
 10
4728.025307
 20
495.162583
  0
LINE
  5
4F7
100
AcDbEntity
  8
TEXTOS
  6
CONTINUOUS
100
AcDbLine
 10
4726.131496
 20
494.879576
 30
0.0
 11
4727.812833
 21
497.444338
 31
0.0
  0
LINE
  5
4F8
100
AcDbEntity
  8
BASE
100
AcDbLine
 10
6542.926541
 20
1266.579327
 30
0.0
 11
6897.457853
 21
1266.579327
 31
0.0
  0
CIRCLE
  5
524
100
AcDbEntity
  8
TEXTOS
  6
RAYITAS2
100
AcDbCircle
 10
4738.635111
 20
508.720278
 30
0.0
 40
6.995854
  0
LWPOLYLINE
  5
525
100
AcDbEntity
  8
TEXTOS
  6
CONTINUOUS
100
AcDbPolyline
 90
        6
 70
     1
 43
0.0
 10
4733.394053
 20
526.247933
 10
4734.10524
 20
527.56862
 42
-0.281888
 10
4741.318665
 20
515.180968
 42
0.319097
 10
4735.374415
 20
529.925501
 10
4736.087449
 20
531.249619
 10
4730.770411
 20
530.886795
  0
CIRCLE
  5
53E
100
AcDbEntity
  8
TEXTOS
  6
RAYITAS2
100
AcDbCircle
 10
4648.427378
 20
504.209464
 30
0.0
 40
6.995854
  0
LWPOLYLINE
  5
53F
100
AcDbEntity
  8
TEXTOS
  6
CONTINUOUS
100
AcDbPolyline
 90
        6
 70
     1
 43
0.0
 10
4643.186319
 20
521.737119
 10
4643.897506
 20
523.057805
 42
-0.281888
 10
4651.110931
 20
510.670153
 42
0.319097
 10
4645.166681
 20
525.414686
 10
4645.879715
 20
526.738804
 10
4640.562677
 20
526.375981
  0
TEXT
  5
542
100
AcDbEntity
  8
TEXTOS
  6
CONTINUOUS
100
AcDbText
 10
4600.323679
 20
524.760903
 30
0.0
 40
2.0
  1
PRINCIPAL
 50
0.0
  7
ROMANS8
 11
4600.323679
 21
525.760903
 31
0.0
100
AcDbText
 73
     2
  0
LWPOLYLINE
  5
55C
100
AcDbEntity
  8
TEXTOS
  6
CONTINUOUS
100
AcDbPolyline
 90
        4
 70
     1
 43
0.0
 10
4721.990021
 20
502.176746
 10
4719.994431
 20
502.044005
 10
4719.861689
 20
504.039595
 10
4721.857279
 20
504.172336
  0
LINE
  5
55D
100
AcDbEntity
  8
TEXTOS
  6
CONTINUOUS
100
AcDbLine
 10
4719.948861
 20
504.329026
 30
0.0
 11
4721.796715
 21
501.88151
 31
0.0
  0
TEXT
  5
55E
100
AcDbEntity
  8
TEXTOS
  6
CONTINUOUS
100
AcDbText
 10
4722.391529
 20
502.20802
 30
0.0
 40
2.0
  1
200.200.5
 50
3.805563
  7
ROMANS8
 11
4722.325159
 21
503.205815
 31
0.0
100
AcDbText
 73
     2
  0
TEXT
  5
55F
100
AcDbEntity
  8
TEXTOS
  6
CONTINUOUS
100
AcDbText
 10
4687.570991
 20
499.891847
 30
0.0
 40
2.0
  1
200.200.5
 50
3.805563
  7
ROMANS8
 11
4687.504621
 21
500.889642
 31
0.0
100
AcDbText
 73
     2
  0
LINE
  5
560
100
AcDbEntity
  8
TEXTOS
  6
CONTINUOUS
100
AcDbLine
 10
4685.128323
 20
502.012853
 30
0.0
 11
4686.976177
 21
499.565337
 31
0.0
  0
LWPOLYLINE
  5
561
100
AcDbEntity
  8
TEXTOS
  6
CONTINUOUS
100
AcDbPolyline
 90
        4
 70
     1
 43
0.0
 10
4687.169483
 20
499.860573
 10
4685.173893
 20
499.727831
 10
4685.041151
 20
501.723422
 10
4687.036741
 20
501.856163
  0
LWPOLYLINE
  5
562
100
AcDbEntity
  8
TEXTOS
  6
CONTINUOUS
100
AcDbPolyline
 90
        4
 70
     1
 43
0.0
 10
4723.215458
 20
522.12149
 10
4721.219868
 20
521.988749
 10
4721.352609
 20
519.993159
 10
4723.348199
 20
520.1259
  0
LINE
  5
563
100
AcDbEntity
  8
TEXTOS
  6
CONTINUOUS
100
AcDbLine
 10
4721.477348
 20
519.717823
 30
0.0
 11
4722.984752
 21
522.388522
 31
0.0
  0
TEXT
  5
564
100
AcDbEntity
  8
TEXTOS
  6
CONTINUOUS
100
AcDbText
 10
4723.750313
 20
520.148081
 30
0.0
 40
2.0
  1
200.200.5
 50
3.805563
  7
ROMANS8
 11
4723.683942
 21
521.145876
 31
0.0
100
AcDbText
 73
     2
  0
TEXT
  5
565
100
AcDbEntity
  8
TEXTOS
  6
CONTINUOUS
100
AcDbText
 10
4663.155077
 20
516.117441
 30
0.0
 40
2.0
  1
200.200.5
 50
3.805563
  7
ROMANS8
 11
4663.088706
 21
517.115236
 31
0.0
100
AcDbText
 73
     2
  0
LWPOLYLINE
  5
566
100
AcDbEntity
  8
TEXTOS
  6
CONTINUOUS
100
AcDbPolyline
 90
        4
 70
     1
 43
0.0
 10
4662.620222
 20
518.09085
 10
4660.624632
 20
517.958109
 10
4660.757374
 20
515.962519
 10
4662.752964
 20
516.09526
  0
LINE
  5
567
100
AcDbEntity
  8
TEXTOS
  6
CONTINUOUS
100
AcDbLine
 10
4660.882112
 20
515.687183
 30
0.0
 11
4662.389516
 21
518.357882
 31
0.0
  0
TEXT
  5
568
100
AcDbEntity
  8
TEXTOS
  6
CONTINUOUS
100
AcDbText
 10
4715.066727
 20
483.201374
 30
0.0
 40
2.0
  1
250.250.12'5
 50
360.0
  7
ROMANS8
 11
4715.066727
 21
484.201374
 31
0.0
100
AcDbText
 73
     2
  0
LWPOLYLINE
  5
569
100
AcDbEntity
  8
TEXTOS
  6
CONTINUOUS
100
AcDbPolyline
 90
        4
 70
     1
 43
0.0
 10
4714.664029
 20
485.20593
 10
4712.664029
 20
485.20593
 10
4712.664029
 20
483.20593
 10
4714.664029
 20
483.20593
  0
LINE
  5
56A
100
AcDbEntity
  8
TEXTOS
  6
CONTINUOUS
100
AcDbLine
 10
4712.770218
 20
482.922923
 30
0.0
 11
4714.451554
 21
485.487685
 31
0.0
  0
LINE
  5
56B
100
AcDbEntity
  8
BASE
100
AcDbLine
 10
6968.564334
 20
537.779917
 30
0.0
 11
6951.642098
 21
545.979348
 31
0.0
  0
LINE
  5
56C
100
AcDbEntity
  8
BASE
100
AcDbLine
 10
5561.901949
 20
537.779917
 30
0.0
 11
5578.824185
 21
545.979348
 31
0.0
  0
LINE
  5
56D
100
AcDbEntity
  8
BASE
100
AcDbLine
 10
5395.470151
 20
537.779917
 30
0.0
 11
5412.392388
 21
545.979348
 31
0.0
  0
LINE
  5
56E
100
AcDbEntity
  8
BASE
100
AcDbLine
 10
5147.654213
 20
537.779917
 30
0.0
 11
5164.576449
 21
545.979348
 31
0.0
  0
LINE
  5
56F
100
AcDbEntity
  8
BASE
100
AcDbLine
 10
4986.050844
 20
537.779917
 30
0.0
 11
5002.973081
 21
545.979348
 31
0.0
  0
LINE
  5
570
100
AcDbEntity
  8
BASE
100
AcDbLine
 10
4675.326265
 20
537.779917
 30
0.0
 11
4692.248501
 21
545.979348
 31
0.0
  0
LINE
  5
571
100
AcDbEntity
  8
BASE
  6
CONTINUOUS
100
AcDbLine
 10
5929.427409
 20
537.779917
 30
0.0
 11
5929.427409
 21
8.971935
 31
0.0
  0
LINE
  5
572
100
AcDbEntity
  8
BASE
  6
CONTINUOUS
100
AcDbLine
 10
4675.326265
 20
537.779917
 30
0.0
 11
6968.564334
 21
537.779917
 31
0.0
  0
TEXT
  5
573
100
AcDbEntity
  8
TEXTOS
  6
CONTINUOUS
100
AcDbText
 10
4697.163488
 20
428.989345
 30
0.0
 40
2.0
  1
SEGUN CUADRO DE PILARES
 50
0.0
  7
ROMANS8
 11
4697.163488
 21
429.989345
 31
0.0
100
AcDbText
 73
     2
  0
TEXT
  5
574
100
AcDbEntity
  8
TEXTOS
  6
CONTINUOUS
100
AcDbText
 10
4697.163488
 20
432.277657
 30
0.0
 40
2.0
  1
PILARES ESTRUCTURA PRINCIPAL
 50
360.0
  7
ROMANS8
 11
4697.163488
 21
433.277657
 31
0.0
100
AcDbText
 73
     2
  0
LINE
  5
575
100
AcDbEntity
  8
BASE
100
AcDbLine
 10
5929.427409
 20
8.971935
 30
0.0
 11
6964.081843
 21
8.971935
 31
0.0
  0
TEXT
  5
576
100
AcDbEntity
  8
TEXTOS
  6
CONTINUOUS
100
AcDbText
 10
4751.102898
 20
511.00994
 30
0.0
 40
2.0
  1
VB
 50
3.805563
  7
ROMANS8
 11
4751.036527
 21
512.007735
 31
0.0
100
AcDbText
 73
     2
  0
TEXT
  5
577
100
AcDbEntity
  8
TEXTOS
  6
CONTINUOUS
100
AcDbText
 10
4711.404483
 20
508.369303
 30
0.0
 40
2.0
  1
VB
 50
3.805563
  7
ROMANS8
 11
4711.338113
 21
509.367098
 31
0.0
100
AcDbText
 73
     2
  0
TEXT
  5
578
100
AcDbEntity
  8
TEXTOS
  6
CONTINUOUS
100
AcDbText
 10
4661.090409
 20
505.02254
 30
0.0
 40
2.0
  1
VB
 50
3.805563
  7
ROMANS8
 11
4661.024038
 21
506.020335
 31
0.0
100
AcDbText
 73
     2
  0
LINE
  5
579
100
AcDbEntity
  8
BASE
100
AcDbLine
 10
6800.428815
 20
1686.426849
 30
0.0
 11
6816.769451
 21
1695.731491
 31
0.0
  0
LINE
  5
57A
100
AcDbEntity
  8
BASE
100
AcDbLine
 10
6600.11224
 20
1673.10047
 30
0.0
 11
6616.452876
 21
1682.405112
 31
0.0
  0
LINE
  5
57B
100
AcDbEntity
  8
BASE
100
AcDbLine
 10
6399.795665
 20
1659.774091
 30
0.0
 11
6416.136301
 21
1669.078733
 31
0.0
  0
LINE
  5
57C
100
AcDbEntity
  8
BASE
100
AcDbLine
 10
6199.478688
 20
1646.447685
 30
0.0
 11
6215.819324
 21
1655.752327
 31
0.0
  0
LINE
  5
57D
100
AcDbEntity
  8
BASE
100
AcDbLine
 10
5999.162113
 20
1633.121306
 30
0.0
 11
6015.502749
 21
1642.425948
 31
0.0
  0
LINE
  5
57E
100
AcDbEntity
  8
BASE
100
AcDbLine
 10
5798.845538
 20
1619.794927
 30
0.0
 11
5815.186174
 21
1629.099569
 31
0.0
  0
LINE
  5
581
100
AcDbEntity
  8
BASE
100
AcDbLine
 10
5798.845538
 20
1619.794927
 30
0.0
 11
6888.226982
 21
1692.267761
 31
0.0
1001
ACAD
1000
RTLwPs
1070
   128
  0
TEXT
  5
582
100
AcDbEntity
  8
TEXTOS
  6
CONTINUOUS
100
AcDbText
 10
4706.628315
 20
488.771786
 30
0.0
 40
2.0
  1
250.250.10
 50
89.579746
 41
0.7
  7
ROMANS8
 11
4705.628341
 21
488.77912
 31
0.0
100
AcDbText
 73
     2
  0
LWPOLYLINE
  5
583
100
AcDbEntity
  8
TEXTOS
  6
CONTINUOUS
100
AcDbPolyline
 90
        4
 70
     1
 43
0.0
 10
4704.620858
 20
488.383801
 10
4704.606189
 20
486.383854
 10
4706.606135
 20
486.369185
 10
4706.620805
 20
488.369131
  0
LINE
  5
584
100
AcDbEntity
  8
TEXTOS
  6
CONTINUOUS
100
AcDbLine
 10
4706.889914
 20
486.473295
 30
0.0
 11
4704.337553
 21
488.173399
 31
0.0
  0
LINE
  5
585
100
AcDbEntity
  8
TEXTOS
  6
CONTINUOUS
100
AcDbLine
 10
4706.729177
 20
464.559431
 30
0.0
 11
4704.176816
 21
466.259534
 31
0.0
  0
LWPOLYLINE
  5
586
100
AcDbEntity
  8
TEXTOS
  6
CONTINUOUS
100
AcDbPolyline
 90
        4
 70
     1
 43
0.0
 10
4704.460121
 20
466.469937
 10
4704.445452
 20
464.46999
 10
4706.445398
 20
464.455321
 10
4706.460068
 20
466.455267
  0
TEXT
  5
587
100
AcDbEntity
  8
TEXTOS
  6
CONTINUOUS
100
AcDbText
 10
4706.467577
 20
466.857922
 30
0.0
 40
2.0
  1
250.250.10
 50
89.579746
 41
0.7
  7
ROMANS8
 11
4705.467604
 21
466.865256
 31
0.0
100
AcDbText
 73
     2
  0
TEXT
  5
588
100
AcDbEntity
  8
TEXTOS
  6
CONTINUOUS
100
AcDbText
 10
4766.945619
 20
488.11925
 30
0.0
 40
2.0
  1
200.200.8
 50
89.579746
 41
0.7
  7
ROMANS8
 11
4765.945646
 21
488.126585
 31
0.0
100
AcDbText
 73
     2
  0
LWPOLYLINE
  5
589
100
AcDbEntity
  8
TEXTOS
  6
CONTINUOUS
100
AcDbPolyline
 90
        4
 70
     1
 43
0.0
 10
4764.938163
 20
487.731265
 10
4764.923493
 20
485.731319
 10
4766.92344
 20
485.71665
 10
4766.938109
 20
487.716596
  0
LINE
  5
58A
100
AcDbEntity
  8
TEXTOS
  6
CONTINUOUS
100
AcDbLine
 10
4767.207218
 20
485.82076
 30
0.0
 11
4764.654857
 21
487.520863
 31
0.0
  0
LINE
  5
58B
100
AcDbEntity
  8
TEXTOS
  6
CONTINUOUS
100
AcDbLine
 10
4767.048492
 20
464.181013
 30
0.0
 11
4764.496131
 21
465.881116
 31
0.0
  0
LWPOLYLINE
  5
58C
100
AcDbEntity
  8
TEXTOS
  6
CONTINUOUS
100
AcDbPolyline
 90
        4
 70
     1
 43
0.0
 10
4764.779436
 20
466.091519
 10
4764.764767
 20
464.091572
 10
4766.764713
 20
464.076903
 10
4766.779383
 20
466.076849
  0
TEXT
  5
58D
100
AcDbEntity
  8
TEXTOS
  6
CONTINUOUS
100
AcDbText
 10
4766.786893
 20
466.479504
 30
0.0
 40
2.0
  1
200.200.8
 50
89.579746
 41
0.7
  7
ROMANS8
 11
4765.786919
 21
466.486838
 31
0.0
100
AcDbText
 73
     2
  0
LINE
  5
58E
100
AcDbEntity
  8
TEXTOS
  6
CONTINUOUS
100
AcDbLine
 10
4757.19526
 20
485.708296
 30
0.0
 11
4754.642899
 21
487.4084
 31
0.0
  0
LWPOLYLINE
  5
58F
100
AcDbEntity
  8
TEXTOS
  6
CONTINUOUS
100
AcDbPolyline
 90
        4
 70
     1
 43
0.0
 10
4754.926204
 20
487.618802
 10
4754.911535
 20
485.618856
 10
4756.911481
 20
485.604186
 10
4756.926151
 20
487.604132
  0
TEXT
  5
590
100
AcDbEntity
  8
TEXTOS
  6
CONTINUOUS
100
AcDbText
 10
4756.933661
 20
488.006787
 30
0.0
 40
2.0
  1
200.200.8
 50
89.579746
 41
0.7
  7
ROMANS8
 11
4755.933687
 21
488.014121
 31
0.0
100
AcDbText
 73
     2
  0
TEXT
  5
591
100
AcDbEntity
  8
TEXTOS
  6
CONTINUOUS
100
AcDbText
 10
4756.774934
 20
466.36704
 30
0.0
 40
2.0
  1
200.200.8
 50
89.579746
 41
0.7
  7
ROMANS8
 11
4755.774961
 21
466.374375
 31
0.0
100
AcDbText
 73
     2
  0
LWPOLYLINE
  5
592
100
AcDbEntity
  8
TEXTOS
  6
CONTINUOUS
100
AcDbPolyline
 90
        4
 70
     1
 43
0.0
 10
4754.767478
 20
465.979055
 10
4754.752808
 20
463.979109
 10
4756.752755
 20
463.964439
 10
4756.767424
 20
465.964386
  0
LINE
  5
593
100
AcDbEntity
  8
TEXTOS
  6
CONTINUOUS
100
AcDbLine
 10
4757.036533
 20
464.06855
 30
0.0
 11
4754.484172
 21
465.768653
 31
0.0
  0
TEXT
  5
594
100
AcDbEntity
  8
TEXTOS
  6
CONTINUOUS
100
AcDbText
 10
4666.693113
 20
488.927229
 30
0.0
 40
2.0
  1
200.200.8
 50
89.579746
 41
0.7
  7
ROMANS8
 11
4665.69314
 21
488.934564
 31
0.0
100
AcDbText
 73
     2
  0
LWPOLYLINE
  5
595
100
AcDbEntity
  8
TEXTOS
  6
CONTINUOUS
100
AcDbPolyline
 90
        4
 70
     1
 43
0.0
 10
4664.685657
 20
488.539244
 10
4664.670987
 20
486.539298
 10
4666.670934
 20
486.524629
 10
4666.685603
 20
488.524575
  0
LINE
  5
596
100
AcDbEntity
  8
TEXTOS
  6
CONTINUOUS
100
AcDbLine
 10
4666.954712
 20
486.628739
 30
0.0
 11
4664.402351
 21
488.328842
 31
0.0
  0
LINE
  5
597
100
AcDbEntity
  8
TEXTOS
  6
CONTINUOUS
100
AcDbLine
 10
4666.782275
 20
463.119787
 30
0.0
 11
4664.229914
 21
464.81989
 31
0.0
  0
LWPOLYLINE
  5
598
100
AcDbEntity
  8
TEXTOS
  6
CONTINUOUS
100
AcDbPolyline
 90
        4
 70
     1
 43
0.0
 10
4664.51322
 20
465.030292
 10
4664.49855
 20
463.030346
 10
4666.498497
 20
463.015676
 10
4666.513166
 20
465.015623
  0
TEXT
  5
599
100
AcDbEntity
  8
TEXTOS
  6
CONTINUOUS
100
AcDbText
 10
4666.520676
 20
465.418277
 30
0.0
 40
2.0
  1
200.200.8
 50
89.579746
 41
0.7
  7
ROMANS8
 11
4665.520703
 21
465.425612
 31
0.0
100
AcDbText
 73
     2
  0
LINE
  5
59A
100
AcDbEntity
  8
TEXTOS
  6
CONTINUOUS
100
AcDbLine
 10
4646.933786
 20
486.775592
 30
0.0
 11
4644.381425
 21
488.475695
 31
0.0
  0
LWPOLYLINE
  5
59B
100
AcDbEntity
  8
TEXTOS
  6
CONTINUOUS
100
AcDbPolyline
 90
        4
 70
     1
 43
0.0
 10
4644.664731
 20
488.686097
 10
4644.650061
 20
486.686151
 10
4646.650007
 20
486.671481
 10
4646.664677
 20
488.671427
  0
TEXT
  5
59C
100
AcDbEntity
  8
TEXTOS
  6
CONTINUOUS
100
AcDbText
 10
4646.672187
 20
489.074082
 30
0.0
 40
2.0
  1
200.200.8
 50
89.579746
 41
0.7
  7
ROMANS8
 11
4645.672214
 21
489.081417
 31
0.0
100
AcDbText
 73
     2
  0
TEXT
  5
59D
100
AcDbEntity
  8
TEXTOS
  6
CONTINUOUS
100
AcDbText
 10
4646.49975
 20
465.56513
 30
0.0
 40
2.0
  1
200.200.8
 50
89.579746
 41
0.7
  7
ROMANS8
 11
4645.499777
 21
465.572464
 31
0.0
100
AcDbText
 73
     2
  0
LWPOLYLINE
  5
59E
100
AcDbEntity
  8
TEXTOS
  6
CONTINUOUS
100
AcDbPolyline
 90
        4
 70
     1
 43
0.0
 10
4644.492294
 20
465.177145
 10
4644.477624
 20
463.177198
 10
4646.47757
 20
463.162529
 10
4646.49224
 20
465.162475
  0
LINE
  5
59F
100
AcDbEntity
  8
TEXTOS
  6
CONTINUOUS
100
AcDbLine
 10
4646.761349
 20
463.266639
 30
0.0
 11
4644.208988
 21
464.966742
 31
0.0
  0
LINE
  5
5A3
100
AcDbEntity
  8
TEXTOS
  6
CONTINUOUS
100
AcDbLine
 10
4636.924525
 20
487.004627
 30
0.0
 11
4634.372164
 21
488.70473
 31
0.0
  0
LWPOLYLINE
  5
5A4
100
AcDbEntity
  8
TEXTOS
  6
CONTINUOUS
100
AcDbPolyline
 90
        4
 70
     1
 43
0.0
 10
4634.655469
 20
488.915132
 10
4634.6408
 20
486.915186
 10
4636.640746
 20
486.900516
 10
4636.655416
 20
488.900462
  0
TEXT
  5
5A5
100
AcDbEntity
  8
TEXTOS
  6
CONTINUOUS
100
AcDbText
 10
4636.662925
 20
489.303117
 30
0.0
 40
2.0
  1
200.200.8
 50
89.579746
 41
0.7
  7
ROMANS8
 11
4635.662952
 21
489.310451
 31
0.0
100
AcDbText
 73
     2
  0
TEXT
  5
5A6
100
AcDbEntity
  8
TEXTOS
  6
CONTINUOUS
100
AcDbText
 10
4636.487777
 20
465.424457
 30
0.0
 40
2.0
  1
200.200.8
 50
89.579746
 41
0.7
  7
ROMANS8
 11
4635.487804
 21
465.431792
 31
0.0
100
AcDbText
 73
     2
  0
LWPOLYLINE
  5
5A7
100
AcDbEntity
  8
TEXTOS
  6
CONTINUOUS
100
AcDbPolyline
 90
        4
 70
     1
 43
0.0
 10
4634.480321
 20
465.036472
 10
4634.465651
 20
463.036526
 10
4636.465597
 20
463.021857
 10
4636.480267
 20
465.021803
  0
LINE
  5
5A8
100
AcDbEntity
  8
TEXTOS
  6
CONTINUOUS
100
AcDbLine
 10
4636.749376
 20
463.125967
 30
0.0
 11
4634.197015
 21
464.82607
 31
0.0
  0
TEXT
  5
5A9
100
AcDbEntity
  8
TEXTOS
  6
CONTINUOUS
100
AcDbText
 10
4629.726618
 20
465.518295
 30
0.0
 40
2.0
  1
200.200.8
 50
90.578822
 41
0.7
  7
ROMANS8
 11
4628.726669
 21
465.508192
 31
0.0
100
AcDbText
 73
     2
  0
LWPOLYLINE
  5
5AA
100
AcDbEntity
  8
TEXTOS
  6
CONTINUOUS
100
AcDbPolyline
 90
        4
 70
     1
 43
0.0
 10
4627.726232
 20
465.095366
 10
4627.746437
 20
463.095468
 10
4629.746335
 20
463.115673
 10
4629.72613
 20
465.11557
  0
LINE
  5
5AB
100
AcDbEntity
  8
TEXTOS
  6
CONTINUOUS
100
AcDbLine
 10
4630.028255
 20
463.224715
 30
0.0
 11
4627.446638
 21
464.880056
 31
0.0
  0
LINE
  5
5AC
100
AcDbEntity
  8
TEXTOS
  6
CONTINUOUS
100
AcDbLine
 10
4629.788161
 20
486.990035
 30
0.0
 11
4627.206545
 21
488.645376
 31
0.0
  0
LWPOLYLINE
  5
5AD
100
AcDbEntity
  8
TEXTOS
  6
CONTINUOUS
100
AcDbPolyline
 90
        4
 70
     1
 43
0.0
 10
4627.486139
 20
488.860686
 10
4627.506343
 20
486.860788
 10
4629.506241
 20
486.880993
 10
4629.486037
 20
488.880891
  0
TEXT
  5
5AE
100
AcDbEntity
  8
TEXTOS
  6
CONTINUOUS
100
AcDbText
 10
4629.486525
 20
489.283615
 30
0.0
 40
2.0
  1
200.200.8
 50
90.578822
 41
0.7
  7
ROMANS8
 11
4628.486576
 21
489.273513
 31
0.0
100
AcDbText
 73
     2
  0
LINE
  5
5AF
100
AcDbEntity
  8
BASE
  6
RAYITAS2
 62
     9
100
AcDbLine
 10
4630.450332
 20
1368.643956
 30
0.0
 11
4630.450332
 21
1506.63003
 31
0.0
  0
LINE
  5
5B0
100
AcDbEntity
  8
BASE
  6
RAYITAS2
 62
     9
100
AcDbLine
 10
4640.543544
 20
437.17312
 30
0.0
 11
4631.132728
 21
1368.689348
 31
0.0
1001
ACAD
1000
RTLwPs
1070
   128
  0
LINE
  5
5B1
100
AcDbEntity
  8
BASE
  6
RAYITAS2
 62
     9
100
AcDbLine
 10
4676.342664
 20
437.17312
 30
0.0
 11
4666.907808
 21
1371.069014
 31
0.0
1001
ACAD
1000
RTLwPs
1070
   128
  0
POLYLINE
  5
5B2
100
AcDbEntity
  8
BASE
  6
RAYITAS2
 62
     9
100
AcDb2dPolyline
 66
     1
 10
0.0
 20
0.0
 30
0.0
1001
ACAD
1000
RTLwPs
1070
   128
  0
VERTEX
  5
5B3
100
AcDbEntity
  8
BASE
  6
RAYITAS2
 62
     9
100
AcDbVertex
100
AcDb2dVertex
 10
4950.029244
 20
437.17312
 30
0.0
1001
ACAD
1000
RTLwPs
1070
   128
  0
VERTEX
  5
5B4
100
AcDbEntity
  8
BASE
  6
RAYITAS2
 62
     9
100
AcDbVertex
100
AcDb2dVertex
 10
5002.216968
 20
1393.372922
 30
0.0
1001
ACAD
1000
RTLwPs
1070
   128
  0
SEQEND
  5
5B5
100
AcDbEntity
  8
BASE
  6
RAYITAS2
 62
     9
1001
ACAD
1000
RTLwPs
1070
   128
  0
POLYLINE
  5
5B6
100
AcDbEntity
  8
BASE
  6
RAYITAS2
 62
     9
100
AcDb2dPolyline
 66
     1
 10
0.0
 20
0.0
 30
0.0
1001
ACAD
1000
RTLwPs
1070
   128
  0
VERTEX
  5
5B7
100
AcDbEntity
  8
BASE
  6
RAYITAS2
 62
     9
100
AcDbVertex
100
AcDb2dVertex
 10
4980.5599
 20
437.17312
 30
0.0
1001
ACAD
1000
RTLwPs
1070
   128
  0
VERTEX
  5
5B8
100
AcDbEntity
  8
BASE
  6
RAYITAS2
 62
     9
100
AcDbVertex
100
AcDb2dVertex
 10
5032.858867
 20
1395.411143
 30
0.0
1001
ACAD
1000
RTLwPs
1070
   128
  0
SEQEND
  5
5B9
100
AcDbEntity
  8
BASE
  6
RAYITAS2
 62
     9
1001
ACAD
1000
RTLwPs
1070
   128
  0
LINE
  5
5BA
100
AcDbEntity
  8
BASE
  6
RAYITAS2
 62
     9
100
AcDbLine
 10
5153.241826
 20
1403.418709
 30
0.0
 11
5113.240895
 21
437.17312
 31
0.0
1001
ACAD
1000
RTLwPs
1070
   128
  0
LINE
  5
5BB
100
AcDbEntity
  8
BASE
  6
RAYITAS2
 62
     9
100
AcDbLine
 10
5183.573718
 20
1405.436309
 30
0.0
 11
5143.489262
 21
437.17312
 31
0.0
1001
ACAD
1000
RTLwPs
1070
   128
  0
LINE
  5
5BC
100
AcDbEntity
  8
BASE
  6
RAYITAS2
 62
     9
100
AcDbLine
 10
5371.926266
 20
1417.965039
 30
0.0
 11
5364.732205
 21
437.17312
 31
0.0
1001
ACAD
1000
RTLwPs
1070
   128
  0
LINE
  5
5BD
100
AcDbEntity
  8
BASE
  6
RAYITAS2
 62
     9
100
AcDbLine
 10
5401.94091
 20
1419.961536
 30
0.0
 11
5394.732205
 21
437.17312
 31
0.0
1001
ACAD
1000
RTLwPs
1070
   128
  0
POLYLINE
  5
5BE
100
AcDbEntity
  8
BASE
  6
RAYITAS2
 62
     9
100
AcDb2dPolyline
 66
     1
 10
0.0
 20
0.0
 30
0.0
1001
ACAD
1000
RTLwPs
1070
   128
  0
VERTEX
  5
5BF
100
AcDbEntity
  8
BASE
  6
RAYITAS2
 62
     9
100
AcDbVertex
100
AcDb2dVertex
 10
5524.574038
 20
437.17312
 30
0.0
1001
ACAD
1000
RTLwPs
1070
   128
  0
VERTEX
  5
5C0
100
AcDbEntity
  8
BASE
  6
RAYITAS2
 62
     9
100
AcDbVertex
100
AcDb2dVertex
 10
5594.019145
 20
1432.738089
 30
0.0
1001
ACAD
1000
RTLwPs
1070
   128
  0
SEQEND
  5
5C1
100
AcDbEntity
  8
BASE
  6
RAYITAS2
 62
     9
1001
ACAD
1000
RTLwPs
1070
   128
  0
POLYLINE
  5
5C2
100
AcDbEntity
  8
BASE
  6
RAYITAS2
 62
     9
100
AcDb2dPolyline
 66
     1
 10
0.0
 20
0.0
 30
0.0
1001
ACAD
1000
RTLwPs
1070
   128
  0
VERTEX
  5
5C3
100
AcDbEntity
  8
BASE
  6
RAYITAS2
 62
     9
100
AcDbVertex
100
AcDb2dVertex
 10
5554.884175
 20
437.17312
 30
0.0
1001
ACAD
1000
RTLwPs
1070
   128
  0
VERTEX
  5
5C4
100
AcDbEntity
  8
BASE
  6
RAYITAS2
 62
     9
100
AcDbVertex
100
AcDb2dVertex
 10
5624.470573
 20
1434.76364
 30
0.0
1001
ACAD
1000
RTLwPs
1070
   128
  0
SEQEND
  5
5C5
100
AcDbEntity
  8
BASE
  6
RAYITAS2
 62
     9
1001
ACAD
1000
RTLwPs
1070
   128
  0
LINE
  5
5C6
100
AcDbEntity
  8
BASE
  6
RAYITAS2
 62
     9
100
AcDbLine
 10
6975.673662
 20
1524.642212
 30
0.0
 11
6968.141573
 21
479.09537
 31
0.0
1001
ACAD
1000
RTLwPs
1070
   128
  0
LINE
  5
5C7
100
AcDbEntity
  8
BASE
  6
RAYITAS2
 62
     9
100
AcDbLine
 10
7005.688039
 20
1526.638692
 30
0.0
 11
6998.148791
 21
480.098127
 31
0.0
1001
ACAD
1000
RTLwPs
1070
   128
  0
POLYLINE
  5
5C8
100
AcDbEntity
  8
BASE
  6
RAYITAS2
 62
     9
100
AcDb2dPolyline
 66
     1
 10
0.0
 20
0.0
 30
0.0
  0
VERTEX
  5
5C9
100
AcDbEntity
  8
BASE
  6
RAYITAS2
 62
     9
100
AcDbVertex
100
AcDb2dVertex
 10
4630.450332
 20
1506.63003
 30
0.0
  0
VERTEX
  5
5CA
100
AcDbEntity
  8
BASE
  6
RAYITAS2
 62
     9
100
AcDbVertex
100
AcDb2dVertex
 10
7572.668466
 20
1702.338852
 30
0.0
  0
SEQEND
  5
5CB
100
AcDbEntity
  8
BASE
  6
RAYITAS2
 62
     9
  0
LINE
  5
5CC
100
AcDbEntity
  8
BASE
  6
RAYITAS2
 62
     9
100
AcDbLine
 10
7564.786948
 20
1563.82852
 30
0.0
 11
7572.668466
 21
1702.338852
 31
0.0
  0
POLYLINE
  5
5CD
100
AcDbEntity
  8
BASE
  6
RAYITAS2
 62
     9
100
AcDb2dPolyline
 66
     1
 10
0.0
 20
0.0
 30
0.0
  0
VERTEX
  5
5CE
100
AcDbEntity
  8
BASE
  6
RAYITAS2
 62
     9
100
AcDbVertex
100
AcDb2dVertex
 10
4630.450332
 20
1368.643956
 30
0.0
  0
VERTEX
  5
5CF
100
AcDbEntity
  8
BASE
  6
RAYITAS2
 62
     9
100
AcDbVertex
100
AcDb2dVertex
 10
7564.786948
 20
1563.82852
 30
0.0
  0
SEQEND
  5
5D0
100
AcDbEntity
  8
BASE
  6
RAYITAS2
 62
     9
  0
HATCH
  5
5D1
100
AcDbEntity
  8
TRAMAS
  6
CONTINUOUS
100
AcDbHatch
 10
0.0
 20
0.0
 30
0.0
210
0.0
220
0.0
230
1.0
  2
U
 70
     0
 71
     1
 91
        6
 92
        7
 72
     0
 73
     1
 93
        4
 10
4993.622971029445
 20
1027.446268762999
 10
4993.549621516899
 20
1017.446268763002
 10
5041.80280141483
 20
1017.446268763002
 10
5042.348584040883
 20
1027.446268762999
 97
        4
330
641
330
65A
330
664
330
674
 92
        7
 72
     0
 73
     1
 93
        4
 10
4993.549621516899
 20
1017.446268763003
 10
4993.476272004354
 20
1007.446268762999
 10
5041.257018788775
 20
1007.446268762999
 10
5041.802801414828
 20
1017.446268763003
 97
        4
330
664
330
65A
330
642
330
674
 92
        7
 72
     0
 73
     1
 93
        4
 10
4793.330794908974
 20
1017.446268763002
 10
4793.257445396429
 20
1007.446268762999
 10
4973.476272009189
 20
1007.446268762999
 10
4973.549621521732
 20
1017.446268763002
 97
        4
330
664
330
658
330
642
330
659
 92
        7
 72
     0
 73
     1
 93
        4
 10
4793.404144421518
 20
1027.446268762999
 10
4793.330794908976
 20
1017.446268763003
 10
4973.549621521733
 20
1017.446268763003
 10
4973.622971034279
 20
1027.446268762999
 97
        4
330
641
330
658
330
664
330
659
 92
        7
 72
     0
 73
     1
 93
        4
 10
4659.342344196728
 20
1027.446268762999
 10
4659.443371048094
 20
1017.446268763002
 10
4773.330794913827
 20
1017.446268763002
 10
4773.404144426373
 20
1027.446268762999
 97
        4
330
641
330
632
330
664
330
657
 92
        7
 72
     0
 73
     1
 93
        4
 10
4659.443371048095
 20
1017.446268763002
 10
4659.544397899463
 20
1007.446268762999
 10
4773.257445401282
 20
1007.446268762999
 10
4773.330794913827
 20
1017.446268763003
 97
        4
330
664
330
632
330
642
330
657
 75
     0
 76
     0
 52
45.0
 41
0.5
 77
     0
 78
     1
 53
45.0
 43
135.122138
 44
-33.741452
 45
-0.3535533905932737
 46
0.3535533905932738
 79
     0
 47
0.075994
 98
        6
 10
4649.384081
 20
482.309348
 10
4649.155962
 20
481.701399
 10
4643.9854
 20
481.777388
 10
4643.833326
 20
482.309348
 10
4636.381638
 20
482.309348
 10
4633.872394
 20
481.625401
  0
HATCH
  5
5D2
100
AcDbEntity
  8
TRAMAS
  6
CONTINUOUS
100
AcDbHatch
 10
0.0
 20
0.0
 30
0.0
210
0.0
220
0.0
230
1.0
  2
U
 70
     0
 71
     0
 91
       16
 92
        7
 72
     0
 73
     1
 93
        4
 10
5678.770760239288
 20
1017.446268763003
 10
6172.699671603122
 20
1017.446268763003
 10
6172.772346101838
 20
1027.446268763001
 10
5678.770760239288
 20
1027.446268763001
 97
        0
 92
        7
 72
     0
 73
     1
 93
        4
 10
6172.699671603123
 20
1017.446268763003
 10
5678.770760239288
 20
1017.446268763003
 10
5678.770760239288
 20
1007.446268763001
 10
6172.626997104407
 20
1007.446268763001
 97
        0
 92
        7
 72
     0
 73
     1
 93
        4
 10
5678.770760239288
 20
1017.446268763003
 10
5614.293031952664
 20
1017.446268763003
 10
5613.595487246548
 20
1007.446268763001
 10
5678.770760239288
 20
1007.446268763001
 97
        0
 92
        7
 72
     0
 73
     1
 93
        4
 10
5614.293031952664
 20
1017.446268763003
 10
5678.770760239288
 20
1017.446268763003
 10
5678.770760239288
 20
1027.446268763001
 10
5614.990576658779
 20
1027.446268763001
 97
        0
 92
        7
 72
     0
 73
     1
 93
        4
 10
5589.990761908201
 20
1017.446268763003
 10
5614.293031952665
 20
1017.446268763003
 10
5614.990576658779
 20
1027.446268763001
 10
5590.688306614317
 20
1027.446268763001
 97
        0
 92
        7
 72
     0
 73
     1
 93
        4
 10
5614.293031952664
 20
1017.446268763003
 10
5589.990761908201
 20
1017.446268763003
 10
5589.293217202086
 20
1007.446268763001
 10
5613.595487246548
 20
1007.446268763001
 97
        0
 92
        7
 72
     0
 73
     1
 93
        4
 10
5393.916337652292
 20
1007.446268762999
 10
5569.293244572476
 20
1007.446268762999
 10
5569.990789278592
 20
1017.446268763003
 10
5393.989687164837
 20
1017.446268763003
 97
        0
 92
        7
 72
     0
 73
     1
 93
        4
 10
5393.989687164837
 20
1017.446268763003
 10
5569.990789278592
 20
1017.446268763003
 10
5570.688333984707
 20
1027.446268762999
 10
5394.063036677381
 20
1027.446268762999
 97
        0
 92
        7
 72
     0
 73
     1
 93
        4
 10
5193.842199591832
 20
1027.446268762999
 10
5193.768850079287
 20
1017.446268763003
 10
5373.989687160025
 20
1017.446268763003
 10
5374.06303667257
 20
1027.446268762999
 97
        0
 92
        7
 72
     0
 73
     1
 93
        4
 10
5193.768850079287
 20
1017.446268763003
 10
5193.695500566743
 20
1007.446268762999
 10
5373.91633764748
 20
1007.446268762999
 10
5373.989687160024
 20
1017.446268763003
 97
        0
 92
        7
 72
     0
 73
     1
 93
        4
 10
5139.136042376513
 20
1017.446268763003
 10
5139.136042376513
 20
1007.446268762999
 10
5173.695500571582
 20
1007.446268762999
 10
5173.768850084127
 20
1017.446268763003
 97
        0
 92
        7
 72
     0
 73
     1
 93
        4
 10
5139.136042376513
 20
1027.446268762999
 10
5139.136042376513
 20
1017.446268763003
 10
5173.768850084128
 20
1017.446268763003
 10
5173.842199596672
 20
1027.446268762999
 97
        0
 92
        7
 72
     0
 73
     1
 93
        4
 10
5123.73916952221
 20
1027.446268762999
 10
5123.325186459914
 20
1017.446268763003
 10
5139.136042376513
 20
1017.446268763003
 10
5139.136042376513
 20
1027.446268762999
 97
        0
 92
        7
 72
     0
 73
     1
 93
        4
 10
5123.325186459915
 20
1017.446268763003
 10
5122.91120339762
 20
1007.446268762999
 10
5139.136042376512
 20
1007.446268762999
 10
5139.136042376512
 20
1017.446268763003
 97
        0
 92
        7
 72
     0
 73
     1
 93
        4
 10
5041.80280141483
 20
1017.446268763003
 10
5041.257018788774
 20
1007.446268762999
 10
5122.91120339762
 20
1007.446268762999
 10
5123.325186459914
 20
1017.446268763003
 97
        0
 92
        7
 72
     0
 73
     1
 93
        4
 10
5042.348584040883
 20
1027.446268762999
 10
5041.80280141483
 20
1017.446268763003
 10
5123.325186459915
 20
1017.446268763003
 10
5123.739169522209
 20
1027.446268762999
 97
        0
 75
     0
 76
     0
 52
45.0
 41
0.5
 77
     0
 78
     1
 53
45.0
 43
135.122138
 44
-33.741452
 45
-0.3535533905932737
 46
0.3535533905932738
 79
     0
 47
0.075994
 98
       16
 10
4686.38129
 20
482.389359
 10
4686.761483
 20
482.009397
 10
4680.298283
 20
481.705422
 10
4680.450357
 20
482.389359
 10
4678.54941
 20
482.313371
 10
4678.54941
 20
481.781411
 10
4675.583943
 20
481.781411
 10
4675.583943
 20
482.389359
 10
4665.699041
 20
482.389359
 10
4665.0147
 20
481.857409
 10
4656.498479
 20
481.781411
 10
4656.498479
 20
482.237372
 10
4655.053768
 20
482.313371
 10
4655.053768
 20
481.781411
 10
4652.468494
 20
481.705422
 10
4652.544524
 20
482.237372
  0
HATCH
  5
5D3
100
AcDbEntity
  8
TRAMAS
  6
CONTINUOUS
100
AcDbHatch
 10
0.0
 20
0.0
 30
0.0
210
0.0
220
0.0
230
1.0
  2
U
 70
     0
 71
     0
 91
        2
 92
        7
 72
     0
 73
     1
 93
        4
 10
6202.821902989687
 20
1017.446268763003
 10
6955.764970073143
 20
1017.446268763003
 10
6955.837009787228
 20
1027.446268763001
 10
6202.894550328661
 20
1027.446268763001
 97
        0
 92
        7
 72
     0
 73
     1
 93
        4
 10
6955.764970073146
 20
1017.446268763003
 10
6202.82190298969
 20
1017.446268763003
 10
6202.749255650715
 20
1007.446268763001
 10
6955.69293035906
 20
1007.446268763001
 97
        0
 75
     0
 76
     0
 52
45.0
 41
0.5
 77
     0
 78
     1
 53
45.0
 43
135.122138
 44
-33.741452
 45
-0.3535533905932737
 46
0.3535533905932738
 79
     0
 47
0.075994
 98
        2
 10
4744.215736
 20
482.237763
 10
4743.911588
 20
481.781802
  0
HATCH
  5
5D4
100
AcDbEntity
  8
TRAMAS
  6
CONTINUOUS
100
AcDbHatch
 10
0.0
 20
0.0
 30
0.0
210
0.0
220
0.0
230
1.0
  2
U
 70
     0
 71
     0
 91
       12
 92
        7
 72
     0
 73
     1
 93
        4
 10
7077.370140011301
 20
1017.446268763003
 10
7178.935666935409
 20
1017.446268763003
 10
7179.009016447953
 20
1027.446268762999
 10
7077.3701400113
 20
1027.446268762999
 97
        0
 92
        7
 72
     0
 73
     1
 93
        4
 10
7178.93566693541
 20
1017.446268763003
 10
7077.3701400113
 20
1017.446268763003
 10
7077.3701400113
 20
1007.446268762999
 10
7178.862317422866
 20
1007.446268762999
 97
        0
 92
        7
 72
     0
 73
     1
 93
        4
 10
7379.158338091309
 20
1017.446268763003
 10
7198.935664900197
 20
1017.446268763003
 10
7198.862315387653
 20
1007.446268762999
 10
7379.084988578767
 20
1007.446268762999
 97
        0
 92
        7
 72
     0
 73
     1
 93
        4
 10
7198.935664900197
 20
1017.446268763003
 10
7379.158338091309
 20
1017.446268763003
 10
7379.231687603852
 20
1027.446268762999
 10
7199.009014412742
 20
1027.446268762999
 97
        0
 92
        7
 72
     0
 73
     1
 93
        4
 10
7399.158336056089
 20
1017.446268763003
 10
7425.232725005097
 20
1017.446268763003
 10
7425.801745245054
 20
1027.446268762999
 10
7399.231685568633
 20
1027.446268762999
 97
        0
 92
        7
 72
     0
 73
     1
 93
        4
 10
7425.232725005095
 20
1017.446268763003
 10
7399.158336056091
 20
1017.446268763003
 10
7399.084986543546
 20
1007.446268762999
 10
7424.663704765136
 20
1007.446268762999
 97
        0
 92
        7
 72
     0
 73
     1
 93
        4
 10
7425.232725005095
 20
1017.446268763003
 10
7443.332531313664
 20
1017.446268763003
 10
7443.901551553619
 20
1027.446268762999
 10
7425.801745245054
 20
1027.446268762999
 97
        0
 92
        7
 72
     0
 73
     1
 93
        4
 10
7443.332531313666
 20
1017.446268763003
 10
7425.232725005095
 20
1017.446268763003
 10
7424.663704765136
 20
1007.446268762999
 10
7442.763511073711
 20
1007.446268762999
 97
        0
 92
        7
 72
     0
 73
     1
 93
        4
 10
7077.370140011298
 20
1017.446268763003
 10
6995.733709840465
 20
1017.446268763003
 10
6995.661670126382
 20
1007.446268762999
 10
7077.3701400113
 20
1007.446268762999
 97
        0
 92
        7
 72
     0
 73
     1
 93
        4
 10
6995.733709840466
 20
1017.446268763003
 10
7077.370140011298
 20
1017.446268763003
 10
7077.3701400113
 20
1027.446268762999
 10
6995.805749554548
 20
1027.446268762999
 97
        0
 92
        7
 72
     0
 73
     1
 93
        4
 10
6955.764970073144
 20
1017.446268763003
 10
6975.733758092653
 20
1017.446268763003
 10
6975.805797806734
 20
1027.446268763001
 10
6955.837009787227
 20
1027.446268763001
 97
        0
 92
        7
 72
     0
 73
     1
 93
        4
 10
6975.733758092655
 20
1017.446268763003
 10
6955.764970073146
 20
1017.446268763003
 10
6955.692930359062
 20
1007.446268763001
 10
6975.661718378567
 20
1007.446268763001
 97
        0
 75
     0
 76
     0
 52
45.0
 41
0.5
 77
     0
 78
     1
 53
45.0
 43
135.122138
 44
-33.741452
 45
-0.3535533905932737
 46
0.3535533905932738
 79
     0
 47
0.075994
 98
       12
 10
4754.67254
 20
482.252049
 10
4754.444436
 20
481.6441
 10
4760.223295
 20
481.796087
 10
4760.375369
 20
482.404036
 10
4769.043664
 20
482.328047
 10
4769.043664
 20
481.720099
 10
4770.336301
 20
482.404036
 10
4770.108197
 20
481.720099
 10
4750.186318
 20
481.796087
 10
4750.414437
 20
482.404036
 10
4746.992733
 20
482.328047
 10
4746.840659
 20
481.872086
  0
HATCH
  5
5D5
100
AcDbEntity
  8
TRAMAS
  6
CONTINUOUS
100
AcDbHatch
 10
0.0
 20
0.0
 30
0.0
210
0.0
220
0.0
230
1.0
  2
U
 70
     0
 71
     1
 91
       10
 92
        7
 72
     0
 73
     1
 93
        4
 10
6998.615298403827
 20
1417.446268763001
 10
7077.370140011304
 20
1417.446268763001
 10
7077.370140011304
 20
1427.446268762999
 10
6998.68733811791
 20
1427.446268762999
 97
        4
330
647
330
634
330
61A
330
638
 92
        7
 72
     0
 73
     1
 93
        4
 10
7077.370140011304
 20
1417.446268763001
 10
6998.615298403827
 20
1417.446268763001
 10
6998.543258689743
 20
1407.446268762999
 10
7077.370140011304
 20
1407.446268762999
 97
        4
330
61A
330
634
330
648
330
638
 92
        7
 72
     0
 73
     1
 93
        4
 10
7077.370140011304
 20
1417.446268763001
 10
7181.869647437178
 20
1417.446268763001
 10
7181.942996949722
 20
1427.446268762999
 10
7077.370140011303
 20
1427.446268762999
 97
        4
330
647
330
638
330
61A
330
64B
 92
        7
 72
     0
 73
     1
 93
        4
 10
7181.869647437176
 20
1417.446268763001
 10
7077.370140011304
 20
1417.446268763001
 10
7077.370140011304
 20
1407.446268762999
 10
7181.796297924631
 20
1407.446268762999
 97
        4
330
61A
330
638
330
648
330
64B
 92
        7
 72
     0
 73
     1
 93
        4
 10
7201.869645401973
 20
1417.446268763001
 10
7382.09231859308
 20
1417.446268763001
 10
7382.165668105622
 20
1427.446268762999
 10
7201.942994914517
 20
1427.446268762999
 97
        4
330
647
330
64C
330
61A
330
64A
 92
        7
 72
     0
 73
     1
 93
        4
 10
7382.09231859308
 20
1417.446268763001
 10
7201.869645401973
 20
1417.446268763001
 10
7201.79629588943
 20
1407.446268762999
 10
7382.018969080535
 20
1407.446268762999
 97
        4
330
61A
330
64C
330
648
330
64A
 92
        7
 72
     0
 73
     1
 93
        4
 10
7402.092316557862
 20
1417.446268763001
 10
7447.99353460343
 20
1417.446268763001
 10
7448.562554843388
 20
1427.446268762999
 10
7402.165666070406
 20
1427.446268762999
 97
        4
330
647
330
649
330
61A
330
66A
 92
        7
 72
     0
 73
     1
 93
        4
 10
7447.993534603431
 20
1417.446268763001
 10
7402.092316557862
 20
1417.446268763001
 10
7402.018967045316
 20
1407.446268762999
 10
7447.424514363472
 20
1407.446268762998
 97
        4
330
61A
330
649
330
648
330
66A
 92
        7
 72
     0
 73
     1
 93
        4
 10
7447.993534603431
 20
1417.446268763001
 10
7466.093340912003
 20
1417.446268763001
 10
7466.66236115197
 20
1427.446268762999
 10
7448.562554843388
 20
1427.446268762999
 97
        4
330
647
330
66A
330
61A
330
61F
 92
        7
 72
     0
 73
     1
 93
        4
 10
7466.093340912005
 20
1417.446268763001
 10
7447.993534603431
 20
1417.446268763001
 10
7447.424514363473
 20
1407.446268762999
 10
7465.524320672042
 20
1407.446268762999
 97
        4
330
61A
330
66A
330
648
330
61F
 75
     0
 76
     0
 52
45.0
 41
0.5
 77
     0
 78
     1
 53
45.0
 43
135.122138
 44
-33.741452
 45
-0.3535533905932737
 46
0.3535533905932738
 79
     0
 47
0.075994
 98
       10
 10
4750.414437
 20
502.314358
 10
4750.338392
 20
501.70641
 10
4754.900658
 20
502.23836
 10
4756.26934
 20
501.70641
 10
4760.14725
 20
502.162371
 10
4764.785546
 20
501.70641
 10
4769.271783
 20
502.23836
 10
4769.880079
 20
501.782398
 10
4771.24876
 20
502.314358
 10
4771.24876
 20
501.70641
  0
HATCH
  5
5D6
100
AcDbEntity
  8
TRAMAS
  6
CONTINUOUS
100
AcDbHatch
 10
0.0
 20
0.0
 30
0.0
210
0.0
220
0.0
230
1.0
  2
U
 70
     0
 71
     0
 91
        8
 92
        7
 72
     0
 73
     1
 93
        3
 10
4752.455917867774
 20
520.5572177842387
 10
4752.455917867774
 20
521.411925119951
 10
4739.606546075512
 20
520.5572177842387
 97
        0
 92
        7
 72
     0
 73
     1
 93
        5
 10
4757.818124145761
 20
520.7663955187233
 10
4757.825478894505
 20
521.7690945810964
 10
4752.455917867774
 20
521.4119251199508
 10
4752.455917867774
 20
520.5572177842387
 10
4754.673419088542
 20
520.5572177842387
 97
        0
 92
        7
 72
     0
 73
     1
 93
        5
 10
4767.834144541846
 20
521.4326355688661
 10
4767.838725821951
 20
522.0572177842385
 10
4762.157022575554
 20
522.0572177842385
 10
4758.82596693305
 20
521.8356444856103
 10
4758.818612184304
 20
520.832945423237
 97
        0
 92
        7
 72
     0
 73
     1
 93
        3
 10
4767.838725821951
 20
522.0572177842385
 10
4767.841499290592
 20
522.4353346312391
 10
4762.157022575556
 20
522.0572177842386
 97
        0
 92
        7
 72
     0
 73
     1
 93
        4
 10
4772.125128077298
 20
522.0572177842386
 10
4772.163000473996
 20
522.7227898331323
 10
4768.841987329135
 20
522.501884535753
 10
4768.838725720189
 20
522.0572177842386
 97
        0
 92
        7
 72
     0
 73
     1
 93
        4
 10
4768.838725720189
 20
522.0572177842386
 10
4768.83463258039
 20
521.4991854733797
 10
4772.10575603656
 20
521.7167722363133
 10
4772.125128077298
 20
522.0572177842386
 97
        0
 92
        7
 72
     0
 73
     1
 93
        4
 10
4772.163000473994
 20
522.722789833132
 10
4772.125128077297
 20
522.0572177842386
 10
4773.030118392725
 20
522.0572177842386
 10
4773.071429171191
 20
522.7832161857988
 97
        0
 92
        7
 72
     0
 73
     1
 93
        4
 10
4773.014184733757
 20
521.7771985889801
 10
4773.030118392725
 20
522.0572177842386
 10
4772.125128077297
 20
522.0572177842387
 10
4772.10575603656
 20
521.7167722363133
 97
        0
 75
     0
 76
     0
 52
45.0
 41
0.5
 77
     0
 78
     1
 53
45.0
 43
135.122138
 44
-33.741452
 45
-0.3535533905932737
 46
0.3535533905932738
 79
     0
 47
0.075994
 98
        8
 10
4748.447146
 20
520.826526
 10
4755.062434
 20
521.054502
 10
4760.613174
 20
521.282488
 10
4767.228447
 20
522.19441
 10
4770.954299
 20
522.346397
 10
4769.813736
 20
521.814437
 10
4772.703173
 20
522.422386
 10
4772.246936
 20
521.814437
  0
HATCH
  5
5D7
100
AcDbEntity
  8
TRAMAS
  6
CONTINUOUS
100
AcDbHatch
 10
0.0
 20
0.0
 30
0.0
210
0.0
220
0.0
230
1.0
  2
U
 70
     0
 71
     1
 91
        6
 92
        7
 72
     0
 73
     1
 93
        4
 10
5799.430104629968
 20
1699.490917145878
 10
5979.736903315092
 20
1711.484464068364
 10
5979.883998289999
 20
1731.538445315823
 10
5799.577199604875
 20
1719.544898393337
 97
        4
330
62A
330
656
330
62E
330
653
 92
        7
 72
     0
 73
     1
 93
        4
 10
5999.746666127042
 20
1712.815462294404
 10
6178.98048431901
 20
1724.737637299772
 10
6178.98048431901
 20
1744.781834165854
 10
5999.89376110195
 20
1732.869443541865
 97
        4
330
639
330
62A
330
654
330
62E
 92
        7
 72
     0
 73
     1
 93
        4
 10
6200.063227624136
 20
1726.140007442932
 10
6380.370428459932
 20
1738.133581115452
 10
6380.517523434839
 20
1758.187562362912
 10
6200.210322599043
 20
1746.193988690393
 97
        4
330
651
330
62A
330
637
330
62E
 92
        7
 72
     0
 73
     1
 93
        4
 10
6400.38019127188
 20
1739.464579341492
 10
6580.686989957008
 20
1751.458126263979
 10
6580.834084931915
 20
1771.51210751144
 10
6400.527286246791
 20
1759.518560588953
 97
        4
330
64F
330
62A
330
652
330
62E
 92
        7
 72
     0
 73
     1
 93
        4
 10
6600.696752768957
 20
1752.789124490019
 10
6781.003551454083
 20
1764.782671412506
 10
6781.150646428989
 20
1784.836652659966
 10
6600.843847743863
 20
1772.843105737479
 97
        4
330
64E
330
62A
330
650
330
62E
 92
        7
 72
     0
 73
     1
 93
        5
 10
6801.013314266049
 20
1766.113669638547
 10
7077.370140011307
 20
1784.496218611164
 10
7077.370140011305
 20
1787.446268763003
 10
6820.382704166106
 20
1787.446268763003
 10
6801.160409240956
 20
1786.167650886007
 97
        5
330
638
330
67B
330
62A
330
64D
330
62E
 75
     0
 76
     0
 52
45.0
 41
0.5
 77
     0
 78
     1
 53
45.0
 43
135.122138
 44
-33.741452
 45
-0.3535533905932737
 46
0.3535533905932738
 79
     0
 47
0.075994
 98
        6
 10
4695.015423
 20
517.100368
 10
4701.554667
 20
517.328354
 10
4710.755229
 20
518.012301
 10
4721.172383
 20
518.620249
 10
4730.677093
 20
519.152198
 10
4739.725581
 20
520.216108
  0
HATCH
  5
5D8
100
AcDbEntity
  8
TRAMAS
  6
CONTINUOUS
100
AcDbHatch
 10
0.0
 20
0.0
 30
0.0
210
0.0
220
0.0
230
1.0
  2
U
 70
     0
 71
     1
 91
        8
 92
        7
 72
     0
 73
     1
 93
        4
 10
4653.120713881537
 20
1643.285546242541
 10
4653.323078101572
 20
1623.254810126617
 10
4777.835120732592
 20
1631.537032630704
 10
4777.982215707498
 20
1651.591013878163
 97
        4
330
62A
330
632
330
62E
330
657
 92
        7
 72
     0
 73
     1
 93
        4
 10
4797.991978509755
 20
1652.922012103559
 10
4797.844883534847
 20
1632.868030856099
 10
4978.151682229649
 20
1644.861577779229
 10
4978.298777204557
 20
1664.915559026688
 97
        4
330
62A
330
658
330
62E
330
659
 92
        7
 72
     0
 73
     1
 93
        4
 10
4998.308540006831
 20
1666.246557252085
 10
4998.161445031922
 20
1646.192576004626
 10
5139.136042376526
 20
1655.5698455278
 10
5139.136042376526
 20
1675.61404239388
 97
        4
330
63B
330
62A
330
65A
330
62E
 92
        7
 72
     0
 73
     1
 93
        4
 10
5198.625503654577
 20
1679.571129150646
 10
5198.478408679669
 20
1659.517147903187
 10
5378.787218823848
 20
1671.510828622783
 10
5378.934313798756
 20
1691.564809870242
 97
        4
330
63D
330
62A
330
65C
330
62E
 92
        7
 72
     0
 73
     1
 93
        4
 10
5398.944076610707
 20
1692.895808096283
 10
5398.796981635798
 20
1672.841826848823
 10
5579.103780320925
 20
1684.835373771309
 10
5579.25087529583
 20
1704.889355018769
 97
        4
330
645
330
62A
330
63E
330
62E
 92
        7
 72
     0
 73
     1
 93
        4
 10
5678.770760239288
 20
1691.464966271373
 10
5678.770760239289
 20
1711.509163137454
 10
5599.260638107784
 20
1706.22035324481
 10
5599.113543132876
 20
1686.16637199735
 97
        4
330
62A
330
646
330
62E
330
63A
 92
        7
 72
     0
 73
     1
 93
        4
 10
5678.770760239288
 20
1711.509163137453
 10
5678.770760239288
 20
1691.464966271373
 10
5779.420341818018
 20
1698.159918919837
 10
5779.567436792925
 20
1718.213900167297
 97
        4
330
62A
330
63A
330
62E
330
655
 92
        7
 72
     0
 73
     1
 93
        4
 10
5139.136042376527
 20
1675.61404239388
 10
5139.136042376526
 20
1655.5698455278
 10
5178.468645877414
 20
1658.186149677791
 10
5178.615740852322
 20
1678.24013092525
 97
        4
330
62A
330
63B
330
62E
330
65B
 75
     0
 76
     0
 52
45.0
 41
0.5
 77
     0
 78
     1
 53
45.0
 43
135.122138
 44
-33.741452
 45
-0.3535533905932737
 46
0.3535533905932738
 79
     0
 47
0.075994
 98
        8
 10
4634.039419
 20
512.909559
 10
4642.251492
 20
513.517507
 10
4649.931299
 20
513.89748
 10
4659.512039
 20
514.657415
 10
4671.754111
 20
515.41735
 10
4679.966184
 20
515.9493
 10
4683.844095
 20
516.329272
 10
4656.622617
 20
514.429429
  0
HATCH
  5
5D9
100
AcDbEntity
  8
TRAMAS
  6
CONTINUOUS
100
AcDbHatch
 10
0.0
 20
0.0
 30
0.0
210
0.0
220
0.0
230
1.0
  2
U
 70
     0
 71
     0
 91
       16
 92
        7
 72
     0
 73
     1
 93
        4
 10
4768.838725720189
 20
522.0572177842385
 10
4768.841987329138
 20
522.5018845357529
 10
4767.841499290592
 20
522.435334631239
 10
4767.838725821951
 20
522.0572177842386
 97
        0
 92
        7
 72
     0
 73
     1
 93
        4
 10
4768.834632580391
 20
521.4991854733797
 10
4768.838725720189
 20
522.0572177842386
 10
4767.838725821952
 20
522.0572177842386
 10
4767.834144541848
 20
521.4326355688661
 97
        0
 92
        7
 72
     0
 73
     1
 93
        4
 10
4768.827723293308
 20
520.5572177842387
 10
4768.834632580392
 20
521.4991854733798
 10
4767.834144541847
 20
521.4326355688661
 10
4767.827723395069
 20
520.5572177842387
 97
        0
 92
        7
 72
     0
 73
     1
 93
        4
 10
4767.695694272489
 20
502.5572177842384
 10
4768.695694170729
 20
502.5572177842385
 10
4768.827723293308
 20
520.5572177842387
 10
4767.82772339507
 20
520.5572177842387
 97
        0
 92
        7
 72
     0
 73
     1
 93
        4
 10
4767.695694272489
 20
502.5572177842384
 10
4767.692026796862
 20
502.0572177842385
 10
4768.692026695101
 20
502.0572177842386
 10
4768.695694170728
 20
502.5572177842384
 97
        0
 92
        7
 72
     0
 73
     1
 93
        4
 10
4768.688359219474
 20
501.5572177842384
 10
4768.692026695101
 20
502.0572177842386
 10
4767.692026796863
 20
502.0572177842386
 10
4767.688359321237
 20
501.5572177842384
 97
        0
 92
        7
 72
     0
 73
     1
 93
        4
 10
4768.688359219473
 20
501.5572177842384
 10
4767.688359321235
 20
501.5572177842384
 10
4767.610475351024
 20
490.939019038333
 10
4768.611245823333
 20
491.04407414279
 97
        0
 92
        7
 72
     0
 73
     1
 93
        4
 10
4768.611245823334
 20
491.0440741427901
 10
4767.610475351024
 20
490.939019038333
 10
4767.548995247401
 20
482.5572177842383
 10
4768.548995145639
 20
482.5572177842383
 97
        0
 92
        7
 72
     0
 73
     1
 93
        4
 10
4767.548995247401
 20
482.5572177842383
 10
4767.545327771773
 20
482.0572177842386
 10
4768.545327670013
 20
482.0572177842387
 10
4768.548995145639
 20
482.5572177842383
 97
        0
 92
        7
 72
     0
 73
     1
 93
        4
 10
4767.545327771773
 20
482.0572177842387
 10
4767.541660296146
 20
481.5572177842384
 10
4768.541660194386
 20
481.5572177842384
 10
4768.545327670013
 20
482.0572177842387
 97
        0
 92
        7
 72
     0
 73
     1
 93
        4
 10
4767.402296222313
 20
462.5572177842385
 10
4768.402296120552
 20
462.5572177842384
 10
4768.541660194387
 20
481.5572177842384
 10
4767.541660296147
 20
481.5572177842384
 97
        0
 92
        7
 72
     0
 73
     1
 93
        4
 10
4767.402296222313
 20
462.5572177842384
 10
4767.398628746686
 20
462.0572177842387
 10
4768.398628644923
 20
462.0572177842387
 10
4768.402296120551
 20
462.5572177842385
 97
        0
 92
        7
 72
     0
 73
     1
 93
        4
 10
4767.398628746685
 20
462.0572177842387
 10
4767.394961271059
 20
461.5572177842385
 10
4768.394961169297
 20
461.5572177842385
 10
4768.398628644923
 20
462.0572177842386
 97
        0
 92
        7
 72
     0
 73
     1
 93
        4
 10
4767.394961271059
 20
461.5572177842385
 10
4767.391293795432
 20
461.0572177842387
 10
4768.391293693669
 20
461.0572177842387
 10
4768.394961169298
 20
461.5572177842384
 97
        0
 92
        7
 72
     0
 73
     1
 93
        4
 10
4767.391293795429
 20
461.0572177842386
 10
4767.358897737419
 20
456.6405479403316
 10
4768.361572277555
 20
457.0051913858685
 10
4768.39129369367
 20
461.0572177842386
 97
        0
 92
        7
 72
     0
 73
     1
 93
        4
 10
4767.352879004384
 20
455.819992652896
 10
4768.353124076016
 20
455.8534180138387
 10
4768.361572277557
 20
457.0051913858694
 10
4767.35889773742
 20
456.6405479403319
 97
        0
 75
     0
 76
     0
 52
45.0
 41
0.5
 77
     0
 78
     1
 53
45.0
 43
135.122138
 44
-33.741452
 45
-0.3535533905932737
 46
0.3535533905932738
 79
     0
 47
0.123997
 98
       16
 10
4768.353999
 20
522.17449
 10
4768.353999
 20
521.678503
 10
4768.353999
 20
520.934524
 10
4768.229935
 20
519.446564
 10
4768.478063
 20
502.458992
 10
4768.353999
 20
501.715003
 10
4768.229935
 20
499.607055
 10
4768.353999
 20
489.439312
 10
4768.105857
 20
482.37149
 10
4768.229935
 20
481.875503
 10
4767.857729
 20
480.511536
 10
4767.857729
 20
462.407989
 10
4767.857729
 20
461.912003
 10
4767.981793
 20
461.416016
 10
4767.857729
 20
460.672036
 10
4767.73365
 20
456.33214
  0
HATCH
  5
5DA
100
AcDbEntity
  8
TRAMAS
  6
CONTINUOUS
100
AcDbHatch
 10
0.0
 20
0.0
 30
0.0
210
0.0
220
0.0
230
1.0
  2
U
 70
     0
 71
     0
 91
       13
 92
        7
 72
     0
 73
     1
 93
        4
 10
4757.818124145761
 20
520.7663955187233
 10
4758.818612184304
 20
520.8329454232369
 10
4758.82596693305
 20
521.8356444856103
 10
4757.825478894505
 20
521.7690945810963
 97
        0
 92
        7
 72
     0
 73
     1
 93
        4
 10
4757.818124145759
 20
520.7663955187233
 10
4757.816589837274
 20
520.5572177842387
 10
4758.816589735514
 20
520.5572177842387
 10
4758.818612184305
 20
520.832945423237
 97
        0
 92
        7
 72
     0
 73
     1
 93
        4
 10
4758.816589735512
 20
520.5572177842387
 10
4757.816589837274
 20
520.5572177842387
 10
4757.684560714694
 20
502.5572177842384
 10
4758.684560612933
 20
502.5572177842384
 97
        0
 92
        7
 72
     0
 73
     1
 93
        4
 10
4757.684560714694
 20
502.5572177842384
 10
4757.680893239068
 20
502.0572177842385
 10
4758.680893137307
 20
502.0572177842385
 10
4758.684560612934
 20
502.5572177842384
 97
        0
 92
        7
 72
     0
 73
     1
 93
        4
 10
4757.680893239067
 20
502.0572177842384
 10
4757.67722576344
 20
501.5572177842384
 10
4758.677225661679
 20
501.5572177842384
 10
4758.680893137305
 20
502.0572177842384
 97
        0
 92
        7
 72
     0
 73
     1
 93
        4
 10
4758.67722566168
 20
501.5572177842385
 10
4757.67722576344
 20
501.5572177842384
 10
4757.537861689605
 20
482.5572177842384
 10
4758.537861587845
 20
482.5572177842383
 97
        0
 92
        7
 72
     0
 73
     1
 93
        4
 10
4757.537861689605
 20
482.5572177842383
 10
4757.534194213978
 20
482.0572177842386
 10
4758.534194112217
 20
482.0572177842386
 10
4758.537861587845
 20
482.5572177842383
 97
        0
 92
        7
 72
     0
 73
     1
 93
        4
 10
4758.53052663659
 20
481.5572177842383
 10
4758.534194112217
 20
482.0572177842386
 10
4757.534194213978
 20
482.0572177842386
 10
4757.530526738351
 20
481.5572177842384
 97
        0
 92
        7
 72
     0
 73
     1
 93
        4
 10
4758.530526636588
 20
481.5572177842384
 10
4757.530526738352
 20
481.5572177842384
 10
4757.391162664517
 20
462.5572177842384
 10
4758.391162562756
 20
462.5572177842384
 97
        0
 92
        7
 72
     0
 73
     1
 93
        4
 10
4757.391162664517
 20
462.5572177842384
 10
4757.38749518889
 20
462.0572177842385
 10
4758.387495087128
 20
462.0572177842385
 10
4758.391162562756
 20
462.5572177842385
 97
        0
 92
        7
 72
     0
 73
     1
 93
        4
 10
4757.38749518889
 20
462.0572177842387
 10
4757.383827713264
 20
461.5572177842384
 10
4758.383827611501
 20
461.5572177842383
 10
4758.387495087128
 20
462.0572177842386
 97
        0
 92
        7
 72
     0
 73
     1
 93
        4
 10
4758.380160135874
 20
461.0572177842386
 10
4758.383827611502
 20
461.5572177842384
 10
4757.383827713263
 20
461.5572177842384
 10
4757.380160237634
 20
461.0572177842386
 97
        0
 92
        7
 72
     0
 73
     1
 93
        4
 10
4758.380160135874
 20
461.0572177842386
 10
4757.380160237636
 20
461.0572177842386
 10
4757.339290982756
 20
455.4853668662285
 10
4758.339536054387
 20
455.5187922271712
 97
        0
 75
     0
 76
     0
 52
45.0
 41
0.5
 77
     0
 78
     1
 53
45.0
 43
135.122138
 44
-33.741452
 45
-0.3535533905932737
 46
0.3535533905932738
 79
     0
 47
0.123997
 98
       13
 10
4758.056295
 20
521.182517
 10
4758.552565
 20
520.68653
 10
4758.676629
 20
519.818549
 10
4758.056295
 20
502.334991
 10
4758.304423
 20
501.962996
 10
4758.552565
 20
499.97905
 10
4758.180359
 20
482.37149
 10
4757.808152
 20
481.751502
 10
4758.056295
 20
480.015549
 10
4757.808152
 20
462.407989
 10
4757.808152
 20
461.912003
 10
4757.932216
 20
461.292015
 10
4758.180359
 20
460.672036
  0
HATCH
  5
5DB
100
AcDbEntity
  8
TRAMAS
  6
CONTINUOUS
100
AcDbHatch
 10
0.0
 20
0.0
 30
0.0
210
0.0
220
0.0
230
1.0
  2
U
 70
     0
 71
     0
 91
       13
 92
        7
 72
     0
 73
     1
 93
        4
 10
4747.573890779214
 20
509.7908102779171
 10
4748.574367850913
 20
509.8573686077937
 10
4748.648562208814
 20
520.1564597195666
 10
4747.648085203101
 20
520.0899105489286
 97
        0
 92
        7
 72
     0
 73
     1
 93
        4
 10
4747.559444064683
 20
507.7854282858942
 10
4748.55992113638
 20
507.8519866157708
 10
4748.574367850914
 20
509.8573686077937
 10
4747.573890779216
 20
509.790810277917
 97
        0
 92
        7
 72
     0
 73
     1
 93
        4
 10
4747.521780185712
 20
502.5572177842384
 10
4748.521777773104
 20
502.5572177842384
 10
4748.55992113638
 20
507.851986615771
 10
4747.559444064683
 20
507.7854282858942
 97
        0
 92
        7
 72
     0
 73
     1
 93
        4
 10
4748.518175787399
 20
502.0572177842385
 10
4748.521777773104
 20
502.5572177842384
 10
4747.521780185713
 20
502.5572177842384
 10
4747.518178200009
 20
502.0572177842385
 97
        0
 92
        7
 72
     0
 73
     1
 93
        4
 10
4747.518178200009
 20
502.0572177842385
 10
4747.514576214305
 20
501.5572177842384
 10
4748.514573801695
 20
501.5572177842384
 10
4748.518175787398
 20
502.0572177842385
 97
        0
 92
        7
 72
     0
 73
     1
 93
        4
 10
4747.377700757544
 20
482.5572177842383
 10
4748.377698344936
 20
482.5572177842382
 10
4748.514573801695
 20
501.5572177842384
 10
4747.514576214305
 20
501.5572177842384
 97
        0
 92
        7
 72
     0
 73
     1
 93
        4
 10
4747.377700757545
 20
482.5572177842384
 10
4747.374098771842
 20
482.0572177842386
 10
4748.37409635923
 20
482.0572177842385
 10
4748.377698344935
 20
482.5572177842383
 97
        0
 92
        7
 72
     0
 73
     1
 93
        4
 10
4747.374098771842
 20
482.0572177842387
 10
4747.370496786138
 20
481.5572177842384
 10
4748.370494373528
 20
481.5572177842384
 10
4748.374096359231
 20
482.0572177842386
 97
        0
 92
        7
 72
     0
 73
     1
 93
        4
 10
4747.233621329378
 20
462.5572177842384
 10
4748.233618916768
 20
462.5572177842385
 10
4748.370494373527
 20
481.5572177842383
 10
4747.370496786138
 20
481.5572177842384
 97
        0
 92
        7
 72
     0
 73
     1
 93
        4
 10
4747.233621329378
 20
462.5572177842384
 10
4747.230019343673
 20
462.0572177842386
 10
4748.230016931064
 20
462.0572177842386
 10
4748.233618916768
 20
462.5572177842385
 97
        0
 92
        7
 72
     0
 73
     1
 93
        4
 10
4747.230019343673
 20
462.0572177842387
 10
4747.226417357969
 20
461.5572177842384
 10
4748.226414945358
 20
461.5572177842384
 10
4748.230016931063
 20
462.0572177842387
 97
        0
 92
        7
 72
     0
 73
     1
 93
        4
 10
4748.222812959655
 20
461.0572177842386
 10
4748.226414945358
 20
461.5572177842384
 10
4747.22641735797
 20
461.5572177842385
 10
4747.222815372265
 20
461.0572177842386
 97
        0
 92
        7
 72
     0
 73
     1
 93
        4
 10
4748.222812959655
 20
461.0572177842386
 10
4747.222815372266
 20
461.0572177842387
 10
4747.180230262393
 20
455.1458797934617
 10
4748.180468643518
 20
455.1793049308265
 97
        0
 75
     0
 76
     0
 52
45.0
 41
0.5
 77
     0
 78
     1
 53
45.0
 43
135.122138
 44
-33.741452
 45
-0.3535533905932737
 46
0.3535533905932738
 79
     0
 47
0.123997
 98
       13
 10
4748.006718
 20
513.990703
 10
4748.006718
 20
509.15482
 10
4748.006718
 20
505.310919
 10
4748.006718
 20
502.210989
 10
4748.006718
 20
501.839004
 10
4748.006718
 20
500.72303
 10
4748.006718
 20
482.37149
 10
4748.006718
 20
481.875503
 10
4747.758575
 20
480.511536
 10
4747.634512
 20
462.407989
 10
4747.758575
 20
461.912003
 10
4747.510433
 20
461.292015
 10
4747.758575
 20
460.17605
  0
HATCH
  5
5DC
100
AcDbEntity
  8
TRAMAS
  6
CONTINUOUS
100
AcDbHatch
 10
0.0
 20
0.0
 30
0.0
210
0.0
220
0.0
230
1.0
  2
U
 70
     0
 71
     0
 91
       13
 92
        7
 72
     0
 73
     1
 93
        4
 10
4707.536435083158
 20
503.8700708365328
 10
4708.887623616358
 20
503.9599608046913
 10
4708.896729007266
 20
505.2133296186545
 10
4707.536435083158
 20
505.1228338998708
 97
        0
 92
        7
 72
     0
 73
     1
 93
        4
 10
4708.887623616357
 20
503.9599608046912
 10
4707.536435083158
 20
503.8700708365329
 10
4707.536435083158
 20
502.0572177842385
 10
4708.87380069464
 20
502.0572177842386
 97
        0
 92
        7
 72
     0
 73
     1
 93
        4
 10
4708.873800694639
 20
502.0572177842385
 10
4707.536435083158
 20
502.0572177842385
 10
4707.536435083158
 20
482.5572177842385
 10
4708.732138383641
 20
482.5572177842385
 97
        0
 92
        7
 72
     0
 73
     1
 93
        4
 10
4707.536435083159
 20
502.0572177842385
 10
4707.367743444796
 20
502.0572177842384
 10
4707.226028172299
 20
482.5572177842385
 10
4707.536435083158
 20
482.5572177842384
 97
        0
 92
        7
 72
     0
 73
     1
 93
        4
 10
4708.728506016691
 20
482.0572177842386
 10
4708.73213838364
 20
482.5572177842385
 10
4707.536435083158
 20
482.5572177842384
 10
4707.536435083158
 20
482.0572177842386
 97
        0
 92
        7
 72
     0
 73
     1
 93
        4
 10
4708.724873649745
 20
481.5572177842385
 10
4708.728506016693
 20
482.0572177842386
 10
4707.536435083158
 20
482.0572177842386
 10
4707.536435083158
 20
481.5572177842386
 97
        0
 92
        7
 72
     0
 73
     1
 93
        4
 10
4707.536435083158
 20
481.5572177842385
 10
4707.218760722429
 20
481.5572177842385
 10
4707.077045449931
 20
462.0572177842386
 10
4707.536435083158
 20
462.0572177842386
 97
        0
 92
        7
 72
     0
 73
     1
 93
        4
 10
4708.724873649742
 20
481.5572177842385
 10
4707.536435083158
 20
481.5572177842386
 10
4707.536435083158
 20
462.0572177842386
 10
4708.583211338747
 20
462.0572177842386
 97
        0
 92
        7
 72
     0
 73
     1
 93
        4
 10
4707.536435083158
 20
461.0572177842386
 10
4708.575946604849
 20
461.0572177842387
 10
4708.583211338747
 20
462.0572177842386
 10
4707.536435083158
 20
462.0572177842386
 97
        0
 92
        7
 72
     0
 73
     1
 93
        4
 10
4707.536435083158
 20
462.0572177842386
 10
4707.07704544993
 20
462.0572177842387
 10
4707.069778000059
 20
461.0572177842386
 10
4707.536435083158
 20
461.0572177842386
 97
        0
 92
        7
 72
     0
 73
     1
 93
        4
 10
4707.017063716596
 20
453.8037403753609
 10
4707.536435083158
 20
453.8210962973074
 10
4707.536435083158
 20
461.0572177842386
 10
4707.06977800006
 20
461.0572177842386
 97
        0
 92
        7
 72
     0
 73
     1
 93
        4
 10
4708.575946604848
 20
461.0572177842386
 10
4707.536435083158
 20
461.0572177842386
 10
4707.536435083158
 20
453.8210962973074
 10
4708.523617763034
 20
453.8540851500668
 97
        0
 92
        7
 72
     0
 73
     1
 93
        4
 10
4708.518164847455
 20
453.1034842806443
 10
4708.523617763034
 20
453.8540851500668
 10
4707.536435083158
 20
453.8210962973075
 10
4707.536435083158
 20
453.0706776488991
 97
        0
 75
     0
 76
     0
 52
45.0
 41
0.5
 77
     0
 78
     1
 53
45.0
 43
135.122138
 44
-33.741452
 45
-0.3535533905932737
 46
0.3535533905932738
 79
     0
 47
0.110429
 98
       13
 10
4707.944321
 20
504.384887
 10
4708.386287
 20
502.838887
 10
4708.275799
 20
500.851162
 10
4707.391853
 20
485.170268
 10
4708.054809
 20
482.299114
 10
4708.275799
 20
481.746971
 10
4707.391853
 20
465.734792
 10
4708.165311
 20
468.053803
 10
4707.944321
 20
461.538494
 10
4707.391853
 20
461.538494
 10
4707.281365
 20
458.004778
 10
4708.054809
 20
459.440351
 10
4707.944321
 20
453.366767
  0
HATCH
  5
5DD
100
AcDbEntity
  8
TRAMAS
  6
CONTINUOUS
100
AcDbHatch
 10
0.0
 20
0.0
 30
0.0
210
0.0
220
0.0
230
1.0
  2
U
 70
     0
 71
     1
 91
        3
 92
        7
 72
     0
 73
     1
 93
        4
 10
5622.382798413279
 20
1481.818461987215
 10
5619.573415016091
 20
1441.543145257583
 10
5678.770760239288
 20
1445.48134288614
 10
5678.770760239288
 20
1485.569760912954
 97
        4
330
65F
330
626
330
660
330
63A
 92
        7
 72
     0
 73
     1
 93
        4
 10
5678.770760239288
 20
1485.569760912954
 10
5678.770760239288
 20
1445.48134288614
 10
6178.980484319011
 20
1478.758591075646
 10
6178.980484319011
 20
1518.847009102459
 97
        4
330
639
330
65F
330
63A
330
660
 92
        7
 72
     0
 73
     1
 93
        4
 10
6178.980484319009
 20
1478.758591075646
 10
6979.440663949498
 20
1532.010478796115
 10
6979.729598240166
 20
1572.118118636574
 10
6178.98048431901
 20
1518.847009102459
 97
        4
330
635
330
65F
330
639
330
660
 75
     0
 76
     0
 52
45.0
 41
0.5
 77
     0
 78
     1
 53
45.0
 43
135.122138
 44
-33.741452
 45
-0.3535533905932737
 46
0.3535533905932738
 79
     0
 47
0.110429
 98
        3
 10
4680.868957
 20
503.999788
 10
4684.957195
 20
504.66236
 10
4711.365004
 20
506.650085
  0
HATCH
  5
5DE
100
AcDbEntity
  8
TRAMAS
  6
CONTINUOUS
100
AcDbHatch
 10
0.0
 20
0.0
 30
0.0
210
0.0
220
0.0
230
1.0
  2
U
 70
     0
 71
     1
 91
        2
 92
        7
 72
     0
 73
     1
 93
        4
 10
6781.003551454083
 20
1764.782671412506
 10
6801.013314266048
 20
1766.113669638547
 10
6801.160409240956
 20
1786.167650886008
 10
6781.150646428987
 20
1784.836652659966
 97
        4
330
62A
330
64E
330
62E
330
64D
 92
        7
 72
     0
 73
     1
 93
        4
 10
6801.013314266049
 20
1766.113669638547
 10
6781.003551454083
 20
1764.782671412506
 10
6779.492656869145
 20
1558.79703735018
 10
6799.502421024747
 20
1560.128218764624
 97
        4
330
62E
330
64E
330
65F
330
64D
 75
     0
 76
     0
 52
45.0
 41
0.5
 77
     0
 78
     1
 53
45.0
 43
135.122138
 44
-33.741452
 45
-0.3535533905932737
 46
0.3535533905932738
 79
     0
 47
0.110429
 98
        2
 10
4738.214778
 20
519.901539
 10
4738.214778
 20
518.024252
  0
HATCH
  5
5DF
100
AcDbEntity
  8
TRAMAS
  6
CONTINUOUS
100
AcDbHatch
 10
0.0
 20
0.0
 30
0.0
210
0.0
220
0.0
230
1.0
  2
U
 70
     0
 71
     1
 91
        2
 92
        7
 72
     0
 73
     1
 93
        4
 10
6580.686989957012
 20
1751.458126263979
 10
6600.696752768957
 20
1752.789124490019
 10
6600.843847743864
 20
1772.84310573748
 10
6580.834084931915
 20
1771.51210751144
 97
        4
330
62A
330
64F
330
62E
330
650
 92
        7
 72
     0
 73
     1
 93
        4
 10
6600.696752768955
 20
1752.789124490019
 10
6580.686989957008
 20
1751.458126263979
 10
6579.176081920589
 20
1545.470658313269
 10
6599.185846076188
 20
1546.801839727714
 97
        4
330
62E
330
64F
330
65F
330
650
 75
     0
 76
     0
 52
45.0
 41
0.5
 77
     0
 78
     1
 53
45.0
 43
135.122138
 44
-33.741452
 45
-0.3535533905932737
 46
0.3535533905932738
 79
     0
 47
0.110429
 98
        2
 10
4728.380912
 20
519.238967
 10
4728.27041
 20
516.257395
  0
HATCH
  5
5E0
100
AcDbEntity
  8
TRAMAS
  6
CONTINUOUS
100
AcDbHatch
 10
0.0
 20
0.0
 30
0.0
210
0.0
220
0.0
230
1.0
  2
U
 70
     0
 71
     1
 91
        2
 92
        7
 72
     0
 73
     1
 93
        4
 10
6380.370428459932
 20
1738.133581115452
 10
6400.380191271878
 20
1739.464579341492
 10
6400.527286246789
 20
1759.518560588952
 10
6380.517523434839
 20
1758.187562362912
 97
        4
330
62A
330
651
330
62E
330
652
 92
        7
 72
     0
 73
     1
 93
        4
 10
6400.38019127188
 20
1739.464579341493
 10
6380.370428459932
 20
1738.133581115452
 10
6378.859506972014
 20
1532.144279276358
 10
6398.869271127598
 20
1533.475460690802
 97
        4
330
62E
330
651
330
65F
330
652
 75
     0
 76
     0
 52
45.0
 41
0.5
 77
     0
 78
     1
 53
45.0
 43
135.122138
 44
-33.741452
 45
-0.3535533905932737
 46
0.3535533905932738
 79
     0
 47
0.110429
 98
        2
 10
4717.994578
 20
518.576396
 10
4717.994578
 20
517.140824
  0
HATCH
  5
5E1
100
AcDbEntity
  8
TRAMAS
  6
CONTINUOUS
100
AcDbHatch
 10
0.0
 20
0.0
 30
0.0
210
0.0
220
0.0
230
1.0
  2
U
 70
     0
 71
     1
 91
        4
 92
        7
 72
     0
 73
     1
 93
        4
 10
6180.053464812186
 20
1724.809009216891
 10
6190.936449199842
 20
1725.532917493573
 10
6190.936449199843
 20
1745.577114359654
 10
6180.200559787091
 20
1744.862990464352
 97
        4
330
62A
330
636
330
62E
330
63C
 92
        7
 72
     0
 73
     1
 93
        4
 10
6190.936449199839
 20
1725.532917493573
 10
6200.063227624134
 20
1726.140007442932
 10
6200.210322599041
 20
1746.193988690392
 10
6190.936449199842
 20
1745.577114359654
 97
        4
330
62A
330
63C
330
62E
330
637
 92
        7
 72
     0
 73
     1
 93
        4
 10
6200.063227624133
 20
1726.140007442932
 10
6190.936449199842
 20
1725.532917493573
 10
6190.936449199828
 20
1519.642398699124
 10
6198.55229402837
 20
1520.149054900177
 97
        4
330
62E
330
63C
330
65F
330
637
 92
        7
 72
     0
 73
     1
 93
        5
 10
6190.93644919984
 20
1725.532917493572
 10
6180.053464812186
 20
1724.809009216891
 10
6178.98048431901
 20
1578.525761248771
 10
6178.98048431901
 20
1518.847009102458
 10
6190.936449199828
 20
1519.642398699124
 97
        5
330
62E
330
636
330
639
330
65F
330
63C
 75
     0
 76
     0
 52
45.0
 41
0.5
 77
     0
 78
     1
 53
45.0
 43
135.122138
 44
-33.741452
 45
-0.3535533905932737
 46
0.3535533905932738
 79
     0
 47
0.110429
 98
        4
 10
4707.829234
 20
518.134681
 10
4708.381687
 20
517.803395
 10
4708.49219
 20
516.367823
 10
4707.939722
 20
516.367823
  0
HATCH
  5
5E2
100
AcDbEntity
  8
TRAMAS
  6
CONTINUOUS
100
AcDbHatch
 10
0.0
 20
0.0
 30
0.0
210
0.0
220
0.0
230
1.0
  2
U
 70
     0
 71
     1
 91
        2
 92
        7
 72
     0
 73
     1
 93
        4
 10
5979.736903315092
 20
1711.484464068364
 10
5999.746666127042
 20
1712.815462294404
 10
5999.89376110195
 20
1732.869443541864
 10
5979.883998289999
 20
1731.538445315824
 97
        4
330
62A
330
653
330
62E
330
654
 92
        7
 72
     0
 73
     1
 93
        4
 10
5999.746666127041
 20
1712.815462294404
 10
5979.736903315094
 20
1711.484464068364
 10
5978.225954924194
 20
1505.491494448822
 10
5998.235719079795
 20
1506.822675863266
 97
        4
330
62E
330
653
330
65F
330
654
 75
     0
 76
     0
 52
45.0
 41
0.5
 77
     0
 78
     1
 53
45.0
 43
135.122138
 44
-33.741452
 45
-0.3535533905932737
 46
0.3535533905932738
 79
     0
 47
0.110429
 98
        2
 10
4698.105855
 20
517.140824
 10
4698.216343
 20
514.932241
  0
HATCH
  5
5E3
100
AcDbEntity
  8
TRAMAS
  6
CONTINUOUS
100
AcDbHatch
 10
0.0
 20
0.0
 30
0.0
210
0.0
220
0.0
230
1.0
  2
U
 70
     0
 71
     0
 91
        2
 92
        7
 72
     0
 73
     1
 93
        4
 10
4688.566270847451
 20
517.1621492657553
 10
4687.565782706854
 20
517.0955993544533
 10
4687.558427958108
 20
516.0929002920802
 10
4688.558916098705
 20
516.1594502033822
 97
        0
 92
        7
 72
     0
 73
     1
 93
        4
 10
4688.558916098705
 20
516.1594502033823
 10
4687.558427958108
 20
516.0929002920802
 10
4687.482879865989
 20
505.793160116684
 10
4688.48336807377
 20
505.8597191874063
 97
        0
 75
     0
 76
     0
 52
45.0
 41
0.5
 77
     0
 78
     1
 53
45.0
 43
135.122138
 44
-33.741452
 45
-0.3535533905932737
 46
0.3535533905932738
 79
     0
 47
0.110429
 98
        2
 10
4688.271989
 20
516.809538
 10
4688.050999
 20
514.711384
  0
HATCH
  5
5E4
100
AcDbEntity
  8
TRAMAS
  6
CONTINUOUS
100
AcDbHatch
 10
0.0
 20
0.0
 30
0.0
210
0.0
220
0.0
230
1.0
  2
U
 70
     0
 71
     0
 91
       11
 92
        7
 72
     0
 73
     1
 93
        4
 10
4680.428005610251
 20
515.6186028411256
 10
4679.423345467311
 20
515.551775418902
 10
4678.70189000068
 20
505.2089907872392
 10
4679.706550787872
 20
505.2758274454492
 97
        0
 92
        7
 72
     0
 73
     1
 93
        4
 10
4679.706550787871
 20
505.2758274454492
 10
4678.70189000068
 20
505.2089907872391
 10
4678.561420830821
 20
503.1952249507576
 10
4679.566081618012
 20
503.2620616089677
 97
        0
 92
        7
 72
     0
 73
     1
 93
        4
 10
4678.322618070227
 20
485.4357698045139
 10
4679.48203837485
 20
502.0572177842386
 10
4678.482039743368
 20
502.0572177842386
 10
4678.440128446659
 20
501.4563774891014
 97
        0
 92
        7
 72
     0
 73
     1
 93
        4
 10
4678.440128446658
 20
501.4563774891053
 10
4677.121827566441
 20
482.5572177842383
 10
4678.121826197924
 20
482.5572177842385
 10
4678.322618070224
 20
485.4357698044952
 97
        0
 92
        7
 72
     0
 73
     1
 93
        4
 10
4678.086948962618
 20
482.0572177842386
 10
4678.121826197924
 20
482.5572177842384
 10
4677.121827566443
 20
482.5572177842384
 10
4677.086950331135
 20
482.0572177842386
 97
        0
 92
        7
 72
     0
 73
     1
 93
        4
 10
4677.086950331138
 20
482.0572177842387
 10
4677.052073095832
 20
481.5572177842384
 10
4678.052071727312
 20
481.5572177842383
 10
4678.086948962618
 20
482.0572177842386
 97
        0
 92
        7
 72
     0
 73
     1
 93
        4
 10
4675.691860918906
 20
462.0572177842385
 10
4676.691859550387
 20
462.0572177842385
 10
4678.052071727312
 20
481.5572177842384
 10
4677.05207309583
 20
481.5572177842383
 97
        0
 92
        7
 72
     0
 73
     1
 93
        4
 10
4675.691860918906
 20
462.0572177842386
 10
4675.674327475056
 20
461.8058583560069
 10
4676.671649374293
 20
461.7674847260328
 10
4676.691859550387
 20
462.0572177842386
 97
        0
 92
        7
 72
     0
 73
     1
 93
        4
 10
4676.671649374293
 20
461.7674847260328
 10
4675.674327475056
 20
461.8058583560068
 10
4675.235571578323
 20
455.5158543908562
 10
4676.250998545061
 20
455.7370349850384
 97
        0
 92
        7
 72
     0
 73
     1
 93
        4
 10
4675.111513017414
 20
453.7373510229508
 10
4676.112089195512
 20
453.7456307304976
 10
4676.250998545063
 20
455.7370349850385
 10
4675.235571578322
 20
455.5158543908557
 97
        0
 92
        7
 72
     0
 73
     1
 93
        4
 10
4679.482038374849
 20
502.0572177842385
 10
4679.566081618012
 20
503.2620616089676
 10
4678.561420830821
 20
503.1952249507577
 10
4678.482039743368
 20
502.0572177842384
 97
        0
 75
     0
 76
     0
 52
45.0
 41
0.5
 77
     0
 78
     1
 53
45.0
 43
135.122138
 44
-33.741452
 45
-0.3535533905932737
 46
0.3535533905932738
 79
     0
 47
0.110429
 98
       11
 10
4679.826518
 20
513.111971
 10
4679.384552
 20
504.167233
 10
4678.721597
 20
500.743946
 10
4678.058641
 20
487.713339
 10
4677.61666
 20
482.302327
 10
4677.727148
 20
481.860612
 10
4677.39567
 20
479.65203
 10
4676.290748
 20
461.983421
 10
4676.290748
 20
461.099992
 10
4675.51729
 20
454.695113
 10
4679.053074
 20
502.510803
  0
HATCH
  5
5E5
100
AcDbEntity
  8
TRAMAS
  6
CONTINUOUS
100
AcDbHatch
 10
0.0
 20
0.0
 30
0.0
210
0.0
220
0.0
230
1.0
  2
U
 70
     0
 71
     1
 91
        5
 92
        7
 72
     0
 73
     1
 93
        4
 10
5579.250875295831
 20
1704.889355018769
 10
5579.103780320923
 20
1684.835373771309
 10
5599.113543132874
 20
1686.16637199735
 10
5599.260638107783
 20
1706.22035324481
 97
        4
330
62A
330
645
330
62E
330
646
 92
        7
 72
     0
 73
     1
 93
        4
 10
5579.103780320924
 20
1684.835373771309
 10
5577.592805027048
 20
1478.838736374999
 10
5597.602569182665
 20
1480.169917789444
 10
5599.113543132874
 20
1686.16637199735
 97
        4
330
62E
330
645
330
65F
330
646
 92
        7
 72
     0
 73
     1
 93
        4
 10
5577.592805027049
 20
1478.838736374999
 10
5577.298614879193
 20
1438.730746880271
 10
5597.308379034807
 20
1440.061928294717
 10
5597.602569182665
 20
1480.169917789444
 97
        4
330
65F
330
645
330
660
330
646
 92
        7
 72
     0
 73
     1
 93
        4
 10
5577.142494269725
 20
1417.446268763001
 10
5597.142494274554
 20
1417.446268763001
 10
5597.308379034807
 20
1440.061928294717
 10
5577.298614879191
 20
1438.730746880271
 97
        4
330
660
330
645
330
61A
330
646
 92
        7
 72
     0
 73
     1
 93
        4
 10
5574.704140838669
 20
1085.016870600442
 10
5597.054351589023
 20
1405.429462860152
 10
5597.142494274556
 20
1417.446268763001
 10
5577.142494269725
 20
1417.446268763001
 97
        4
330
646
330
61A
330
645
330
622
 75
     0
 76
     0
 52
45.0
 41
0.5
 77
     0
 78
     1
 53
45.0
 43
135.122138
 44
-33.741452
 45
-0.3535533905932737
 46
0.3535533905932738
 79
     0
 47
0.110429
 98
        5
 10
4678.169128
 20
515.651839
 10
4678.169128
 20
514.105828
 10
4677.948138
 20
504.056804
 10
4677.948138
 20
502.510803
 10
4677.83765
 20
500.854374
  0
HATCH
  5
5E6
100
AcDbEntity
  8
TRAMAS
  6
CONTINUOUS
100
AcDbHatch
 10
0.0
 20
0.0
 30
0.0
210
0.0
220
0.0
230
1.0
  2
U
 70
     0
 71
     0
 91
        8
 92
        7
 72
     0
 73
     1
 93
        4
 10
5378.934313798756
 20
1691.564809870242
 10
5378.787218823848
 20
1671.510828622782
 10
5398.796981635799
 20
1672.841826848823
 10
5398.944076610707
 20
1692.895808096283
 97
        0
 92
        7
 72
     0
 73
     1
 93
        4
 10
5378.787218823848
 20
1671.510828622782
 10
5376.923667661798
 20
1417.446268763001
 10
5396.923667666627
 20
1417.446268763001
 10
5398.796981635799
 20
1672.841826848823
 97
        0
 92
        7
 72
     0
 73
     1
 93
        4
 10
5374.063036672569
 20
1027.446268762999
 10
5394.063036677382
 20
1027.446268762999
 10
5396.923667666629
 20
1417.446268763001
 10
5376.923667661799
 20
1417.446268763001
 97
        0
 92
        7
 72
     0
 73
     1
 93
        4
 10
5373.989687160025
 20
1017.446268763003
 10
5393.989687164837
 20
1017.446268763002
 10
5394.063036677382
 20
1027.446268762999
 10
5374.063036672568
 20
1027.446268762999
 97
        0
 92
        7
 72
     0
 73
     1
 93
        4
 10
5373.91633764748
 20
1007.446268762999
 10
5393.916337652292
 20
1007.446268762999
 10
5393.989687164837
 20
1017.446268763003
 10
5373.989687160024
 20
1017.446268763003
 97
        0
 92
        7
 72
     0
 73
     1
 93
        4
 10
5371.055706658251
 20
617.4462687630019
 10
5391.055706663046
 20
617.4462687630019
 10
5393.916337652291
 20
1007.446268762999
 10
5373.916337647481
 20
1007.446268762999
 97
        0
 92
        7
 72
     1
 73
     1
 93
        4
 10
5391.055706663046
 20
617.446268763002
 42
0.0
 10
5371.055706658252
 20
617.4462687630019
 42
0.0
 10
5369.917603891543
 20
462.284669560613
 42
-0.0000095278004164
 10
5389.9219107964
 20
462.8718445696867
 42
0.0
 97
        0
 92
        7
 72
     1
 73
     1
 93
        4
 10
5369.825439057382
 20
449.7195098259402
 42
0.0
 10
5389.826653061443
 20
449.8850186659052
 42
0.0
 10
5389.921910796396
 20
462.8718445696867
 42
0.0000095278004164
 10
5369.917603891543
 20
462.284669560613
 42
0.0
 97
        0
 75
     0
 76
     0
 52
45.0
 41
0.5
 77
     0
 78
     1
 53
45.0
 43
135.122138
 44
-33.741452
 45
-0.3535533905932737
 46
0.3535533905932738
 79
     0
 47
0.110429
 98
        8
 10
4668.224774
 20
515.210124
 10
4668.224774
 20
512.891113
 10
4668.224774
 20
499.529221
 10
4667.893282
 20
482.191898
 10
4667.782794
 20
481.639755
 10
4667.782794
 20
479.210316
 10
4667.782794
 20
458.560124
 10
4667.672306
 20
454.253398
  0
HATCH
  5
5E7
100
AcDbEntity
  8
TRAMAS
  6
CONTINUOUS
100
AcDbHatch
 10
0.0
 20
0.0
 30
0.0
210
0.0
220
0.0
230
1.0
  2
U
 70
     0
 71
     0
 91
        7
 92
        7
 72
     0
 73
     1
 93
        4
 10
5178.615740852322
 20
1678.24013092525
 10
5178.468645877414
 20
1658.186149677791
 10
5198.47840867967
 20
1659.517147903186
 10
5198.625503654576
 20
1679.571129150646
 97
        0
 92
        7
 72
     0
 73
     1
 93
        4
 10
5178.468645877413
 20
1658.18614967779
 10
5176.702830585904
 20
1417.446268763001
 10
5196.70283058106
 20
1417.446268763001
 10
5198.47840867967
 20
1659.517147903186
 97
        0
 92
        7
 72
     0
 73
     1
 93
        4
 10
5176.702830585904
 20
1417.446268763001
 10
5173.842199596672
 20
1027.446268762999
 10
5193.842199591832
 20
1027.446268762999
 10
5196.70283058106
 20
1417.446268763001
 97
        0
 92
        7
 72
     0
 73
     1
 93
        4
 10
5173.842199596673
 20
1027.446268762999
 10
5173.768850084128
 20
1017.446268763002
 10
5193.768850079287
 20
1017.446268763002
 10
5193.842199591832
 20
1027.446268762999
 97
        0
 92
        7
 72
     0
 73
     1
 93
        4
 10
5173.768850084129
 20
1017.446268763002
 10
5173.695500571586
 20
1007.446268762999
 10
5193.695500566743
 20
1007.446268762999
 10
5193.768850079287
 20
1017.446268763003
 97
        0
 92
        7
 72
     0
 73
     1
 93
        4
 10
5170.834869582352
 20
617.4462687630018
 10
5190.834869577516
 20
617.4462687630018
 10
5193.695500566744
 20
1007.446268762999
 10
5173.695500571583
 20
1007.446268762999
 97
        0
 92
        7
 72
     0
 73
     1
 93
        4
 10
5190.834869577514
 20
617.4462687630019
 10
5170.834869582352
 20
617.4462687630019
 10
5169.674487669992
 20
459.247274371939
 10
5189.676029983425
 20
459.4575441083373
 97
        0
 75
     0
 76
     0
 52
45.0
 41
0.5
 77
     0
 78
     1
 53
45.0
 43
135.122138
 44
-33.741452
 45
-0.3535533905932737
 46
0.3535533905932738
 79
     0
 47
0.106433
 98
        7
 10
4658.107746
 20
514.211707
 10
4658.001251
 20
509.52866
 10
4657.788261
 20
498.459619
 10
4657.788261
 20
482.388236
 10
4657.894756
 20
481.962497
 10
4657.894756
 20
480.898168
 10
4657.894756
 20
460.250164
  0
HATCH
  5
5E8
100
AcDbEntity
  8
TRAMAS
  6
CONTINUOUS
100
AcDbHatch
 10
0.0
 20
0.0
 30
0.0
210
0.0
220
0.0
230
1.0
  2
U
 70
     0
 71
     0
 91
        7
 92
        7
 72
     0
 73
     1
 93
        4
 10
4978.298777204557
 20
1664.915559026689
 10
4978.15168222965
 20
1644.861577779229
 10
4998.161445031922
 20
1646.192576004626
 10
4998.30854000683
 20
1666.246557252085
 97
        0
 92
        7
 72
     0
 73
     1
 93
        4
 10
4978.15168222965
 20
1644.861577779229
 10
4976.483602023504
 20
1417.446268763001
 10
4996.483602018673
 20
1417.446268763001
 10
4998.161445031922
 20
1646.192576004626
 97
        0
 92
        7
 72
     0
 73
     1
 93
        4
 10
4976.483602023504
 20
1417.446268763001
 10
4973.622971034277
 20
1027.446268762999
 10
4993.622971029444
 20
1027.446268762999
 10
4996.483602018674
 20
1417.446268763001
 97
        0
 92
        7
 72
     0
 73
     1
 93
        4
 10
4973.622971034277
 20
1027.446268762999
 10
4973.549621521733
 20
1017.446268763002
 10
4993.549621516899
 20
1017.446268763002
 10
4993.622971029442
 20
1027.446268762999
 97
        0
 92
        7
 72
     0
 73
     1
 93
        4
 10
4973.549621521732
 20
1017.446268763002
 10
4973.476272009189
 20
1007.446268762999
 10
4993.476272004354
 20
1007.446268762999
 10
4993.549621516898
 20
1017.446268763002
 97
        0
 92
        7
 72
     0
 73
     1
 93
        4
 10
4970.615641019961
 20
617.4462687630017
 10
4990.615641015125
 20
617.4462687630017
 10
4993.476272004354
 20
1007.446268762999
 10
4973.476272009189
 20
1007.446268762999
 97
        0
 92
        7
 72
     0
 73
     1
 93
        4
 10
4969.440145582072
 20
457.1867936670085
 10
4989.441575693533
 20
457.3817665099809
 10
4990.615641015125
 20
617.4462687630018
 10
4970.615641019961
 20
617.4462687630018
 97
        0
 75
     0
 76
     0
 52
45.0
 41
0.5
 77
     0
 78
     1
 53
45.0
 43
135.122138
 44
-33.741452
 45
-0.3535533905932737
 46
0.3535533905932738
 79
     0
 47
0.106433
 98
        7
 10
4647.988114
 20
513.891689
 10
4647.988114
 20
511.9759
 10
4647.881619
 20
500.161825
 10
4647.775125
 20
482.281079
 10
4647.775125
 20
481.748914
 10
4647.775125
 20
480.471715
 10
4647.45564
 20
460.568736
  0
HATCH
  5
5E9
100
AcDbEntity
  8
TRAMAS
  6
CONTINUOUS
100
AcDbHatch
 10
0.0
 20
0.0
 30
0.0
210
0.0
220
0.0
230
1.0
  2
U
 70
     0
 71
     0
 91
        7
 92
        7
 72
     0
 73
     1
 93
        4
 10
4777.982215707499
 20
1651.591013878163
 10
4777.835120732593
 20
1631.537032630703
 10
4797.844883534847
 20
1632.868030856099
 10
4797.991978509755
 20
1652.922012103559
 97
        0
 92
        7
 72
     0
 73
     1
 93
        4
 10
4777.835120732592
 20
1631.537032630704
 10
4776.2647754156
 20
1417.446268763001
 10
4796.264775410749
 20
1417.446268763001
 10
4797.844883534848
 20
1632.868030856099
 97
        0
 92
        7
 72
     0
 73
     1
 93
        4
 10
4776.264775415598
 20
1417.446268763001
 10
4773.40414442637
 20
1027.446268762999
 10
4793.404144421518
 20
1027.446268762999
 10
4796.26477541075
 20
1417.446268763001
 97
        0
 92
        7
 72
     0
 73
     1
 93
        4
 10
4773.404144426371
 20
1027.446268762999
 10
4773.330794913827
 20
1017.446268763002
 10
4793.330794908974
 20
1017.446268763002
 10
4793.404144421518
 20
1027.446268762999
 97
        0
 92
        7
 72
     0
 73
     1
 93
        4
 10
4773.330794913827
 20
1017.446268763003
 10
4773.257445401283
 20
1007.446268762999
 10
4793.25744539643
 20
1007.446268762999
 10
4793.330794908976
 20
1017.446268763002
 97
        0
 92
        7
 72
     0
 73
     1
 93
        4
 10
4773.257445401283
 20
1007.446268762999
 10
4770.396814412054
 20
617.4462687630017
 10
4790.396814407199
 20
617.4462687630017
 10
4793.25744539643
 20
1007.446268762999
 97
        0
 92
        7
 72
     0
 73
     1
 93
        4
 10
4769.207002163796
 20
455.2349319745198
 10
4789.208432275238
 20
455.429904817492
 10
4790.396814407199
 20
617.4462687630016
 10
4770.396814412054
 20
617.4462687630015
 97
        0
 75
     0
 76
     0
 52
45.0
 41
0.5
 77
     0
 78
     1
 53
45.0
 43
135.122138
 44
-33.741452
 45
-0.3535533905932737
 46
0.3535533905932738
 79
     0
 47
0.106433
 98
        7
 10
4638.190599
 20
513.146665
 10
4638.084104
 20
510.272972
 10
4638.190599
 20
499.523235
 10
4637.658125
 20
482.281079
 10
4637.658125
 20
481.961784
 10
4637.76462
 20
478.662352
 10
4637.871115
 20
460.355876
  0
HATCH
  5
5EA
100
AcDbEntity
  8
TRAMAS
  6
CONTINUOUS
100
AcDbHatch
 10
0.0
 20
0.0
 30
0.0
210
0.0
220
0.0
230
1.0
  2
U
 70
     0
 71
     0
 91
        7
 92
        7
 72
     0
 73
     1
 93
        4
 10
4631.243446561286
 20
513.3491816582155
 10
4630.244120525753
 20
513.2827090471692
 10
4630.254238736756
 20
512.281172241373
 10
4631.253564772287
 20
512.3476448524193
 97
        0
 92
        7
 72
     0
 73
     1
 93
        4
 10
4631.253564772285
 20
512.3476448524193
 10
4630.254238736756
 20
512.281172241373
 10
4630.357528129488
 20
502.0572177842385
 10
4631.357525716879
 20
502.0572177842385
 97
        0
 92
        7
 72
     0
 73
     1
 93
        4
 10
4631.357525716879
 20
502.0572177842385
 10
4630.357528129488
 20
502.0572177842384
 10
4630.554530489653
 20
482.5572177842383
 10
4631.554528077045
 20
482.5572177842384
 97
        0
 92
        7
 72
     0
 73
     1
 93
        4
 10
4631.554528077045
 20
482.5572177842384
 10
4630.554530489653
 20
482.5572177842384
 10
4630.559581832222
 20
482.0572177842384
 10
4631.559579419613
 20
482.0572177842384
 97
        0
 92
        7
 72
     0
 73
     1
 93
        4
 10
4631.559579419612
 20
482.0572177842385
 10
4630.559581832224
 20
482.0572177842385
 10
4630.564633174792
 20
481.5572177842384
 10
4631.564630762182
 20
481.5572177842384
 97
        0
 92
        7
 72
     0
 73
     1
 93
        4
 10
4631.564630762182
 20
481.5572177842384
 10
4630.564633174791
 20
481.5572177842384
 10
4630.761635534956
 20
462.0572177842385
 10
4631.761633122347
 20
462.0572177842385
 97
        0
 92
        7
 72
     0
 73
     1
 93
        4
 10
4631.761633122347
 20
462.0572177842386
 10
4630.761635534956
 20
462.0572177842385
 10
4630.844184968789
 20
453.8861788263777
 10
4631.844084085693
 20
453.895925788091
 97
        0
 75
     0
 76
     0
 52
45.0
 41
0.5
 77
     0
 78
     1
 53
45.0
 43
135.122138
 44
-33.741452
 45
-0.3535533905932737
 46
0.3535533905932738
 79
     0
 47
0.106433
 98
        7
 10
4630.705577
 20
512.719841
 10
4630.705577
 20
509.846148
 10
4631.025061
 20
497.819223
 10
4631.23805
 20
482.279995
 10
4631.025061
 20
481.74783
 10
4631.23805
 20
479.725597
 10
4631.557535
 20
460.035487
  0
TEXT
  5
5FA
100
AcDbEntity
  8
_AA_TEXTOS
100
AcDbText
 10
3916.196498
 20
997.446269
 30
0.0
 40
40.0
  1
COTA +293
 50
0.0
  7
ROMANS
 11
3916.196498
 21
1017.446269
 31
0.0
100
AcDbText
 73
     2
  0
TEXT
  5
5FB
100
AcDbEntity
  8
_AA_TEXTOS
100
AcDbText
 10
3916.196498
 20
597.446269
 30
0.0
 40
40.0
  1
COTA +289
 50
0.0
  7
ROMANS
 11
3916.196498
 21
617.446269
 31
0.0
100
AcDbText
 73
     2
  0
TEXT
  5
5FC
100
AcDbEntity
  8
_AA_TEXTOS
100
AcDbText
 10
3916.196498
 20
1797.446269
 30
0.0
 40
40.0
  1
COTA +301
 50
0.0
  7
ROMANS
 11
3916.196498
 21
1817.446269
 31
0.0
100
AcDbText
 73
     2
  0
TEXT
  5
5FD
100
AcDbEntity
  8
_AA_TEXTOS
100
AcDbText
 10
3916.196498
 20
1397.446269
 30
0.0
 40
40.0
  1
COTA +297
 50
0.0
  7
ROMANS
 11
3916.196498
 21
1417.446269
 31
0.0
100
AcDbText
 73
     2
  0
TEXT
  5
5FE
100
AcDbEntity
  8
TEXTOS
  6
CONTINUOUS
100
AcDbText
 10
4652.639451
 20
438.619633
 30
0.0
 40
2.0
  1
S14
 50
0.0
  7
ROMANS
 72
     1
 11
4655.544213
 21
439.619633
 31
0.0
100
AcDbText
 73
     2
1001
ACAD
1000
MTEXTBEGIN
1070
    73
1070
     1
1070
    44
1040
1.0
1070
    74
1070
     0
1000
MTEXTEND
  0
TEXT
  5
5FF
100
AcDbEntity
  8
TEXTOS
  6
CONTINUOUS
100
AcDbText
 10
4679.668806
 20
438.619633
 30
0.0
 40
2.0
  1
S13
 50
0.0
  7
ROMANS
 72
     1
 11
4682.525949
 21
439.619633
 31
0.0
100
AcDbText
 73
     2
1001
ACAD
1000
MTEXTBEGIN
1070
    73
1070
     1
1070
    44
1040
1.0
1070
    74
1070
     0
1000
MTEXTEND
  0
TEXT
  5
600
100
AcDbEntity
  8
TEXTOS
  6
CONTINUOUS
100
AcDbText
 10
4704.679292
 20
438.619633
 30
0.0
 40
2.0
  1
S12
 50
0.0
  7
ROMANS
 72
     1
 11
4707.536435
 21
439.619633
 31
0.0
100
AcDbText
 73
     2
1001
ACAD
1000
MTEXTBEGIN
1070
    73
1070
     1
1070
    44
1040
1.0
1070
    74
1070
     0
1000
MTEXTEND
  0
TEXT
  5
601
100
AcDbEntity
  8
TEXTOS
  6
CONTINUOUS
100
AcDbText
 10
4749.884489
 20
438.619633
 30
0.0
 40
2.0
  1
S11
 50
0.0
  7
ROMANS
 72
     1
 11
4752.455918
 21
439.619633
 31
0.0
100
AcDbText
 73
     2
1001
ACAD
1000
MTEXTBEGIN
1070
    73
1070
     1
1070
    44
1040
1.0
1070
    74
1070
     0
1000
MTEXTEND
  0
CIRCLE
  5
602
100
AcDbEntity
  8
TEXTOS
  6
CONTINUOUS
100
AcDbCircle
 10
4655.544213
 20
439.619633
 30
0.0
 40
3.734812
  0
CIRCLE
  5
603
100
AcDbEntity
  8
TEXTOS
  6
CONTINUOUS
100
AcDbCircle
 10
4682.525949
 20
439.619633
 30
0.0
 40
3.734812
  0
CIRCLE
  5
604
100
AcDbEntity
  8
TEXTOS
  6
CONTINUOUS
100
AcDbCircle
 10
4707.536435
 20
439.619633
 30
0.0
 40
3.734812
  0
CIRCLE
  5
605
100
AcDbEntity
  8
TEXTOS
  6
CONTINUOUS
100
AcDbCircle
 10
4752.455918
 20
439.619633
 30
0.0
 40
3.734812
  0
LINE
  5
606
100
AcDbEntity
  8
_AA_TEXTOS
100
AcDbLine
 10
7190.840445
 20
1175.176993
 30
0.0
 11
7656.605839
 21
1224.070354
 31
0.0
  0
LINE
  5
607
100
AcDbEntity
  8
_AA_TEXTOS
100
AcDbLine
 10
8415.204569
 20
1224.070354
 30
0.0
 11
7656.605839
 21
1224.070354
 31
0.0
  0
MTEXT
  5
608
100
AcDbEntity
  8
_AA_TEXTOS
100
AcDbMText
 10
8414.712786
 20
1417.259967
 30
0.0
 40
40.0
 41
750.043867
 71
     3
 72
     5
  1
{\Fromans.shx;RESPETAR EL ANGULO DE LOS PERFILES EN EL ALZADO (CORRESPONDE CON LAS TRAMAS DE TODO EL PROYECTO)}
1001
ACAD
1000
MTEXTBEGIN
1070
    73
1070
     1
1070
    44
1040
1.0
1070
    74
1070
     0
1000
MTEXTEND
  0
LINE
  5
609
100
AcDbEntity
  8
BASE
  6
RAYITAS
100
AcDbLine
 10
4333.518381
 20
426.143618
 30
0.0
 11
5675.981749
 21
437.252421
 31
0.0
  0
LINE
  5
60A
100
AcDbEntity
  8
BASE
  6
RAYITAS
100
AcDbLine
 10
5675.438276
 20
437.257771
 30
0.0
 11
5941.64392
 21
429.812599
 31
0.0
  0
POLYLINE
  5
60B
100
AcDbEntity
  8
BASE
  6
RAYITAS
100
AcDb2dPolyline
 66
     1
 10
0.0
 20
0.0
 30
0.0
  0
VERTEX
  5
60C
100
AcDbEntity
  8
BASE
  6
RAYITAS
100
AcDbVertex
100
AcDb2dVertex
 10
7428.985207
 20
479.487088
 30
0.0
  0
VERTEX
  5
60D
100
AcDbEntity
  8
BASE
  6
RAYITAS
100
AcDbVertex
100
AcDb2dVertex
 10
5942.56425
 20
429.815104
 30
0.0
  0
SEQEND
  5
60E
100
AcDbEntity
  8
BASE
  6
RAYITAS
  0
LINE
  5
60F
100
AcDbEntity
  8
BASE
100
AcDbLine
 10
5675.857629
 20
452.251908
 30
0.0
 11
5942.063272
 21
444.806736
 31
0.0
  0
LINE
  5
610
100
AcDbEntity
  8
BASE
100
AcDbLine
 10
4333.394261
 20
441.143104
 30
0.0
 11
5675.857629
 21
452.251908
 31
0.0
  0
POLYLINE
  5
611
100
AcDbEntity
  8
BASE
100
AcDb2dPolyline
 66
     1
 10
0.0
 20
0.0
 30
0.0
  0
VERTEX
  5
612
100
AcDbEntity
  8
BASE
100
AcDbVertex
100
AcDb2dVertex
 10
7428.484229
 20
494.47872
 30
0.0
  0
VERTEX
  5
613
100
AcDbEntity
  8
BASE
100
AcDbVertex
100
AcDb2dVertex
 10
5942.063272
 20
444.806736
 30
0.0
  0
SEQEND
  5
614
100
AcDbEntity
  8
BASE
  0
LINE
  5
615
100
AcDbEntity
  8
BASE
100
AcDbLine
 10
5590.688307
 20
1027.446269
 30
0.0
 11
6975.805798
 21
1027.446269
 31
0.0
1001
ACAD
1000
RTLwPs
1070
   128
  0
LINE
  5
616
100
AcDbEntity
  8
BASE
100
AcDbLine
 10
5589.293217
 20
1007.446269
 30
0.0
 11
6975.661718
 21
1007.446269
 31
0.0
1001
ACAD
1000
RTLwPs
1070
   128
  0
LINE
  5
617
100
AcDbEntity
  8
_AA_TEXTOS
100
AcDbLine
 10
8617.229574
 20
684.839002
 30
0.0
 11
7858.630844
 21
684.839002
 31
0.0
  0
MTEXT
  5
618
100
AcDbEntity
  8
_AA_TEXTOS
100
AcDbMText
 10
8616.737791
 20
818.648525
 30
0.0
 40
40.0
 41
682.982733
 71
     3
 72
     5
  1
{\Fromans.shx;nivel de muro de contención (arranque de estructura)}
1001
ACAD
1000
MTEXTBEGIN
1070
    73
1070
     1
1070
    44
1040
1.0
1070
    74
1070
     0
1000
MTEXTEND
  0
LINE
  5
619
100
AcDbEntity
  8
_AA_TEXTOS
100
AcDbLine
 10
7280.304494
 20
474.518599
 30
0.0
 11
7858.630844
 21
684.839002
 31
0.0
  0
LINE
  5
61A
102
{ACAD_REACTORS
330
5E5
330
5D5
102
}
100
AcDbEntity
  8
_AA_EJES
  6
DASHDOT
100
AcDbLine
 10
4311.00312
 20
1417.446269
 30
0.0
 11
7777.598854
 21
1417.446269
 31
0.0
  0
LINE
  5
61B
100
AcDbEntity
  8
_AA_TEXTOS
100
AcDbLine
 10
7466.093341
 20
1417.446269
 30
0.0
 11
7656.605839
 21
1595.007806
 31
0.0
  0
LINE
  5
61C
100
AcDbEntity
  8
_AA_TEXTOS
100
AcDbLine
 10
8415.204569
 20
1595.007806
 30
0.0
 11
7656.605839
 21
1595.007806
 31
0.0
  0
MTEXT
  5
61D
100
AcDbEntity
  8
_AA_TEXTOS
100
AcDbMText
 10
8414.712786
 20
1787.901141
 30
0.0
 40
40.0
 41
750.043864
 71
     3
 72
     5
  1
{\Fromans.shx;VER PLANTAS PARA DETERMINAR LOS LIMITES DE ESTRUCTURA}
1001
ACAD
1000
MTEXTBEGIN
1070
    73
1070
     1
1070
    44
1040
1.0
1070
    74
1070
     0
1000
MTEXTEND
  0
LINE
  5
61E
100
AcDbEntity
  8
BASE
100
AcDbLine
 10
7420.002701
 20
607.446269
 30
0.0
 11
7421.140742
 21
627.446269
 31
0.0
1001
ACAD
1000
RTLwPs
1070
   128
  0
LINE
  5
61F
102
{ACAD_REACTORS
330
5D5
102
}
100
AcDbEntity
  8
BASE
100
AcDbLine
 10
7465.524321
 20
1407.446269
 30
0.0
 11
7466.662361
 21
1427.446269
 31
0.0
1001
ACAD
1000
RTLwPs
1070
   128
  0
LINE
  5
620
100
AcDbEntity
  8
BASE
100
AcDbLine
 10
7442.763511
 20
1007.446269
 30
0.0
 11
7443.901552
 21
1027.446269
 31
0.0
1001
ACAD
1000
RTLwPs
1070
   128
  0
LINE
  5
621
100
AcDbEntity
  8
BASE
100
AcDbLine
 10
7488.535477
 20
1811.845885
 30
0.0
 11
7489.680366
 21
1831.966237
 31
0.0
1001
ACAD
1000
RTLwPs
1070
   128
  0
POLYLINE
  5
622
102
{ACAD_REACTORS
330
5E5
102
}
100
AcDbEntity
  8
BASE
100
AcDb2dPolyline
 66
     1
 10
0.0
 20
0.0
 30
0.0
1001
ACAD
1000
RTLwPs
1070
   128
  0
VERTEX
  5
623
100
AcDbEntity
  8
BASE
100
AcDbVertex
100
AcDb2dVertex
 10
5529.435086
 20
436.039756
 30
0.0
1001
ACAD
1000
RTLwPs
1070
   128
  0
VERTEX
  5
624
100
AcDbEntity
  8
BASE
100
AcDbVertex
100
AcDb2dVertex
 10
5618.123382
 20
1707.475055
 30
0.0
1001
ACAD
1000
RTLwPs
1070
   128
  0
SEQEND
  5
625
100
AcDbEntity
  8
BASE
1001
ACAD
1000
RTLwPs
1070
   128
  0
POLYLINE
  5
626
102
{ACAD_REACTORS
330
5DD
102
}
100
AcDbEntity
  8
BASE
100
AcDb2dPolyline
 66
     1
 10
0.0
 20
0.0
 30
0.0
1001
ACAD
1000
RTLwPs
1070
   128
  0
VERTEX
  5
627
100
AcDbEntity
  8
BASE
100
AcDbVertex
100
AcDb2dVertex
 10
5549.446609
 20
436.205351
 30
0.0
1001
ACAD
1000
RTLwPs
1070
   128
  0
VERTEX
  5
628
100
AcDbEntity
  8
BASE
100
AcDbVertex
100
AcDb2dVertex
 10
5638.216585
 20
1708.811603
 30
0.0
1001
ACAD
1000
RTLwPs
1070
   128
  0
SEQEND
  5
629
100
AcDbEntity
  8
BASE
1001
ACAD
1000
RTLwPs
1070
   128
  0
POLYLINE
  5
62A
102
{ACAD_REACTORS
330
5E5
330
5E2
330
5E1
330
5E0
330
5DF
330
5DE
330
5D7
330
5D8
102
}
100
AcDbEntity
  8
BASE
100
AcDb2dPolyline
 66
     1
 10
0.0
 20
0.0
 30
0.0
1001
ACAD
1000
RTLwPs
1070
   128
  0
VERTEX
  5
62B
100
AcDbEntity
  8
BASE
100
AcDbVertex
100
AcDb2dVertex
 10
4633.134193
 20
1641.956094
 30
0.0
1001
ACAD
1000
RTLwPs
1070
   128
  0
VERTEX
  5
62C
100
AcDbEntity
  8
BASE
100
AcDbVertex
100
AcDb2dVertex
 10
7489.680366
 20
1831.966237
 30
0.0
1001
ACAD
1000
RTLwPs
1070
   128
  0
SEQEND
  5
62D
100
AcDbEntity
  8
BASE
1001
ACAD
1000
RTLwPs
1070
   128
  0
POLYLINE
  5
62E
102
{ACAD_REACTORS
330
5E5
330
5E2
330
5E1
330
5E0
330
5DF
330
5DE
330
5D7
330
5D8
102
}
100
AcDbEntity
  8
BASE
100
AcDb2dPolyline
 66
     1
 10
0.0
 20
0.0
 30
0.0
1001
ACAD
1000
RTLwPs
1070
   128
  0
VERTEX
  5
62F
100
AcDbEntity
  8
BASE
100
AcDbVertex
100
AcDb2dVertex
 10
4633.336557
 20
1621.925358
 30
0.0
1001
ACAD
1000
RTLwPs
1070
   128
  0
VERTEX
  5
630
100
AcDbEntity
  8
BASE
100
AcDbVertex
100
AcDb2dVertex
 10
7488.535477
 20
1811.845885
 30
0.0
1001
ACAD
1000
RTLwPs
1070
   128
  0
SEQEND
  5
631
100
AcDbEntity
  8
BASE
1001
ACAD
1000
RTLwPs
1070
   128
  0
LINE
  5
632
102
{ACAD_REACTORS
330
5D1
330
5D8
102
}
100
AcDbEntity
  8
BASE
100
AcDbLine
 10
4665.305688
 20
437.17312
 30
0.0
 11
4653.120714
 21
1643.285546
 31
0.0
1001
ACAD
1000
RTLwPs
1070
   128
  0
LINE
  5
633
100
AcDbEntity
  8
BASE
100
AcDbLine
 10
4645.305736
 20
437.17312
 30
0.0
 11
4633.134193
 21
1641.956094
 31
0.0
1001
ACAD
1000
RTLwPs
1070
   128
  0
LINE
  5
634
102
{ACAD_REACTORS
330
5D5
102
}
100
AcDbEntity
  8
BASE
100
AcDbLine
 10
7001.367494
 20
1799.484914
 30
0.0
 11
6991.75301
 21
464.876025
 31
0.0
1001
ACAD
1000
RTLwPs
1070
   128
  0
LINE
  5
635
102
{ACAD_REACTORS
330
5DD
102
}
100
AcDbEntity
  8
BASE
100
AcDbLine
 10
6981.357954
 20
1798.153931
 30
0.0
 11
6971.748242
 21
464.207522
 31
0.0
1001
ACAD
1000
RTLwPs
1070
   128
  0
LINE
  5
636
102
{ACAD_REACTORS
330
5E1
102
}
100
AcDbEntity
  8
BASE
100
AcDbLine
 10
6180.200573
 20
1744.864824
 30
0.0
 11
6178.54253
 21
1518.817873
 31
0.0
1001
ACAD
1000
RTLwPs
1070
   128
  0
LINE
  5
637
102
{ACAD_REACTORS
330
5E1
330
5D7
102
}
100
AcDbEntity
  8
BASE
100
AcDbLine
 10
6200.210336
 20
1746.195823
 30
0.0
 11
6198.552294
 21
1520.149055
 31
0.0
1001
ACAD
1000
RTLwPs
1070
   128
  0
LINE
  5
638
102
{ACAD_REACTORS
330
5D7
330
5D5
102
}
100
AcDbEntity
  8
_AA_EJES
  6
DASHDOT
100
AcDbLine
 10
7077.37014
 20
1953.810249
 30
0.0
 11
7077.37014
 21
279.906337
 31
0.0
1001
ACAD
1000
RTLwPs
1070
   128
  0
LINE
  5
639
102
{ACAD_REACTORS
330
5E1
330
5DD
330
5D7
102
}
100
AcDbEntity
  8
_AA_EJES
  6
DASHDOT
100
AcDbLine
 10
6178.980484
 20
1953.810249
 30
0.0
 11
6178.980484
 21
279.906337
 31
0.0
1001
ACAD
1000
RTLwPs
1070
   128
  0
LINE
  5
63A
102
{ACAD_REACTORS
330
5DD
330
5D8
102
}
100
AcDbEntity
  8
_AA_EJES
  6
DASHDOT
100
AcDbLine
 10
5678.77076
 20
1953.810249
 30
0.0
 11
5678.77076
 21
279.906337
 31
0.0
1001
ACAD
1000
RTLwPs
1070
   128
  0
LINE
  5
63B
102
{ACAD_REACTORS
330
5D8
102
}
100
AcDbEntity
  8
_AA_EJES
  6
DASHDOT
100
AcDbLine
 10
5139.136042
 20
1953.810249
 30
0.0
 11
5139.136042
 21
279.906337
 31
0.0
1001
ACAD
1000
RTLwPs
1070
   128
  0
LINE
  5
63C
102
{ACAD_REACTORS
330
5E1
102
}
100
AcDbEntity
  8
BASE
100
AcDbLine
 10
6190.936449
 20
1519.642399
 30
0.0
 11
6190.936449
 21
1810.720754
 31
0.0
1001
ACAD
1000
RTLwPs
1070
   128
  0
LINE
  5
63D
102
{ACAD_REACTORS
330
5D8
102
}
100
AcDbEntity
  8
BASE
100
AcDbLine
 10
5369.715404
 20
434.718086
 30
0.0
 11
5378.934314
 21
1691.56481
 31
0.0
1001
ACAD
1000
RTLwPs
1070
   128
  0
LINE
  5
63E
102
{ACAD_REACTORS
330
5D8
102
}
100
AcDbEntity
  8
BASE
100
AcDbLine
 10
5389.716618
 20
434.883595
 30
0.0
 11
5398.944077
 21
1692.895808
 31
0.0
1001
ACAD
1000
RTLwPs
1070
   128
  0
LINE
  5
63F
100
AcDbEntity
  8
BASE
100
AcDbLine
 10
6972.924209
 20
627.446269
 30
0.0
 11
7421.140742
 21
627.446269
 31
0.0
1001
ACAD
1000
RTLwPs
1070
   128
  0
LINE
  5
640
100
AcDbEntity
  8
BASE
100
AcDbLine
 10
6972.78013
 20
607.446269
 30
0.0
 11
7420.002701
 21
607.446269
 31
0.0
1001
ACAD
1000
RTLwPs
1070
   128
  0
LINE
  5
641
102
{ACAD_REACTORS
330
5D1
102
}
100
AcDbEntity
  8
BASE
100
AcDbLine
 10
4639.342392
 20
1027.446269
 30
0.0
 11
5590.927596
 21
1027.446269
 31
0.0
1001
ACAD
1000
RTLwPs
1070
   128
  0
LINE
  5
642
102
{ACAD_REACTORS
330
5D1
102
}
100
AcDbEntity
  8
BASE
100
AcDbLine
 10
4639.544446
 20
1007.446269
 30
0.0
 11
5589.532507
 21
1007.446269
 31
0.0
1001
ACAD
1000
RTLwPs
1070
   128
  0
LINE
  5
643
100
AcDbEntity
  8
BASE
100
AcDbLine
 10
6975.805798
 20
1027.446269
 30
0.0
 11
7443.901552
 21
1027.446269
 31
0.0
1001
ACAD
1000
RTLwPs
1070
   128
  0
LINE
  5
644
100
AcDbEntity
  8
BASE
100
AcDbLine
 10
6975.661718
 20
1007.446269
 30
0.0
 11
7442.763511
 21
1007.446269
 31
0.0
1001
ACAD
1000
RTLwPs
1070
   128
  0
LINE
  5
645
102
{ACAD_REACTORS
330
5E5
330
5D8
102
}
100
AcDbEntity
  8
BASE
100
AcDbLine
 10
5574.704141
 20
1085.016871
 30
0.0
 11
5579.250875
 21
1704.889355
 31
0.0
1001
ACAD
1000
RTLwPs
1070
   128
  0
LINE
  5
646
102
{ACAD_REACTORS
330
5E5
330
5D8
102
}
100
AcDbEntity
  8
BASE
100
AcDbLine
 10
5594.704144
 20
1085.017309
 30
0.0
 11
5599.260638
 21
1706.220353
 31
0.0
1001
ACAD
1000
RTLwPs
1070
   128
  0
LINE
  5
647
102
{ACAD_REACTORS
330
5D5
102
}
100
AcDbEntity
  8
BASE
100
AcDbLine
 10
6978.687386
 20
1427.446269
 30
0.0
 11
7466.662361
 21
1427.446269
 31
0.0
1001
ACAD
1000
RTLwPs
1070
   128
  0
LINE
  5
648
102
{ACAD_REACTORS
330
5D5
102
}
100
AcDbEntity
  8
BASE
100
AcDbLine
 10
6978.543307
 20
1407.446269
 30
0.0
 11
7465.524321
 21
1407.446269
 31
0.0
1001
ACAD
1000
RTLwPs
1070
   128
  0
LINE
  5
649
102
{ACAD_REACTORS
330
5D5
102
}
100
AcDbEntity
  8
BASE
100
AcDbLine
 10
7405.091529
 20
1826.339604
 30
0.0
 11
7395.204152
 21
478.358221
 31
0.0
1001
ACAD
1000
RTLwPs
1070
   128
  0
LINE
  5
64A
102
{ACAD_REACTORS
330
5D5
102
}
100
AcDbEntity
  8
BASE
100
AcDbLine
 10
7385.081768
 20
1825.008606
 30
0.0
 11
7375.19925
 21
477.689714
 31
0.0
1001
ACAD
1000
RTLwPs
1070
   128
  0
LINE
  5
64B
102
{ACAD_REACTORS
330
5D5
102
}
100
AcDbEntity
  8
BASE
100
AcDbLine
 10
7184.761361
 20
1811.683805
 30
0.0
 11
7174.92749
 21
470.997198
 31
0.0
1001
ACAD
1000
RTLwPs
1070
   128
  0
LINE
  5
64C
102
{ACAD_REACTORS
330
5D5
102
}
100
AcDbEntity
  8
BASE
100
AcDbLine
 10
7204.771121
 20
1813.014803
 30
0.0
 11
7194.932391
 21
471.665705
 31
0.0
1001
ACAD
1000
RTLwPs
1070
   128
  0
LINE
  5
64D
102
{ACAD_REACTORS
330
5DE
330
5D7
102
}
100
AcDbEntity
  8
BASE
100
AcDbLine
 10
6801.160409
 20
1786.167651
 30
0.0
 11
6799.502421
 21
1560.128219
 31
0.0
1001
ACAD
1000
RTLwPs
1070
   128
  0
LINE
  5
64E
102
{ACAD_REACTORS
330
5DE
330
5D7
102
}
100
AcDbEntity
  8
BASE
100
AcDbLine
 10
6781.150646
 20
1784.836653
 30
0.0
 11
6779.492657
 21
1558.797037
 31
0.0
1001
ACAD
1000
RTLwPs
1070
   128
  0
LINE
  5
64F
102
{ACAD_REACTORS
330
5DF
330
5D7
102
}
100
AcDbEntity
  8
BASE
100
AcDbLine
 10
6580.834085
 20
1771.512108
 30
0.0
 11
6579.176082
 21
1545.470658
 31
0.0
1001
ACAD
1000
RTLwPs
1070
   128
  0
LINE
  5
650
102
{ACAD_REACTORS
330
5DF
330
5D7
102
}
100
AcDbEntity
  8
BASE
100
AcDbLine
 10
6600.843848
 20
1772.843106
 30
0.0
 11
6599.185846
 21
1546.80184
 31
0.0
1001
ACAD
1000
RTLwPs
1070
   128
  0
LINE
  5
651
102
{ACAD_REACTORS
330
5E0
330
5D7
102
}
100
AcDbEntity
  8
BASE
100
AcDbLine
 10
6380.517523
 20
1758.187562
 30
0.0
 11
6378.859507
 21
1532.144279
 31
0.0
1001
ACAD
1000
RTLwPs
1070
   128
  0
LINE
  5
652
102
{ACAD_REACTORS
330
5E0
330
5D7
102
}
100
AcDbEntity
  8
BASE
100
AcDbLine
 10
6400.527286
 20
1759.518561
 30
0.0
 11
6398.869271
 21
1533.475461
 31
0.0
1001
ACAD
1000
RTLwPs
1070
   128
  0
LINE
  5
653
102
{ACAD_REACTORS
330
5E2
330
5D7
102
}
100
AcDbEntity
  8
BASE
100
AcDbLine
 10
5979.883998
 20
1731.538445
 30
0.0
 11
5978.225955
 21
1505.491494
 31
0.0
1001
ACAD
1000
RTLwPs
1070
   128
  0
LINE
  5
654
102
{ACAD_REACTORS
330
5E2
330
5D7
102
}
100
AcDbEntity
  8
BASE
100
AcDbLine
 10
5999.893761
 20
1732.869444
 30
0.0
 11
5998.235719
 21
1506.822676
 31
0.0
1001
ACAD
1000
RTLwPs
1070
   128
  0
LINE
  5
655
102
{ACAD_REACTORS
330
5D8
102
}
100
AcDbEntity
  8
BASE
100
AcDbLine
 10
5779.567437
 20
1718.2139
 30
0.0
 11
5777.90938
 21
1492.165115
 31
0.0
1001
ACAD
1000
RTLwPs
1070
   128
  0
LINE
  5
656
102
{ACAD_REACTORS
330
5D7
102
}
100
AcDbEntity
  8
BASE
100
AcDbLine
 10
5799.5772
 20
1719.544898
 30
0.0
 11
5797.919144
 21
1493.496297
 31
0.0
1001
ACAD
1000
RTLwPs
1070
   128
  0
LINE
  5
657
102
{ACAD_REACTORS
330
5D1
330
5D8
102
}
100
AcDbEntity
  8
BASE
100
AcDbLine
 10
4777.982216
 20
1651.591014
 30
0.0
 11
4769.07452
 21
437.17312
 31
0.0
1001
ACAD
1000
RTLwPs
1070
   128
  0
LINE
  5
658
102
{ACAD_REACTORS
330
5D1
330
5D8
102
}
100
AcDbEntity
  8
BASE
100
AcDbLine
 10
4797.991979
 20
1652.922012
 30
0.0
 11
4789.07452
 21
437.17312
 31
0.0
1001
ACAD
1000
RTLwPs
1070
   128
  0
LINE
  5
659
102
{ACAD_REACTORS
330
5D1
330
5D8
102
}
100
AcDbEntity
  8
BASE
100
AcDbLine
 10
4978.298777
 20
1664.915559
 30
0.0
 11
4969.293346
 21
437.17312
 31
0.0
1001
ACAD
1000
RTLwPs
1070
   128
  0
LINE
  5
65A
102
{ACAD_REACTORS
330
5D1
330
5D8
102
}
100
AcDbEntity
  8
BASE
100
AcDbLine
 10
4998.30854
 20
1666.246557
 30
0.0
 11
4989.293346
 21
437.17312
 31
0.0
1001
ACAD
1000
RTLwPs
1070
   128
  0
LINE
  5
65B
102
{ACAD_REACTORS
330
5D8
102
}
100
AcDbEntity
  8
BASE
100
AcDbLine
 10
5178.615741
 20
1678.240131
 30
0.0
 11
5169.482414
 21
433.06117
 31
0.0
1001
ACAD
1000
RTLwPs
1070
   128
  0
LINE
  5
65C
102
{ACAD_REACTORS
330
5D8
102
}
100
AcDbEntity
  8
BASE
100
AcDbLine
 10
5198.625504
 20
1679.571129
 30
0.0
 11
5189.483628
 21
433.226679
 31
0.0
1001
ACAD
1000
RTLwPs
1070
   128
  0
LINE
  5
65D
100
AcDbEntity
  8
BASE
100
AcDbLine
 10
6168.483958
 20
437.364702
 30
0.0
 11
6176.050819
 21
1478.56369
 31
0.0
1001
ACAD
1000
RTLwPs
1070
   128
  0
LINE
  5
65E
100
AcDbEntity
  8
BASE
100
AcDbLine
 10
6198.61508
 20
438.371599
 30
0.0
 11
6206.186363
 21
1480.568505
 31
0.0
1001
ACAD
1000
RTLwPs
1070
   128
  0
LINE
  5
65F
102
{ACAD_REACTORS
330
5E5
330
5E2
330
5E1
330
5E0
330
5DF
330
5DE
330
5DD
102
}
100
AcDbEntity
  8
BASE
100
AcDbLine
 10
5577.592805
 20
1478.838736
 30
0.0
 11
6999.73914
 21
1573.449285
 31
0.0
1001
ACAD
1000
RTLwPs
1070
   128
  0
LINE
  5
660
102
{ACAD_REACTORS
330
5E5
330
5DD
102
}
100
AcDbEntity
  8
BASE
100
AcDbLine
 10
5577.298615
 20
1438.730747
 30
0.0
 11
6999.450205
 21
1533.341645
 31
0.0
1001
ACAD
1000
RTLwPs
1070
   128
  0
LINE
  5
661
100
AcDbEntity
  8
BASE
100
AcDbLine
 10
5642.233122
 20
1417.995357
 30
0.0
 11
6959.281717
 21
1505.614111
 31
0.0
  0
LINE
  5
662
100
AcDbEntity
  8
BASE
100
AcDbLine
 10
5574.809872
 20
451.415744
 30
0.0
 11
5642.233122
 21
1417.995357
 31
0.0
  0
LINE
  5
663
100
AcDbEntity
  8
_AA_EJES
  6
DASHDOT
100
AcDbLine
 10
4311.00312
 20
1817.446269
 30
0.0
 11
7777.598854
 21
1817.446269
 31
0.0
  0
LINE
  5
664
102
{ACAD_REACTORS
330
5D1
102
}
100
AcDbEntity
  8
JIH-4X2EH
  6
CONTINUOUS
100
AcDbLine
 10
4649.443395
 20
1017.446269
 30
0.0
 11
5579.990776
 21
1017.446269
 31
0.0
210
0.0000000000000004
220
-0.9896155428092512
230
-0.1437396167740514
  0
LINE
  5
665
100
AcDbEntity
  8
BASE
100
AcDbLine
 10
7014.316139
 20
1865.543214
 30
0.0
 11
7011.190979
 21
1865.335114
 31
0.0
  0
LINE
  5
666
100
AcDbEntity
  8
BASE
100
AcDbLine
 10
6891.742048
 20
1857.356528
 30
0.0
 11
6891.670548
 21
1847.446269
 31
0.0
  0
LINE
  5
667
100
AcDbEntity
  8
BASE
100
AcDbLine
 10
7085.69666
 20
987.446269
 30
0.0
 11
7082.891867
 21
597.446269
 31
0.0
  0
LINE
  5
668
100
AcDbEntity
  8
BASE
100
AcDbLine
 10
5320.604596
 20
460.833954
 30
0.0
 11
5100.185684
 21
458.516761
 31
0.0
  0
LINE
  5
669
100
AcDbEntity
  8
BASE
100
AcDbLine
 10
6959.281717
 20
1505.614018
 30
0.0
 11
6951.882792
 21
478.552048
 31
0.0
  0
LINE
  5
66A
102
{ACAD_REACTORS
330
5D5
102
}
100
AcDbEntity
  8
BASE
100
AcDbLine
 10
7475.232681
 20
1896.148854
 30
0.0
 11
7395.411926
 21
493.373537
 31
0.0
  0
POLYLINE
  5
66B
100
AcDbEntity
  8
BASE
100
AcDb2dPolyline
 66
     1
 10
0.0
 20
0.0
 30
0.0
  0
VERTEX
  5
66C
100
AcDbEntity
  8
BASE
100
AcDbVertex
100
AcDb2dVertex
 10
4617.441661
 20
1706.055907
 30
0.0
  0
VERTEX
  5
66D
100
AcDbEntity
  8
BASE
100
AcDbVertex
100
AcDb2dVertex
 10
7475.232453
 20
1896.148838
 30
0.0
  0
SEQEND
  5
66E
100
AcDbEntity
  8
BASE
  0
LINE
  5
66F
100
AcDbEntity
  8
BASE
100
AcDbLine
 10
4630.092011
 20
453.878847
 30
0.0
 11
4617.441661
 21
1706.055907
 31
0.0
  0
POLYLINE
  5
670
100
AcDbEntity
  8
BASE
100
AcDb2dPolyline
 66
     1
 10
0.0
 20
0.0
 30
0.0
  0
VERTEX
  5
671
100
AcDbEntity
  8
BASE
100
AcDbVertex
100
AcDb2dVertex
 10
5011.245539
 20
457.59431
 30
0.0
  0
VERTEX
  5
672
100
AcDbEntity
  8
BASE
100
AcDbVertex
100
AcDb2dVertex
 10
4630.092011
 20
453.878847
 30
0.0
  0
SEQEND
  5
673
100
AcDbEntity
  8
BASE
  0
POLYLINE
  5
674
102
{ACAD_REACTORS
330
5D1
102
}
100
AcDbEntity
  8
BASE
100
AcDb2dPolyline
 66
     1
 10
0.0
 20
0.0
 30
0.0
  0
VERTEX
  5
675
100
AcDbEntity
  8
BASE
100
AcDbVertex
100
AcDb2dVertex
 10
5011.247055
 20
457.594325
 30
0.0
  0
VERTEX
  5
676
100
AcDbEntity
  8
BASE
100
AcDbVertex
100
AcDb2dVertex
 10
5061.555441
 20
1379.360309
 30
0.0
  0
SEQEND
  5
677
100
AcDbEntity
  8
BASE
  0
LINE
  5
678
100
AcDbEntity
  8
BASE
100
AcDbLine
 10
5061.555441
 20
1379.360309
 30
0.0
 11
5138.519789
 21
1384.480664
 31
0.0
  0
LINE
  5
679
100
AcDbEntity
  8
BASE
100
AcDbLine
 10
5138.519789
 20
1384.480664
 30
0.0
 11
5099.729734
 21
447.484484
 31
0.0
  0
LINE
  5
67A
100
AcDbEntity
  8
BASE
100
AcDbLine
 10
7472.461307
 20
1847.446269
 30
0.0
 11
6742.764318
 21
1847.446269
 31
0.0
  0
LINE
  5
67B
102
{ACAD_REACTORS
330
5D7
102
}
100
AcDbEntity
  8
BASE
100
AcDbLine
 10
7469.047345
 20
1787.446269
 30
0.0
 11
5840.883095
 21
1787.446269
 31
0.0
  0
LINE
  5
67C
100
AcDbEntity
  8
BASE
100
AcDbLine
 10
5411.082847
 20
617.446269
 30
0.0
 11
6025.117766
 21
593.820247
 31
0.0
  0
LINE
  5
67D
100
AcDbEntity
  8
BASE
100
AcDbLine
 10
6810.036481
 20
1495.688176
 30
0.0
 11
6810.056434
 21
1495.627543
 31
0.0
  0
LINE
  5
67E
100
AcDbEntity
  8
BASE
100
AcDbLine
 10
6819.741945
 20
1496.275719
 30
0.0
 11
6819.723138
 21
1496.33256
 31
0.0
  0
LINE
  5
67F
100
AcDbEntity
  8
BASE
100
AcDbLine
 10
4611.501888
 20
807.24996
 30
0.0
 11
4611.485264
 21
807.248509
 31
0.0
  0
LINE
  5
680
100
AcDbEntity
  8
BASE
100
AcDbLine
 10
4607.25063
 20
1225.637163
 30
0.0
 11
4607.266414
 21
1225.638576
 31
0.0
  0
LINE
  5
681
100
AcDbEntity
  8
BASE
100
AcDbLine
 10
4606.96299
 20
1255.611399
 30
0.0
 11
4606.947342
 21
1255.609998
 31
0.0
  0
LINE
  5
682
100
AcDbEntity
  8
BASE
100
AcDbLine
 10
6709.51363
 20
1489.000779
 30
0.0
 11
6709.546397
 21
1488.901197
 31
0.0
  0
LINE
  5
683
100
AcDbEntity
  8
BASE
100
AcDbLine
 10
4611.307173
 20
826.484304
 30
0.0
 11
4611.290544
 21
826.482852
 31
0.0
  0
LINE
  5
684
100
AcDbEntity
  8
BASE
100
AcDbLine
 10
4610.987114
 20
856.456351
 30
0.0
 11
4611.003742
 21
856.457803
 31
0.0
  0
LINE
  5
685
100
AcDbEntity
  8
BASE
100
AcDbLine
 10
4607.460606
 20
1204.886539
 30
0.0
 11
4607.476478
 21
1204.887959
 31
0.0
  0
LINE
  5
686
100
AcDbEntity
  8
_AA_PIEDRA
100
AcDbLine
 10
6041.764616
 20
597.446269
 30
0.0
 11
7914.720187
 21
597.446269
 31
0.0
  0
LINE
  5
687
100
AcDbEntity
  8
BASE
100
AcDbLine
 10
5410.12834
 20
463.464178
 30
0.0
 11
5428.039702
 21
463.764531
 31
0.0
  0
ARC
  5
688
100
AcDbEntity
  8
BASE
100
AcDbCircle
 10
20786.807582
 20
-524430.524786
 30
0.0
 40
525119.16925
100
AcDbArc
 50
91.67799
 51
91.697478
  0
LINE
  5
689
100
AcDbEntity
  8
_AA_PIEDRA
100
AcDbLine
 10
5231.602063
 20
458.203895
 30
0.0
 11
4290.444619
 21
442.446269
 31
0.0
  0
LINE
  5
68A
100
AcDbEntity
  8
BASE
100
AcDbLine
 10
6041.764616
 20
597.446269
 30
0.0
 11
5428.039702
 21
463.764531
 31
0.0
  0
LINE
  5
68B
100
AcDbEntity
  8
_AA_EJES
  6
DASHDOT
100
AcDbLine
 10
4311.00312
 20
617.446269
 30
0.0
 11
7777.598854
 21
617.446269
 31
0.0
  0
LINE
  5
801
100
AcDbEntity
  8
TEXTOS
  6
CONTINUOUS
100
AcDbLine
 10
4676.870753
 20
486.628739
 30
0.0
 11
4674.318392
 21
488.328842
 31
0.0
  0
LWPOLYLINE
  5
802
100
AcDbEntity
  8
TEXTOS
  6
CONTINUOUS
100
AcDbPolyline
 90
        4
 70
     1
 43
0.0
 10
4674.601698
 20
488.539244
 10
4674.587029
 20
486.539298
 10
4676.586975
 20
486.524629
 10
4676.601644
 20
488.524575
  0
TEXT
  5
803
100
AcDbEntity
  8
TEXTOS
  6
CONTINUOUS
100
AcDbText
 10
4676.609154
 20
488.927229
 30
0.0
 40
2.0
  1
200.200.8
 50
89.579746
 41
0.7
  7
ROMANS8
 11
4675.609181
 21
488.934564
 31
0.0
100
AcDbText
 73
     2
  0
LINE
  5
804
100
AcDbEntity
  8
TEXTOS
  6
CONTINUOUS
100
AcDbLine
 10
4656.94367
 20
486.628739
 30
0.0
 11
4654.391309
 21
488.328842
 31
0.0
  0
LWPOLYLINE
  5
805
100
AcDbEntity
  8
TEXTOS
  6
CONTINUOUS
100
AcDbPolyline
 90
        4
 70
     1
 43
0.0
 10
4654.674615
 20
488.539244
 10
4654.659946
 20
486.539298
 10
4656.659892
 20
486.524629
 10
4656.674561
 20
488.524575
  0
TEXT
  5
806
100
AcDbEntity
  8
TEXTOS
  6
CONTINUOUS
100
AcDbText
 10
4656.682071
 20
488.927229
 30
0.0
 40
2.0
  1
200.200.8
 50
89.579746
 41
0.7
  7
ROMANS8
 11
4655.682098
 21
488.934564
 31
0.0
100
AcDbText
 73
     2
  0
LWPOLYLINE
  5
807
100
AcDbEntity
  8
TEXTOS
  6
CONTINUOUS
100
AcDbPolyline
 90
        4
 70
     1
 43
0.0
 10
4654.502178
 20
465.030292
 10
4654.487508
 20
463.030346
 10
4656.487455
 20
463.015676
 10
4656.502124
 20
465.015623
  0
TEXT
  5
808
100
AcDbEntity
  8
TEXTOS
  6
CONTINUOUS
100
AcDbText
 10
4656.509634
 20
465.418277
 30
0.0
 40
2.0
  1
200.200.8
 50
89.579746
 41
0.7
  7
ROMANS8
 11
4655.509661
 21
465.425612
 31
0.0
100
AcDbText
 73
     2
  0
LINE
  5
809
100
AcDbEntity
  8
TEXTOS
  6
CONTINUOUS
100
AcDbLine
 10
4656.771233
 20
463.119787
 30
0.0
 11
4654.218872
 21
464.81989
 31
0.0
  0
LWPOLYLINE
  5
80A
100
AcDbEntity
  8
TEXTOS
  6
CONTINUOUS
100
AcDbPolyline
 90
        4
 70
     1
 43
0.0
 10
4673.216996
 20
465.227357
 10
4673.056998
 20
463.233767
 10
4675.050587
 20
463.073768
 10
4675.210586
 20
465.067358
  0
TEXT
  5
80B
100
AcDbEntity
  8
TEXTOS
  6
CONTINUOUS
100
AcDbText
 10
4675.247343
 20
465.468402
 30
0.0
 40
2.0
  1
200.200.8
 50
85.411474
 41
0.7
  7
ROMANS8
 11
4674.250548
 21
465.548401
 31
0.0
100
AcDbText
 73
     2
  0
LINE
  5
80C
100
AcDbEntity
  8
TEXTOS
  6
CONTINUOUS
100
AcDbLine
 10
4675.341183
 20
463.156977
 30
0.0
 11
4672.919147
 21
465.038103
 31
0.0
  0
LINE
  5
861
100
AcDbEntity
  8
JIH-4X2EVS
100
AcDbLine
 10
4655.400179
 20
1102.198567
 30
-583.500868
 11
4645.188437
 21
956.907301
 31
416.797432
210
0.0000000000000004
220
-0.9896155428092512
230
-0.1437396167740514
1001
ACAD
1000
RTLwPs
1070
   128
  0
LINE
  5
866
100
AcDbEntity
  8
JIH-4X2EV
100
AcDbLine
 10
4787.91355
 20
927.640163
 30
618.295219
 11
4778.996091
 21
1102.391443
 31
-584.828781
210
0.0000000000000004
220
-0.9896155428092512
230
-0.1437396167740514
1001
ACAD
1000
RTLwPs
1070
   128
  0
LINE
  5
867
100
AcDbEntity
  8
JIH-4X2EVS
100
AcDbLine
 10
4986.805566
 20
953.641034
 30
439.284959
 11
4979.214917
 21
1102.391443
 31
-584.828781
210
0.0000000000000004
220
-0.9896155428092512
230
-0.1437396167740514
1001
ACAD
1000
RTLwPs
1070
   128
  0
LINE
  5
868
100
AcDbEntity
  8
JIH-4X2EV
100
AcDbLine
 10
5188.547075
 20
923.809629
 30
644.667599
 11
5179.405199
 21
1102.958703
 31
-588.734241
210
0.0000000000000004
220
-0.9896155428092512
230
-0.1437396167740514
1001
ACAD
1000
RTLwPs
1070
   128
  0
LINE
  5
86A
100
AcDbEntity
  8
JIH-4X2EV
100
AcDbLine
 10
5379.638189
 20
1102.720539
 30
-587.094531
 11
5388.865648
 21
921.894345
 31
657.853908
210
0.0000000000000004
220
-0.9896155428092512
230
-0.1437396167740514
1001
ACAD
1000
RTLwPs
1070
   128
  0
LINE
  5
871
100
AcDbEntity
  8
JIH-4X2EV
100
AcDbLine
 10
5789.498771
 20
918.063815
 30
684.226262
 11
5787.528137
 21
956.681395
 31
418.352748
210
0.0000000000000004
220
-0.9896155428092512
230
-0.1437396167740514
1001
ACAD
1000
RTLwPs
1070
   128
  0
LINE
  5
875
100
AcDbEntity
  8
JIH-4X2EV
100
AcDbLine
 10
5989.815332
 20
916.14855
 30
697.412439
 11
5987.844712
 21
954.765866
 31
431.540739
210
0.0000000000000004
220
-0.9896155428092512
230
-0.1437396167740514
1001
ACAD
1000
RTLwPs
1070
   128
  0
LINE
  5
876
100
AcDbEntity
  8
JIH-4X2EV
100
AcDbLine
 10
6189.595403
 20
914.238415
 30
710.563301
 11
6188.170859
 21
942.154551
 31
518.366864
210
0.0000000000000004
220
-0.9896155428092512
230
-0.1437396167740514
1001
ACAD
1000
RTLwPs
1070
   128
  0
LINE
  5
877
100
AcDbEntity
  8
JIH-4X2EV
100
AcDbLine
 10
6390.448857
 20
912.318016
 30
723.78482
 11
6388.478264
 21
950.934805
 31
457.91675
210
0.0000000000000004
220
-0.9896155428092512
230
-0.1437396167740514
1001
ACAD
1000
RTLwPs
1070
   128
  0
LINE
  5
87A
100
AcDbEntity
  8
JIH-4X2EV
100
AcDbLine
 10
6590.765419
 20
910.402751
 30
736.970997
 11
6588.794839
 21
949.019277
 31
471.104741
210
0.0000000000000004
220
-0.9896155428092512
230
-0.1437396167740514
1001
ACAD
1000
RTLwPs
1070
   128
  0
LINE
  5
87B
100
AcDbEntity
  8
JIH-4X2EV
100
AcDbLine
 10
6791.08198
 20
908.487486
 30
750.157174
 11
6789.111414
 21
947.103748
 31
484.292733
210
0.0000000000000004
220
-0.9896155428092512
230
-0.1437396167740514
1001
ACAD
1000
RTLwPs
1070
   128
  0
LINE
  5
87D
100
AcDbEntity
  8
JIH-4X2EVS
100
AcDbLine
 10
6989.891396
 20
934.489147
 30
571.141477
 11
6981.680779
 21
1098.3142
 31
-556.757861
210
0.0000000000000004
220
-0.9896155428092512
230
-0.1437396167740514
1001
ACAD
1000
RTLwPs
1070
   128
  0
LINE
  5
880
100
AcDbEntity
  8
JIH-4X2EV
100
AcDbLine
 10
7194.692693
 20
904.628487
 30
776.725533
 11
7184.853963
 21
1097.433492
 31
-550.694383
210
0.0000000000000004
220
-0.9896155428092512
230
-0.1437396167740514
1001
ACAD
1000
RTLwPs
1070
   128
  0
LINE
  5
881
100
AcDbEntity
  8
JIH-4X2EV
100
AcDbLine
 10
7395.013101
 20
902.713185
 30
789.911963
 11
7385.125724
 21
1096.471513
 31
-544.071365
210
0.0000000000000004
220
-0.9896155428092512
230
-0.1437396167740514
1001
ACAD
1000
RTLwPs
1070
   128
  0
LINE
  5
882
100
AcDbEntity
  8
JIH-4X2EV
100
AcDbLine
 10
5589.182209
 20
919.97908
 30
671.040085
 11
5584.704142
 21
1007.733665
 31
66.869135
210
0.0000000000000004
220
-0.9896155428092512
230
-0.1437396167740514
1001
ACAD
1000
RTLwPs
1070
   128
  0
LINE
  5
888
100
AcDbEntity
  8
_AA_EJES
  6
DASHDOT
100
AcDbLine
 10
4311.00312
 20
217.446269
 30
0.0
 11
7777.598854
 21
217.446269
 31
0.0
  0
LINE
  5
889
100
AcDbEntity
  8
_AA_EJES
  6
DASHDOT
100
AcDbLine
 10
4311.00312
 20
167.446269
 30
0.0
 11
7777.598854
 21
167.446269
 31
0.0
  0
LINE
  5
890
100
AcDbEntity
  8
JIH-250VE
100
AcDbLine
 10
6180.053514
 20
1102.660452
 30
-586.680847
 11
6184.360318
 21
1017.446269
 31
0.0
210
0.0000000000000004
220
-0.9896155428092512
230
-0.1437396167740514
1001
ACAD
1000
RTLwPs
1070
   128
  0
LINE
  5
891
100
AcDbEntity
  8
JIH-PILARES
100
AcDbLine
 10
4658.268654
 20
1164.622668
 30
-841.157546
 11
4655.638156
 21
1127.196291
 31
-583.485203
210
0.0000000000000004
220
-0.9896155428092512
230
-0.1437396167740514
1001
ACAD
1000
RTLwPs
1070
   128
  0
LINE
  5
896
100
AcDbEntity
  8
JIH-PILARES
  6
CONTINUOUS
100
AcDbLine
 10
5128.972323
 20
1125.852233
 30
-574.231662
 11
5117.806088
 21
1164.622668
 31
-841.157546
210
0.0000000000000004
220
-0.9896155428092512
230
-0.1437396167740514
1001
ACAD
1000
RTLwPs
1070
   128
  0
LINE
  5
8A4
100
AcDbEntity
  8
JIH-4X2EH
100
AcDbLine
 10
5608.648875
 20
958.391929
 30
406.576097
 11
6187.624797
 21
952.855468
 31
444.693411
210
0.0000000000000004
220
-0.9896155428092512
230
-0.1437396167740514
  0
LINE
  5
8AD
100
AcDbEntity
  8
JIH-4X2EH
  6
CONTINUOUS
100
AcDbLine
 10
6988.615323
 20
959.950422
 30
395.846217
 11
7392.092318
 21
959.950422
 31
395.846217
210
0.0000000000000004
220
-0.9896155428092512
230
-0.1437396167740514
  0
LINE
  5
8AE
100
AcDbEntity
  8
JIH-4X2EH
  6
CONTINUOUS
100
AcDbLine
 10
6982.852145
 20
1074.942115
 30
-395.846217
 11
7386.224357
 21
1074.942115
 31
-395.846217
210
0.0000000000000004
220
-0.9896155428092512
230
-0.1437396167740514
  0
LINE
  5
8B7
100
AcDbEntity
  8
JIH-VB-AUX
  6
CONTINUOUS
100
AcDbLine
 10
4645.188437
 20
956.907301
 30
416.797432
 11
4645.426413
 21
981.905026
 31
416.813098
  0
LINE
  5
8B8
100
AcDbEntity
  8
JIH-VB-AUX
  6
CONTINUOUS
100
AcDbLine
 10
4786.489005
 20
955.556299
 30
426.098782
 11
4786.726982
 21
980.554024
 31
426.114447
  0
LINE
  5
8BA
100
AcDbEntity
  8
JIH-VB-AUX
  6
CONTINUOUS
100
AcDbLine
 10
4986.805566
 20
953.641034
 30
439.284959
 11
4987.043543
 21
978.638759
 31
439.300624
  0
LINE
  5
8BC
100
AcDbEntity
  8
JIH-VB-AUX
  6
CONTINUOUS
100
AcDbLine
 10
5187.12253
 20
951.725766
 30
452.471162
 11
5187.360507
 21
976.72349
 31
452.486827
  0
LINE
  5
8BD
100
AcDbEntity
  8
JIH-PILARES
100
AcDbLine
 10
4655.638156
 20
1127.196291
 30
-583.485203
 11
4645.426413
 21
981.905026
 31
416.813098
210
0.0000000000000004
220
-0.9896155428092512
230
-0.1437396167740514
1001
ACAD
1000
RTLwPs
1070
   128
  0
LINE
  5
8C2
100
AcDbEntity
  8
JIH-PILARES
  6
CONTINUOUS
100
AcDbLine
 10
5171.880118
 20
976.871501
 30
451.467805
 11
5128.972323
 21
1125.852233
 31
-574.231662
210
0.0000000000000004
220
-0.9896155428092512
230
-0.1437396167740514
1001
ACAD
1000
RTLwPs
1070
   128
  0
LINE
  5
8C3
100
AcDbEntity
  8
JIH-VB-AUX
  6
CONTINUOUS
100
AcDbLine
 10
5387.441103
 20
949.810481
 30
465.657472
 11
5387.67908
 21
974.808206
 31
465.673137
  0
LINE
  5
8C4
100
AcDbEntity
  8
JIH-VB-AUX
  6
CONTINUOUS
100
AcDbLine
 10
5587.757665
 20
947.895216
 30
478.843649
 11
5587.995641
 21
972.892941
 31
478.859314
  0
LINE
  5
8C5
100
AcDbEntity
  8
JIH-VB-AUX
  6
CONTINUOUS
100
AcDbLine
 10
5613.863887
 20
947.64561
 30
480.562135
 11
5614.101864
 21
972.643334
 31
480.5778
  0
LINE
  5
8CE
100
AcDbEntity
  8
JIH-VB-AUX
  6
CONTINUOUS
100
AcDbLine
 10
5788.074226
 20
945.979951
 30
492.029826
 11
5788.312203
 21
970.977676
 31
492.045491
  0
LINE
  5
8CF
100
AcDbEntity
  8
JIH-VB-AUX
  6
CONTINUOUS
100
AcDbLine
 10
5988.390788
 20
944.064686
 30
505.216003
 11
5988.628764
 21
969.062411
 31
505.231668
  0
LINE
  5
8D0
100
AcDbEntity
  8
JIH-VB-AUX
  6
CONTINUOUS
100
AcDbLine
 10
6188.170859
 20
942.154551
 30
518.366864
 11
6188.408836
 21
967.152275
 31
518.382529
  0
LINE
  5
8D1
100
AcDbEntity
  8
JIH-VB-AUX
  6
CONTINUOUS
100
AcDbLine
 10
6389.024313
 20
940.234152
 30
531.588383
 11
6389.26229
 21
965.231877
 31
531.604048
  0
LINE
  5
8D2
100
AcDbEntity
  8
JIH-VB-AUX
  6
CONTINUOUS
100
AcDbLine
 10
6589.340874
 20
938.318887
 30
544.77456
 11
6589.578851
 21
963.316612
 31
544.790225
  0
LINE
  5
8D3
100
AcDbEntity
  8
JIH-VB-AUX
  6
CONTINUOUS
100
AcDbLine
 10
6789.657436
 20
936.403622
 30
557.960737
 11
6789.895413
 21
961.401347
 31
557.976402
  0
LINE
  5
8D4
100
AcDbEntity
  8
JIH-VB-AUX
  6
CONTINUOUS
100
AcDbLine
 10
6989.891396
 20
934.489147
 30
571.141477
 11
6990.129373
 21
959.486872
 31
571.157142
  0
LINE
  5
8D5
100
AcDbEntity
  8
JIH-PILARES
100
AcDbLine
 10
6989.59312
 20
970.186641
 30
497.491594
 11
6981.918755
 21
1123.311925
 31
-556.742196
210
0.0000000000000004
220
-0.9896155428092512
230
-0.1437396167740514
1001
ACAD
1000
RTLwPs
1070
   128
  0
LINE
  5
8D6
100
AcDbEntity
  8
JIH-PILARES
100
AcDbLine
 10
6981.918755
 20
1123.311925
 30
-556.742196
 11
6979.848335
 21
1164.622668
 31
-841.157546
210
0.0000000000000004
220
-0.9896155428092512
230
-0.1437396167740514
1001
ACAD
1000
RTLwPs
1070
   128
  0
LINE
  5
8D7
100
AcDbEntity
  8
JIH-VB-AUX
  6
CONTINUOUS
100
AcDbLine
 10
7193.268149
 20
932.544623
 30
584.529096
 11
7193.506126
 21
957.542348
 31
584.544761
  0
LINE
  5
8D8
100
AcDbEntity
  8
JIH-VB-AUX
  6
CONTINUOUS
100
AcDbLine
 10
7393.588557
 20
930.629321
 30
597.715526
 11
7393.588557
 21
957.542348
 31
597.715526
  0
LINE
  5
8D9
100
AcDbEntity
  8
JIH-PRE
  6
CONTINUOUS
100
AcDbLine
 10
6988.615323
 20
959.950422
 30
395.846217
 11
6988.853299
 21
984.948147
 31
395.861882
  0
LINE
  5
8DA
100
AcDbEntity
  8
JIH-PRE
  6
CONTINUOUS
100
AcDbLine
 10
6985.733734
 20
1017.446269
 30
0.0
 11
6985.971711
 21
1042.443993
 31
0.015665
  0
LINE
  5
8DB
100
AcDbEntity
  8
JIH-PRE
  6
CONTINUOUS
100
AcDbLine
 10
6982.852145
 20
1074.942115
 30
-395.846217
 11
6983.090122
 21
1099.93984
 31
-395.830552
  0
LINE
  5
8DD
100
AcDbEntity
  8
JIH-PRE
  6
CONTINUOUS
100
AcDbLine
 10
5579.990776
 20
1017.446269
 30
0.0
 11
5580.228752
 21
1042.443993
 31
0.015665
  0
LINE
  5
8DE
100
AcDbEntity
  8
JIH-PRE
  6
CONTINUOUS
100
AcDbLine
 10
5538.697663
 20
1102.536961
 30
-585.830639
 11
5538.94156
 21
1128.156537
 31
-585.814584
  0
LINE
  5
8DF
100
AcDbEntity
  8
JIH-PRE
  6
CONTINUOUS
100
AcDbLine
 10
4649.443395
 20
1017.446269
 30
0.0
 11
4649.681372
 21
1042.443993
 31
0.015665
  0
LINE
  5
8E0
100
AcDbEntity
  8
JIH-PRE
  6
CONTINUOUS
100
AcDbLine
 10
4655.400179
 20
1102.198567
 30
-583.500868
 11
4655.638156
 21
1127.196291
 31
-583.485203
  0
LINE
  5
8E2
100
AcDbEntity
  8
JIH-PRE
  6
CONTINUOUS
100
AcDbLine
 10
4965.304426
 20
1125.852233
 30
-574.231662
 11
4979.214917
 21
1102.391443
 31
-584.828781
  0
LINE
  5
8E3
100
AcDbEntity
  8
JIH-PRE
  6
CONTINUOUS
100
AcDbLine
 10
4983.549622
 20
1017.446269
 30
0.0
 11
4997.129537
 21
1042.036277
 31
2.822702
  0
LINE
  5
8F1
100
AcDbEntity
  8
JIH-250V
  6
CONTINUOUS
100
AcDbLine
 10
6184.477058
 20
1127.658177
 30
1.994331
 11
6180.291491
 21
1127.658177
 31
-586.665181
210
-1.0
220
0.0
230
0.0
  0
LINE
  5
8F7
100
AcDbEntity
  8
JIH-250V
  6
CONTINUOUS
100
AcDbLine
 10
5580.235178
 20
1127.396235
 30
0.125444
 11
5538.94156
 21
1128.156537
 31
-585.814584
210
0.0
220
-1.0
230
0.0
  0
LINE
  5
8FD
100
AcDbEntity
  8
JIH-250V
  6
CONTINUOUS
100
AcDbLine
 10
6985.845979
 20
1123.311925
 30
0.0
 11
6981.918755
 21
1123.311925
 31
-556.742196
210
-1.0
220
0.0
230
0.0
  0
LINE
  5
904
100
AcDbEntity
  8
JIH-250T
  6
CONTINUOUS
100
AcDbLine
 10
6989.355143
 20
1123.311925
 30
497.475929
 11
6989.59312
 21
970.186641
 31
497.491594
210
0.0
220
-1.0
230
0.0
  0
LINE
  5
905
100
AcDbEntity
  8
JIH-PILARES
  6
CONTINUOUS
100
AcDbLine
 10
6989.59312
 20
970.186641
 30
497.491594
 11
6990.129373
 21
959.486872
 31
571.157142
210
0.0
220
-1.0
230
0.0
  0
LINE
  5
906
100
AcDbEntity
  8
JIH-250T
  6
CONTINUOUS
100
AcDbLine
 10
5580.228752
 20
1042.443993
 30
0.015665
 11
5580.235178
 21
1127.396235
 31
0.125444
210
0.0
220
-1.0
230
0.0
  0
LINE
  5
907
100
AcDbEntity
  8
JIH-250V
  6
CONTINUOUS
100
AcDbLine
 10
5580.235178
 20
1127.396235
 30
0.125444
 11
5608.880513
 21
1126.868815
 31
406.591345
210
0.0
220
-1.0
230
0.0
  0
LINE
  5
908
100
AcDbEntity
  8
JIH-250T
  6
CONTINUOUS
100
AcDbLine
 10
6985.971711
 20
1042.443993
 30
0.015665
 11
6985.84616
 21
1123.311925
 31
0.025552
210
0.0
220
-1.0
230
0.0
  0
LINE
  5
909
100
AcDbEntity
  8
JIH-250V
  6
CONTINUOUS
100
AcDbLine
 10
6985.84616
 20
1123.311925
 30
0.025552
 11
6989.355143
 21
1123.311925
 31
497.475929
210
0.0
220
-1.0
230
0.0
  0
LINE
  5
90D
100
AcDbEntity
  8
JIH-250VE
  6
CONTINUOUS
100
AcDbLine
 10
6187.624797
 20
952.855468
 30
444.693411
 11
6188.170859
 21
942.154551
 31
518.366864
210
0.0
220
-1.0
230
0.0
  0
LINE
  5
90F
100
AcDbEntity
  8
JIH-250T
  6
CONTINUOUS
100
AcDbLine
 10
6187.624797
 20
1127.658177
 30
444.693411
 11
6187.862774
 21
977.853193
 31
444.709076
210
0.0
220
-1.0
230
0.0
  0
LINE
  5
910
100
AcDbEntity
  8
JIH-250T
  6
CONTINUOUS
100
AcDbLine
 10
6187.862774
 20
977.853193
 30
444.709076
 11
6187.624765
 21
952.855468
 31
444.693409
210
0.0
220
-1.0
230
0.0
  0
LINE
  5
913
100
AcDbEntity
  8
JIH-250H
  6
CONTINUOUS
100
AcDbLine
 10
5580.235178
 20
1127.396235
 30
0.125444
 11
6184.477058
 21
1127.658177
 31
1.994331
210
0.0
220
-1.0
230
0.0
  0
LINE
  5
914
100
AcDbEntity
  8
JIH-250H
  6
CONTINUOUS
100
AcDbLine
 10
6184.477058
 20
1127.658177
 30
1.994331
 11
6985.84616
 21
1123.311925
 31
0.025552
210
0.0
220
-1.0
230
0.0
  0
LINE
  5
915
100
AcDbEntity
  8
JIH-250V
  6
CONTINUOUS
100
AcDbLine
 10
6184.477058
 20
1127.658177
 30
1.994331
 11
6187.624797
 21
1127.658177
 31
444.693411
210
0.0
220
-1.0
230
0.0
  0
LINE
  5
91A
100
AcDbEntity
  8
JIH-250T
  6
CONTINUOUS
100
AcDbLine
 10
5608.880513
 20
1126.868815
 30
406.591345
 11
5608.886852
 21
983.389654
 31
406.591763
210
0.0
220
-1.0
230
0.0
  0
LINE
  5
91B
100
AcDbEntity
  8
JIH-PRE
  6
CONTINUOUS
100
AcDbLine
 10
5608.886852
 20
983.389654
 30
406.591763
 11
5608.648875
 21
958.391929
 31
406.576097
210
0.0
220
-1.0
230
0.0
  0
LINE
  5
91C
100
AcDbEntity
  8
JIH-PILARES
  6
CONTINUOUS
100
AcDbLine
 10
5608.886852
 20
983.389654
 30
406.591763
 11
5614.101864
 21
972.643334
 31
480.5778
210
0.0
220
-1.0
230
0.0
  0
LINE
  5
91D
100
AcDbEntity
  8
JIH-PRE
  6
CONTINUOUS
100
AcDbLine
 10
6989.59312
 20
970.186641
 30
497.491594
 11
6989.355143
 21
945.188916
 31
497.475929
210
0.0
220
-1.0
230
0.0
  0
LINE
  5
91E
100
AcDbEntity
  8
JIH-250T
  6
CONTINUOUS
100
AcDbLine
 10
6184.477058
 20
1127.658177
 30
1.994331
 11
6184.360318
 21
1017.446269
 31
0.0
210
0.0
220
-1.0
230
0.0
  0
LINE
  5
930
100
AcDbEntity
  8
JIH-4X2EH
  6
CONTINUOUS
100
AcDbLine
 10
6985.733734
 20
1017.446269
 30
0.0
 11
7389.158337
 21
1017.446269
 31
0.0
210
0.0000000000000004
220
-0.9896155428092512
230
-0.1437396167740514
  0
LINE
  5
931
100
AcDbEntity
  8
JIH-250HE
  6
CONTINUOUS
100
AcDbLine
 10
5579.990776
 20
1017.446269
 30
0.0
 11
6184.360318
 21
1017.446269
 31
0.0
210
0.0
220
-1.0
230
0.0
  0
LINE
  5
932
100
AcDbEntity
  8
JIH-250HE
  6
CONTINUOUS
100
AcDbLine
 10
6184.360318
 20
1017.446269
 30
0.0
 11
6985.733734
 21
1017.446269
 31
0.0
210
0.0
220
-1.0
230
0.0
  0
LINE
  5
941
100
AcDbEntity
  8
JIH-250H
  6
CONTINUOUS
100
AcDbLine
 10
5608.880513
 20
1126.868815
 30
406.591345
 11
6187.624797
 21
1127.658177
 31
444.693411
210
0.0
220
-1.0
230
0.0
  0
LINE
  5
942
100
AcDbEntity
  8
JIH-250H
  6
CONTINUOUS
100
AcDbLine
 10
6187.624797
 20
1127.658177
 30
444.693411
 11
6989.355143
 21
1123.311925
 31
497.475929
210
0.0
220
-1.0
230
0.0
  0
LINE
  5
945
100
AcDbEntity
  8
JIH-PILARES
  6
CONTINUOUS
100
AcDbLine
 10
4950.583203
 20
1164.622668
 30
-841.157546
 11
4965.304426
 21
1125.852233
 31
-574.231662
210
0.0
220
-1.0
230
0.0
  0
LINE
  5
948
100
AcDbEntity
  8
JIH-PILARES
  6
CONTINUOUS
100
AcDbLine
 10
5021.32618
 20
978.310976
 30
441.557337
 11
4997.129537
 21
1042.036277
 31
2.822702
210
0.0
220
-1.0
230
0.0
  0
LINE
  5
949
100
AcDbEntity
  8
JIH-PILARES
  6
CONTINUOUS
100
AcDbLine
 10
4997.129537
 20
1042.036277
 30
2.822702
 11
4965.304426
 21
1125.852233
 31
-574.231662
210
0.0
220
-1.0
230
0.0
  0
LINE
  5
94A
100
AcDbEntity
  8
JIH-PILARES
  6
CONTINUOUS
100
AcDbLine
 10
5520.937452
 20
1164.622668
 30
-841.157546
 11
5538.94156
 21
1128.156537
 31
-585.814584
210
0.0
220
-1.0
230
0.0
  0
LINE
  5
94B
100
AcDbEntity
  8
JIH-PILARES
  6
CONTINUOUS
100
AcDbLine
 10
5538.94156
 20
1128.156537
 30
-585.814584
 11
5580.228752
 21
1042.443993
 31
0.015665
210
0.0
220
-1.0
230
0.0
  0
LINE
  5
94C
100
AcDbEntity
  8
JIH-PILARES
  6
CONTINUOUS
100
AcDbLine
 10
5580.228752
 20
1042.443993
 30
0.015665
 11
5608.886852
 21
983.389654
 31
406.591763
210
0.0
220
-1.0
230
0.0
  0
LINE
  5
94D
100
AcDbEntity
  8
JIH-4X2EVS
  6
CONTINUOUS
100
AcDbLine
 10
5538.697663
 20
1102.536961
 30
-585.830639
 11
5579.990776
 21
1017.446269
 31
0.0
210
0.0
220
-1.0
230
0.0
  0
LINE
  5
94E
100
AcDbEntity
  8
JIH-4X2EVS
  6
CONTINUOUS
100
AcDbLine
 10
5584.704142
 20
1007.733665
 30
66.869135
 11
5608.648875
 21
958.391929
 31
406.576097
210
0.0
220
-1.0
230
0.0
  0
LINE
  5
94F
100
AcDbEntity
  8
JIH-4X2EV
  6
CONTINUOUS
100
AcDbLine
 10
5608.648875
 20
958.391929
 30
406.576097
 11
5613.863887
 21
947.64561
 31
480.562135
210
0.0
220
-1.0
230
0.0
  0
LINE
  5
950
100
AcDbEntity
  8
JIH-4X2EV
  6
CONTINUOUS
100
AcDbLine
 10
5613.863887
 20
947.64561
 30
480.562135
 11
5627.467638
 21
919.613026
 31
673.560289
210
0.0
220
-1.0
230
0.0
  0
LINE
  5
952
100
AcDbEntity
  8
JIH-VB
  6
CONTINUOUS
100
AcDbLine
 10
4645.426413
 20
981.905026
 30
416.813098
 11
4786.726982
 21
980.554024
 31
426.114447
210
0.0
220
-1.0
230
0.0
  0
LINE
  5
953
100
AcDbEntity
  8
JIH-VB
  6
CONTINUOUS
100
AcDbLine
 10
4786.726982
 20
980.554024
 30
426.114447
 11
4987.043543
 21
978.638759
 31
439.300624
210
0.0
220
-1.0
230
0.0
  0
LINE
  5
954
100
AcDbEntity
  8
JIH-VB
  6
CONTINUOUS
100
AcDbLine
 10
4987.043543
 20
978.638759
 30
439.300624
 11
5021.32618
 21
978.310976
 31
441.557337
210
0.0
220
-1.0
230
0.0
  0
LINE
  5
955
100
AcDbEntity
  8
JIH-VB
  6
CONTINUOUS
100
AcDbLine
 10
5021.32618
 20
978.310976
 30
441.557337
 11
5171.880118
 21
976.871501
 31
451.467805
210
0.0
220
-1.0
230
0.0
  0
LINE
  5
956
100
AcDbEntity
  8
JIH-VB
  6
CONTINUOUS
100
AcDbLine
 10
5171.880118
 20
976.871501
 30
451.467805
 11
5187.360507
 21
976.72349
 31
452.486827
210
0.0
220
-1.0
230
0.0
  0
LINE
  5
957
100
AcDbEntity
  8
JIH-VB
  6
CONTINUOUS
100
AcDbLine
 10
5187.360507
 20
976.72349
 30
452.486827
 11
5387.67908
 21
974.808206
 31
465.673137
210
0.0
220
-1.0
230
0.0
  0
LINE
  5
958
100
AcDbEntity
  8
JIH-VB
  6
CONTINUOUS
100
AcDbLine
 10
5387.67908
 20
974.808206
 30
465.673137
 11
5587.995641
 21
972.892941
 31
478.859314
210
0.0
220
-1.0
230
0.0
  0
LINE
  5
959
100
AcDbEntity
  8
JIH-VB
  6
CONTINUOUS
100
AcDbLine
 10
5587.995641
 20
972.892941
 30
478.859314
 11
5614.101864
 21
972.643334
 31
480.5778
210
0.0
220
-1.0
230
0.0
  0
LINE
  5
95A
100
AcDbEntity
  8
JIH-VB
  6
CONTINUOUS
100
AcDbLine
 10
5614.101864
 20
972.643334
 30
480.5778
 11
5788.312203
 21
970.977676
 31
492.045491
210
0.0
220
-1.0
230
0.0
  0
LINE
  5
95B
100
AcDbEntity
  8
JIH-VB
  6
CONTINUOUS
100
AcDbLine
 10
5788.312203
 20
970.977676
 30
492.045491
 11
5988.628764
 21
969.062411
 31
505.231668
210
0.0
220
-1.0
230
0.0
  0
LINE
  5
95C
100
AcDbEntity
  8
JIH-VB
  6
CONTINUOUS
100
AcDbLine
 10
5988.628764
 20
969.062411
 30
505.231668
 11
6188.408836
 21
967.152275
 31
518.382529
210
0.0
220
-1.0
230
0.0
  0
LINE
  5
95D
100
AcDbEntity
  8
JIH-VB
  6
CONTINUOUS
100
AcDbLine
 10
6188.408836
 20
967.152275
 30
518.382529
 11
6389.26229
 21
965.231877
 31
531.604048
210
0.0
220
-1.0
230
0.0
  0
LINE
  5
95E
100
AcDbEntity
  8
JIH-VB
  6
CONTINUOUS
100
AcDbLine
 10
6389.26229
 20
965.231877
 30
531.604048
 11
6589.578851
 21
963.316612
 31
544.790225
210
0.0
220
-1.0
230
0.0
  0
LINE
  5
95F
100
AcDbEntity
  8
JIH-VB
  6
CONTINUOUS
100
AcDbLine
 10
6589.578851
 20
963.316612
 30
544.790225
 11
6789.895413
 21
961.401347
 31
557.976402
210
0.0
220
-1.0
230
0.0
  0
LINE
  5
960
100
AcDbEntity
  8
JIH-VB
  6
CONTINUOUS
100
AcDbLine
 10
6789.895413
 20
961.401347
 30
557.976402
 11
6990.129373
 21
959.486872
 31
571.157142
210
0.0
220
-1.0
230
0.0
  0
LINE
  5
961
100
AcDbEntity
  8
JIH-VB
  6
CONTINUOUS
100
AcDbLine
 10
6990.129373
 20
959.486872
 30
571.157142
 11
7193.506126
 21
957.542348
 31
584.544761
210
0.0
220
-1.0
230
0.0
  0
LINE
  5
962
100
AcDbEntity
  8
JIH-VB
  6
CONTINUOUS
100
AcDbLine
 10
7193.506126
 20
957.542348
 30
584.544761
 11
7393.588557
 21
957.542348
 31
597.715526
210
0.0
220
-1.0
230
0.0
  0
LINE
  5
964
100
AcDbEntity
  8
JIH-4X2EH
  6
CONTINUOUS
100
AcDbLine
 10
4643.228636
 20
929.023523
 30
608.771089
 11
4787.91355
 21
927.640163
 31
618.295219
210
0.0
220
-1.0
230
0.0
  0
LINE
  5
965
100
AcDbEntity
  8
JIH-4X2EH
  6
CONTINUOUS
100
AcDbLine
 10
4787.91355
 20
927.640163
 30
618.295219
 11
4988.230111
 21
925.724898
 31
631.481396
210
0.0
220
-1.0
230
0.0
  0
LINE
  5
966
100
AcDbEntity
  8
JIH-4X2EH
  6
CONTINUOUS
100
AcDbLine
 10
4988.230111
 20
925.724898
 30
631.481396
 11
5188.547075
 21
923.809629
 31
644.667599
210
0.0
220
-1.0
230
0.0
  0
LINE
  5
967
100
AcDbEntity
  8
JIH-4X2EH
  6
CONTINUOUS
100
AcDbLine
 10
5188.547075
 20
923.809629
 30
644.667599
 11
5388.865648
 21
921.894345
 31
657.853908
210
0.0
220
-1.0
230
0.0
  0
LINE
  5
968
100
AcDbEntity
  8
JIH-4X2EH
  6
CONTINUOUS
100
AcDbLine
 10
5388.865648
 20
921.894345
 30
657.853908
 11
5589.182209
 21
919.97908
 31
671.040085
210
0.0
220
-1.0
230
0.0
  0
LINE
  5
969
100
AcDbEntity
  8
JIH-4X2EH
  6
CONTINUOUS
100
AcDbLine
 10
5589.182209
 20
919.97908
 30
671.040085
 11
5627.467638
 21
919.613026
 31
673.560289
210
0.0
220
-1.0
230
0.0
  0
LINE
  5
96A
100
AcDbEntity
  8
JIH-4X2EH
  6
CONTINUOUS
100
AcDbLine
 10
5627.467638
 20
919.613026
 30
673.560289
 11
5789.498771
 21
918.063815
 31
684.226262
210
0.0
220
-1.0
230
0.0
  0
LINE
  5
96B
100
AcDbEntity
  8
JIH-4X2EH
  6
CONTINUOUS
100
AcDbLine
 10
5789.498771
 20
918.063815
 30
684.226262
 11
5989.815332
 21
916.14855
 31
697.412439
210
0.0
220
-1.0
230
0.0
  0
LINE
  5
96C
100
AcDbEntity
  8
JIH-4X2EH
  6
CONTINUOUS
100
AcDbLine
 10
5989.815332
 20
916.14855
 30
697.412439
 11
6189.595403
 21
914.238415
 31
710.563301
210
0.0
220
-1.0
230
0.0
  0
LINE
  5
96D
100
AcDbEntity
  8
JIH-4X2EH
  6
CONTINUOUS
100
AcDbLine
 10
6189.595403
 20
914.238415
 30
710.563301
 11
6390.448857
 21
912.318016
 31
723.78482
210
0.0
220
-1.0
230
0.0
  0
LINE
  5
96E
100
AcDbEntity
  8
JIH-4X2EH
  6
CONTINUOUS
100
AcDbLine
 10
6390.448857
 20
912.318016
 30
723.78482
 11
6590.765419
 21
910.402751
 31
736.970997
210
0.0
220
-1.0
230
0.0
  0
LINE
  5
96F
100
AcDbEntity
  8
JIH-4X2EH
  6
CONTINUOUS
100
AcDbLine
 10
6590.765419
 20
910.402751
 30
736.970997
 11
6791.08198
 21
908.487486
 31
750.157174
210
0.0
220
-1.0
230
0.0
  0
LINE
  5
970
100
AcDbEntity
  8
JIH-4X2EH
  6
CONTINUOUS
100
AcDbLine
 10
6791.08198
 20
908.487486
 30
750.157174
 11
6991.29049
 21
906.573254
 31
763.336238
210
0.0
220
-1.0
230
0.0
  0
LINE
  5
971
100
AcDbEntity
  8
JIH-4X2EH
  6
CONTINUOUS
100
AcDbLine
 10
6991.29049
 20
906.573254
 30
763.336238
 11
7194.692693
 21
904.628487
 31
776.725533
210
0.0
220
-1.0
230
0.0
  0
LINE
  5
972
100
AcDbEntity
  8
JIH-4X2EH
  6
CONTINUOUS
100
AcDbLine
 10
7194.692693
 20
904.628487
 30
776.725533
 11
7395.013101
 21
902.713185
 31
789.911963
210
0.0
220
-1.0
230
0.0
  0
LINE
  5
976
100
AcDbEntity
  8
JIH-PRE
  6
CONTINUOUS
100
AcDbLine
 10
6981.680779
 20
1098.3142
 30
-556.757861
 11
6981.918755
 21
1123.311925
 31
-556.742196
  0
INSERT
  5
988
100
AcDbEntity
  8
JIH-4X2EH
  6
CONTINUOUS
100
AcDbBlockReference
  2
111111
 10
4658.268654
 20
1164.622668
 30
-841.157546
  0
INSERT
  5
989
100
AcDbEntity
  8
JIH-4X2EH
  6
CONTINUOUS
100
AcDbBlockReference
  2
111111
 10
4950.583203
 20
1164.622668
 30
-841.157546
  0
INSERT
  5
98A
100
AcDbEntity
  8
JIH-4X2EH
  6
CONTINUOUS
100
AcDbBlockReference
  2
111111
 10
5117.806088
 20
1164.622668
 30
-841.157546
  0
INSERT
  5
98B
100
AcDbEntity
  8
JIH-4X2EH
  6
CONTINUOUS
100
AcDbBlockReference
  2
111111
 10
5520.937452
 20
1164.622668
 30
-841.157546
  0
INSERT
  5
98C
100
AcDbEntity
  8
JIH-4X2EH
  6
CONTINUOUS
100
AcDbBlockReference
  2
111111
 10
6979.848335
 20
1164.622668
 30
-841.157546
  0
INSERT
  5
992
100
AcDbEntity
  8
JIH-4X2EH
  6
CONTINUOUS
100
AcDbBlockReference
  2
110000
 10
4778.996091
 20
1102.391443
 30
-584.828781
  0
INSERT
  5
993
100
AcDbEntity
  8
JIH-4X2EH
  6
CONTINUOUS
100
AcDbBlockReference
  2
110000
 10
5179.405199
 20
1102.958703
 30
-588.734241
  0
INSERT
  5
994
100
AcDbEntity
  8
JIH-4X2EH
  6
CONTINUOUS
100
AcDbBlockReference
  2
110000
 10
5379.638189
 20
1102.720539
 30
-587.094531
  0
INSERT
  5
995
100
AcDbEntity
  8
JIH-4X2EH
  6
CONTINUOUS
100
AcDbBlockReference
  2
110000
 10
6180.053514
 20
1102.660452
 30
-586.680847
  0
INSERT
  5
996
100
AcDbEntity
  8
JIH-4X2EH
  6
CONTINUOUS
100
AcDbBlockReference
  2
110000
 10
6180.291491
 20
1127.658177
 30
-586.665181
  0
INSERT
  5
997
100
AcDbEntity
  8
JIH-4X2EH
  6
CONTINUOUS
100
AcDbBlockReference
  2
110000
 10
7184.853963
 20
1097.433492
 30
-550.694383
  0
INSERT
  5
998
100
AcDbEntity
  8
JIH-4X2EH
  6
CONTINUOUS
100
AcDbBlockReference
  2
110000
 10
7385.125724
 20
1096.471513
 30
-544.071365
  0
LINE
  5
99A
100
AcDbEntity
  8
CC
100
AcDbLine
 10
5520.937452
 20
772.075973
 30
-841.157546
 11
5582.506619
 21
772.075973
 31
-841.157546
  0
LINE
  5
99B
100
AcDbEntity
  8
CC
100
AcDbLine
 10
5520.937452
 20
831.501187
 30
-841.157546
 11
5520.937452
 21
783.583338
 31
-841.157546
  0
LINE
  5
99C
100
AcDbEntity
  8
CC
100
AcDbLine
 10
5459.368286
 20
772.075973
 30
-841.157546
 11
5520.937452
 21
772.075973
 31
-841.157546
  0
LINE
  5
99D
100
AcDbEntity
  8
CC
100
AcDbLine
 10
5459.368286
 20
819.993823
 30
-841.157546
 11
5459.368286
 21
772.075973
 31
-841.157546
  0
LINE
  5
99E
100
AcDbEntity
  8
CC
100
AcDbLine
 10
5582.506619
 20
819.993823
 30
-841.157546
 11
5582.506619
 21
772.075973
 31
-841.157546
  0
LINE
  5
9A7
100
AcDbEntity
  8
CC
100
AcDbLine
 10
6374.063062
 20
41.011342
 30
0.0
 11
6497.201395
 21
41.011342
 31
0.0
  0
LINE
  5
9A8
100
AcDbEntity
  8
CC
100
AcDbLine
 10
6374.063062
 20
136.847041
 30
0.0
 11
6374.063062
 21
41.011342
 31
0.0
  0
LINE
  5
9A9
100
AcDbEntity
  8
CC
100
AcDbLine
 10
5520.937452
 20
772.075973
 30
-841.157546
 11
5520.937452
 21
724.158124
 31
-841.157546
  0
INSERT
  5
9B7
100
AcDbEntity
  8
JIH-4X2EH
  6
CONTINUOUS
100
AcDbBlockReference
  2
110X00
 10
4645.426413
 20
981.905026
 30
416.813098
  0
INSERT
  5
9B8
100
AcDbEntity
  8
JIH-4X2EH
  6
CONTINUOUS
100
AcDbBlockReference
  2
110X00
 10
6188.408836
 20
967.152275
 30
518.382529
  0
INSERT
  5
9B9
100
AcDbEntity
  8
JIH-4X2EH
  6
CONTINUOUS
100
AcDbBlockReference
  2
110X00
 10
7393.588557
 20
957.542348
 30
597.715526
  0
LINE
  5
9BF
100
AcDbEntity
  8
JIH-4X2EH
100
AcDbLine
 10
6388.478264
 20
950.934805
 30
457.91675
 11
6989.355143
 21
945.188916
 31
497.475929
210
0.0000000000000004
220
-0.9896155428092512
230
-0.1437396167740514
  0
LINE
  5
9C0
100
AcDbEntity
  8
JIH-4X2EH
  6
CONTINUOUS
100
AcDbLine
 10
6187.624797
 20
952.855468
 30
444.693411
 11
6388.478264
 21
950.934805
 31
457.91675
  0
LINE
  5
9C5
100
AcDbEntity
  8
JIH-250VE
  6
CONTINUOUS
100
AcDbLine
 10
6187.624765
 20
952.855468
 30
444.693409
 11
6184.360318
 21
1017.446269
 31
0.0
  0
LINE
  5
9DC
100
AcDbEntity
  8
JIH-4X2EV
  6
CONTINUOUS
100
AcDbLine
 10
4645.188437
 20
956.907301
 30
416.797432
 11
4643.228636
 21
929.023523
 31
608.771089
  0
LINE
  5
9DD
100
AcDbEntity
  8
JIH-4X2EV
  6
CONTINUOUS
100
AcDbLine
 10
4986.805566
 20
953.641034
 30
439.284959
 11
4988.230111
 21
925.724898
 31
631.481396
  0
LINE
  5
9DE
100
AcDbEntity
  8
JIH-4X2EV
  6
CONTINUOUS
100
AcDbLine
 10
6989.891396
 20
934.489147
 30
571.141477
 11
6991.29049
 21
906.573254
 31
763.336238
  0
LINE
  5
9E1
100
AcDbEntity
  8
JIH-4X2EVS
  6
CONTINUOUS
100
AcDbLine
 10
5584.704142
 20
1007.733665
 30
66.869135
 11
5579.990776
 21
1017.446269
 31
0.0
  0
ENDSEC
  0
SECTION
  2
OBJECTS
  0
DICTIONARY
  5
1A
100
AcDbDictionary
  3
ACAD_GROUP
350
18
  3
ACAD_IMAGE_VARS
350
723
  3
ACAD_MLINESTYLE
350
19
  0
DICTIONARY
  5
981
100
AcDbDictionary
280
     1
  3
ACAD_XREC_ROUNDTRIP
360
982
  0
DICTIONARY
  5
18
102
{ACAD_REACTORS
330
1A
102
}
100
AcDbDictionary
  0
ACAD_PROXY_OBJECT
  5
723
102
{ACAD_REACTORS
330
1A
102
}
100
AcDbProxyObject
 90
      499
 91
      507
 93
       16
310
A406F6
 94
        0
  0
DICTIONARY
  5
19
102
{ACAD_REACTORS
330
1A
102
}
100
AcDbDictionary
  3
STANDARD
350
1E
  0
XRECORD
  5
982
102
{ACAD_REACTORS
330
981
102
}
100
AcDbXrecord
102
EXTNAMES
  1
STANDARD
  2
Standard
102
ACADR14ROUNDTRIP
1000
DSTYLE
1002
{
1070
   289
 70
     0
1002
}
  0
MLINESTYLE
  5
1E
102
{ACAD_REACTORS
330
19
102
}
100
AcDbMlineStyle
  2
STANDARD
 70
     0
  3

 62
   256
 51
90.0
 52
90.0
 71
     2
 49
0.5
 62
   256
  6
BYLAYER
 49
-0.5
 62
   256
  6
BYLAYER
  0
ENDSEC
  0
EOF
